  0
SECTION
  2
HEADER
  9
$ACADVER
  1
AC1032
  9
$ACADMAINTVER
 90
      197
  9
$DWGCODEPAGE
  3
ANSI_1252
  9
$REQUIREDVERSIONS
160
                 0
  9
$INSBASE
 10
0.0
 20
0.0
 30
0.0
  9
$EXTMIN
 10
1.000000000000000E+20
 20
1.000000000000000E+20
 30
1.000000000000000E+20
  9
$EXTMAX
 10
-1.000000000000000E+20
 20
-1.000000000000000E+20
 30
-1.000000000000000E+20
  9
$LIMMIN
 10
0.0
 20
0.0
  9
$LIMMAX
 10
12.0
 20
9.0
  9
$ORTHOMODE
 70
     0
  9
$REGENMODE
 70
     1
  9
$FILLMODE
 70
     1
  9
$QTEXTMODE
 70
     0
  9
$MIRRTEXT
 70
     0
  9
$LTSCALE
 40
1.0
  9
$ATTMODE
 70
     1
  9
$TEXTSIZE
 40
0.2
  9
$TRACEWID
 40
0.05
  9
$TEXTSTYLE
  7
Standard
  9
$CLAYER
  8
0
  9
$CELTYPE
  6
ByLayer
  9
$CECOLOR
 62
   256
  9
$CELTSCALE
 40
1.0
  9
$DISPSILH
 70
     0
  9
$DIMSCALE
 40
1.0
  9
$DIMASZ
 40
0.18
  9
$DIMEXO
 40
0.0625
  9
$DIMDLI
 40
0.38
  9
$DIMRND
 40
0.0
  9
$DIMDLE
 40
0.0
  9
$DIMEXE
 40
0.18
  9
$DIMTP
 40
0.0
  9
$DIMTM
 40
0.0
  9
$DIMTXT
 40
0.18
  9
$DIMCEN
 40
0.09
  9
$DIMTSZ
 40
0.0
  9
$DIMTOL
 70
     0
  9
$DIMLIM
 70
     0
  9
$DIMTIH
 70
     1
  9
$DIMTOH
 70
     1
  9
$DIMSE1
 70
     0
  9
$DIMSE2
 70
     0
  9
$DIMTAD
 70
     0
  9
$DIMZIN
 70
     0
  9
$DIMBLK
  1

  9
$DIMASO
 70
     1
  9
$DIMSHO
 70
     1
  9
$DIMPOST
  1

  9
$DIMAPOST
  1

  9
$DIMALT
 70
     0
  9
$DIMALTD
 70
     2
  9
$DIMALTF
 40
25.4
  9
$DIMLFAC
 40
1.0
  9
$DIMTOFL
 70
     0
  9
$DIMTVP
 40
0.0
  9
$DIMTIX
 70
     0
  9
$DIMSOXD
 70
     0
  9
$DIMSAH
 70
     0
  9
$DIMBLK1
  1

  9
$DIMBLK2
  1

  9
$DIMSTYLE
  2
Standard
  9
$DIMCLRD
 70
     0
  9
$DIMCLRE
 70
     0
  9
$DIMCLRT
 70
     0
  9
$DIMTFAC
 40
1.0
  9
$DIMGAP
 40
0.09
  9
$DIMJUST
 70
     0
  9
$DIMSD1
 70
     0
  9
$DIMSD2
 70
     0
  9
$DIMTOLJ
 70
     1
  9
$DIMTZIN
 70
     0
  9
$DIMALTZ
 70
     0
  9
$DIMALTTZ
 70
     0
  9
$DIMUPT
 70
     0
  9
$DIMDEC
 70
     4
  9
$DIMTDEC
 70
     4
  9
$DIMALTU
 70
     2
  9
$DIMALTTD
 70
     2
  9
$DIMTXSTY
  7
Standard
  9
$DIMAUNIT
 70
     0
  9
$DIMADEC
 70
     0
  9
$DIMALTRND
 40
0.0
  9
$DIMAZIN
 70
     0
  9
$DIMDSEP
 70
    46
  9
$DIMATFIT
 70
     3
  9
$DIMFRAC
 70
     0
  9
$DIMLDRBLK
  1

  9
$DIMLUNIT
 70
     2
  9
$DIMLWD
 70
    -2
  9
$DIMLWE
 70
    -2
  9
$DIMTMOVE
 70
     0
  9
$DIMFXL
 40
1.0
  9
$DIMFXLON
 70
     0
  9
$DIMJOGANG
 40
0.7853981633974483
  9
$DIMTFILL
 70
     0
  9
$DIMTFILLCLR
 70
     0
  9
$DIMARCSYM
 70
     0
  9
$DIMLTYPE
  6

  9
$DIMLTEX1
  6

  9
$DIMLTEX2
  6

  9
$DIMTXTDIRECTION
 70
     0
  9
$LUNITS
 70
     2
  9
$LUPREC
 70
     4
  9
$SKETCHINC
 40
0.1
  9
$FILLETRAD
 40
0.0
  9
$AUNITS
 70
     0
  9
$AUPREC
 70
     0
  9
$MENU
  1
.
  9
$ELEVATION
 40
0.0
  9
$PELEVATION
 40
0.0
  9
$THICKNESS
 40
0.0
  9
$LIMCHECK
 70
     0
  9
$CHAMFERA
 40
0.0
  9
$CHAMFERB
 40
0.0
  9
$CHAMFERC
 40
0.0
  9
$CHAMFERD
 40
0.0
  9
$SKPOLY
 70
     0
  9
$TDCREATE
 40
2459587.394664352
  9
$TDUCREATE
 40
2459587.519664352
  9
$TDUPDATE
 40
2459587.394664352
  9
$TDUUPDATE
 40
2459587.519664352
  9
$TDINDWG
 40
0.0000000000
  9
$TDUSRTIMER
 40
0.0000000000
  9
$USRTIMER
 70
     1
  9
$ANGBASE
 50
0.0
  9
$ANGDIR
 70
     0
  9
$PDMODE
 70
     0
  9
$PDSIZE
 40
0.0
  9
$PLINEWID
 40
0.0
  9
$SPLFRAME
 70
     0
  9
$SPLINETYPE
 70
     6
  9
$SPLINESEGS
 70
     8
  9
$HANDSEED
  5
21E
  9
$SURFTAB1
 70
     6
  9
$SURFTAB2
 70
     6
  9
$SURFTYPE
 70
     6
  9
$SURFU
 70
     6
  9
$SURFV
 70
     6
  9
$UCSBASE
  2

  9
$UCSNAME
  2

  9
$UCSORG
 10
0.0
 20
0.0
 30
0.0
  9
$UCSXDIR
 10
1.0
 20
0.0
 30
0.0
  9
$UCSYDIR
 10
0.0
 20
1.0
 30
0.0
  9
$UCSORTHOREF
  2

  9
$UCSORTHOVIEW
 70
     0
  9
$UCSORGTOP
 10
0.0
 20
0.0
 30
0.0
  9
$UCSORGBOTTOM
 10
0.0
 20
0.0
 30
0.0
  9
$UCSORGLEFT
 10
0.0
 20
0.0
 30
0.0
  9
$UCSORGRIGHT
 10
0.0
 20
0.0
 30
0.0
  9
$UCSORGFRONT
 10
0.0
 20
0.0
 30
0.0
  9
$UCSORGBACK
 10
0.0
 20
0.0
 30
0.0
  9
$PUCSBASE
  2

  9
$PUCSNAME
  2

  9
$PUCSORG
 10
0.0
 20
0.0
 30
0.0
  9
$PUCSXDIR
 10
1.0
 20
0.0
 30
0.0
  9
$PUCSYDIR
 10
0.0
 20
1.0
 30
0.0
  9
$PUCSORTHOREF
  2

  9
$PUCSORTHOVIEW
 70
     0
  9
$PUCSORGTOP
 10
0.0
 20
0.0
 30
0.0
  9
$PUCSORGBOTTOM
 10
0.0
 20
0.0
 30
0.0
  9
$PUCSORGLEFT
 10
0.0
 20
0.0
 30
0.0
  9
$PUCSORGRIGHT
 10
0.0
 20
0.0
 30
0.0
  9
$PUCSORGFRONT
 10
0.0
 20
0.0
 30
0.0
  9
$PUCSORGBACK
 10
0.0
 20
0.0
 30
0.0
  9
$USERI1
 70
     0
  9
$USERI2
 70
     0
  9
$USERI3
 70
     0
  9
$USERI4
 70
     0
  9
$USERI5
 70
     0
  9
$USERR1
 40
0.0
  9
$USERR2
 40
0.0
  9
$USERR3
 40
0.0
  9
$USERR4
 40
0.0
  9
$USERR5
 40
0.0
  9
$WORLDVIEW
 70
     1
  9
$SHADEDGE
 70
     3
  9
$SHADEDIF
 70
    70
  9
$TILEMODE
 70
     1
  9
$MAXACTVP
 70
    64
  9
$PINSBASE
 10
0.0
 20
0.0
 30
0.0
  9
$PLIMCHECK
 70
     0
  9
$PEXTMIN
 10
1.000000000000000E+20
 20
1.000000000000000E+20
 30
1.000000000000000E+20
  9
$PEXTMAX
 10
-1.000000000000000E+20
 20
-1.000000000000000E+20
 30
-1.000000000000000E+20
  9
$PLIMMIN
 10
0.0
 20
0.0
  9
$PLIMMAX
 10
12.0
 20
9.0
  9
$UNITMODE
 70
     0
  9
$VISRETAIN
 70
     1
  9
$PLINEGEN
 70
     0
  9
$PSLTSCALE
 70
     1
  9
$TREEDEPTH
 70
  3020
  9
$CMLSTYLE
  2
Standard
  9
$CMLJUST
 70
     0
  9
$CMLSCALE
 40
1.0
  9
$PROXYGRAPHICS
 70
     1
  9
$MEASUREMENT
 70
     0
  9
$CELWEIGHT
370
    -1
  9
$ENDCAPS
280
     0
  9
$JOINSTYLE
280
     0
  9
$LWDISPLAY
290
     1
  9
$INSUNITS
 70
     4
  9
$HYPERLINKBASE
  1

  9
$STYLESHEET
  1

  9
$XEDIT
290
     1
  9
$CEPSNTYPE
380
     0
  9
$PSTYLEMODE
290
     1
  9
$FINGERPRINTGUID
  2
{38FFA96B-B582-4A4A-B0AC-E41478E25A71}
  9
$VERSIONGUID
  2
{C3D035E6-752E-0B40-9674-CCBDF96CC37E}
  9
$EXTNAMES
290
     1
  9
$PSVPSCALE
 40
0.0
  9
$OLESTARTUP
290
     0
  9
$SORTENTS
280
   127
  9
$INDEXCTL
280
     0
  9
$HIDETEXT
280
     1
  9
$XCLIPFRAME
280
     2
  9
$HALOGAP
280
     0
  9
$OBSCOLOR
 70
   257
  9
$OBSLTYPE
280
     0
  9
$INTERSECTIONDISPLAY
280
     0
  9
$INTERSECTIONCOLOR
 70
   257
  9
$DIMASSOC
280
     2
  9
$PROJECTNAME
  1

  9
$CAMERADISPLAY
290
     0
  9
$LENSLENGTH
 40
50.0
  9
$CAMERAHEIGHT
 40
0.0
  9
$STEPSPERSEC
 40
2.0
  9
$STEPSIZE
 40
6.0
  9
$3DDWFPREC
 40
2.0
  9
$PSOLWIDTH
 40
0.25
  9
$PSOLHEIGHT
 40
4.0
  9
$LOFTANG1
 40
1.570796326794896
  9
$LOFTANG2
 40
1.570796326794896
  9
$LOFTMAG1
 40
0.0
  9
$LOFTMAG2
 40
0.0
  9
$LOFTPARAM
 70
     7
  9
$LOFTNORMALS
280
     1
  9
$LATITUDE
 40
37.795
  9
$LONGITUDE
 40
-122.394
  9
$NORTHDIRECTION
 40
0.0
  9
$TIMEZONE
 70
 -8000
  9
$LIGHTGLYPHDISPLAY
280
     1
  9
$TILEMODELIGHTSYNCH
280
     1
  9
$CMATERIAL
347
11
  9
$SOLIDHIST
280
     0
  9
$SHOWHIST
280
     1
  9
$DWFFRAME
280
     2
  9
$DGNFRAME
280
     0
  9
$REALWORLDSCALE
290
     1
  9
$INTERFERECOLOR
 62
     1
  9
$INTERFEREOBJVS
345
33
  9
$INTERFEREVPVS
346
30
  9
$CSHADOW
280
     0
  9
$SHADOWPLANELOCATION
 40
0.0
  0
ENDSEC
  0
SECTION
  2
CLASSES
  0
CLASS
  1
ACDBDICTIONARYWDFLT
  2
AcDbDictionaryWithDefault
  3
ObjectDBX Classes
 90
        0
 91
        1
280
     0
281
     0
  0
CLASS
  1
MATERIAL
  2
AcDbMaterial
  3
ObjectDBX Classes
 90
     1153
 91
        3
280
     0
281
     0
  0
CLASS
  1
VISUALSTYLE
  2
AcDbVisualStyle
  3
ObjectDBX Classes
 90
     4095
 91
       24
280
     0
281
     0
  0
CLASS
  1
SCALE
  2
AcDbScale
  3
ObjectDBX Classes
 90
     1153
 91
       17
280
     0
281
     0
  0
CLASS
  1
TABLESTYLE
  2
AcDbTableStyle
  3
ObjectDBX Classes
 90
     4095
 91
        1
280
     0
281
     0
  0
CLASS
  1
MLEADERSTYLE
  2
AcDbMLeaderStyle
  3
ACDB_MLEADERSTYLE_CLASS
 90
     4095
 91
        1
280
     0
281
     0
  0
CLASS
  1
ACDBSECTIONVIEWSTYLE
  2
AcDbSectionViewStyle
  3
ObjectDBX Classes
 90
     1025
 91
        1
280
     0
281
     0
  0
CLASS
  1
ACDBDETAILVIEWSTYLE
  2
AcDbDetailViewStyle
  3
ObjectDBX Classes
 90
     1025
 91
        1
280
     0
281
     0
  0
CLASS
  1
DICTIONARYVAR
  2
AcDbDictionaryVar
  3
ObjectDBX Classes
 90
        0
 91
        5
280
     0
281
     0
  0
CLASS
  1
CELLSTYLEMAP
  2
AcDbCellStyleMap
  3
ObjectDBX Classes
 90
     1152
 91
        1
280
     0
281
     0
  0
ENDSEC
  0
SECTION
  2
TABLES
  0
TABLE
  2
VPORT
  5
8
330
0
100
AcDbSymbolTable
 70
     1
  0
VPORT
  5
57
330
8
100
AcDbSymbolTableRecord
100
AcDbViewportTableRecord
  2
*Active
 70
     0
 10
0.0
 20
0.0
 11
1.0
 21
1.0
 12
0.0
 22
0.0
 13
0.0
 23
0.0
 14
1.0
 24
1.0
 15
0.0
 25
0.0
 16
0.0
 26
0.0
 36
1.0
 17
109.6746913306064
 27
58.43561168982832
 37
0.0
 40
234.3553144851298
 41
1.472636320708512
 42
50.0
 43
0.0
 44
0.0
 50
0.0
 51
0.0
 71
     0
 72
   100
 73
     1
 74
     1
 75
     0
 76
     0
 77
     0
 78
     0
281
     0
 65
     1
110
0.0
120
0.0
130
0.0
111
1.0
121
0.0
131
0.0
112
0.0
122
1.0
132
0.0
 79
     0
146
0.0
 60
     3
 61
     5
292
     1
282
     1
141
0.0
142
0.0
 63
   250
421
  3355443
  0
ENDTAB
  0
TABLE
  2
LTYPE
  5
5
330
0
100
AcDbSymbolTable
 70
     1
  0
LTYPE
  5
5B
330
5
100
AcDbSymbolTableRecord
100
AcDbLinetypeTableRecord
  2
ByBlock
 70
     0
  3

 72
    65
 73
     0
 40
0.0
  0
LTYPE
  5
5C
330
5
100
AcDbSymbolTableRecord
100
AcDbLinetypeTableRecord
  2
ByLayer
 70
     0
  3

 72
    65
 73
     0
 40
0.0
  0
LTYPE
  5
5D
330
5
100
AcDbSymbolTableRecord
100
AcDbLinetypeTableRecord
  2
Continuous
 70
     0
  3
Solid line
 72
    65
 73
     0
 40
0.0
  0
ENDTAB
  0
TABLE
  2
LAYER
  5
2
330
0
100
AcDbSymbolTable
 70
     2
  0
LAYER
  5
54
330
2
100
AcDbSymbolTableRecord
100
AcDbLayerTableRecord
  2
0
 70
     0
 62
     7
  6
Continuous
370
    -3
390
F
347
21
348
0
  0
LAYER
  5
78
330
2
100
AcDbSymbolTableRecord
100
AcDbLayerTableRecord
  2
1
 70
     0
 62
     7
  6
Continuous
370
     0
390
F
347
21
348
0
  0
ENDTAB
  0
TABLE
  2
STYLE
  5
3
330
0
100
AcDbSymbolTable
 70
     2
  0
STYLE
  5
55
330
3
100
AcDbSymbolTableRecord
100
AcDbTextStyleTableRecord
  2
Standard
 70
     0
 40
0.0
 41
1.0
 50
0.0
 71
     0
 42
0.2
  3
txt
  4

  0
STYLE
  5
5A
330
3
100
AcDbSymbolTableRecord
100
AcDbTextStyleTableRecord
  2
Annotative
 70
     0
 40
0.0
 41
1.0
 50
0.0
 71
     0
 42
0.2
  3
txt
  4

1001
AcadAnnotative
1000
AnnotativeData
1002
{
1070
     1
1070
     1
1002
}
  0
ENDTAB
  0
TABLE
  2
VIEW
  5
6
330
0
100
AcDbSymbolTable
 70
     0
  0
ENDTAB
  0
TABLE
  2
UCS
  5
7
330
0
100
AcDbSymbolTable
 70
     0
  0
ENDTAB
  0
TABLE
  2
APPID
  5
9
330
0
100
AcDbSymbolTable
 70
     2
  0
APPID
  5
56
330
9
100
AcDbSymbolTableRecord
100
AcDbRegAppTableRecord
  2
ACAD
 70
     0
  0
APPID
  5
5E
330
9
100
AcDbSymbolTableRecord
100
AcDbRegAppTableRecord
  2
AcadAnnotative
 70
     0
  0
ENDTAB
  0
TABLE
  2
DIMSTYLE
  5
A
330
0
100
AcDbSymbolTable
 70
     2
100
AcDbDimStyleTable
 71
     0
  0
DIMSTYLE
105
58
330
A
100
AcDbSymbolTableRecord
100
AcDbDimStyleTableRecord
  2
Standard
 70
     0
340
55
  0
DIMSTYLE
105
59
330
A
100
AcDbSymbolTableRecord
100
AcDbDimStyleTableRecord
  2
Annotative
 70
     0
340
55
1001
AcadAnnotative
1000
AnnotativeData
1002
{
1070
     1
1070
     1
1002
}
  0
ENDTAB
  0
TABLE
  2
BLOCK_RECORD
  5
1
330
0
100
AcDbSymbolTable
 70
     5
  0
BLOCK_RECORD
  5
70
330
1
100
AcDbSymbolTableRecord
100
AcDbBlockTableRecord
  2
*Model_Space
340
73
 70
     0
280
     1
281
     0
  0
BLOCK_RECORD
  5
6C
330
1
100
AcDbSymbolTableRecord
100
AcDbBlockTableRecord
  2
*Paper_Space
340
6F
 70
     0
280
     1
281
     0
  0
BLOCK_RECORD
  5
74
330
1
100
AcDbSymbolTableRecord
100
AcDbBlockTableRecord
  2
*Paper_Space0
340
77
 70
     0
280
     1
281
     0
  0
BLOCK_RECORD
  5
79
330
1
100
AcDbSymbolTableRecord
100
AcDbBlockTableRecord
  2
Block_0
340
0
102
{BLKREFS
331
7A
102
}
 70
     0
280
     1
281
     0
  0
BLOCK_RECORD
  5
1F3
330
1
100
AcDbSymbolTableRecord
100
AcDbBlockTableRecord
  2
Block_1
340
0
102
{BLKREFS
331
1F4
102
}
 70
     0
280
     1
281
     0
  0
BLOCK_RECORD
  5
207
330
1
100
AcDbSymbolTableRecord
100
AcDbBlockTableRecord
  2
Block_2
340
0
102
{BLKREFS
331
208
102
}
 70
     0
280
     1
281
     0
  0
BLOCK_RECORD
  5
20C
330
1
100
AcDbSymbolTableRecord
100
AcDbBlockTableRecord
  2
Block_3
340
0
102
{BLKREFS
331
20D
102
}
 70
     0
280
     1
281
     0
  0
ENDTAB
  0
ENDSEC
  0
SECTION
  2
BLOCKS
  0
BLOCK
  5
71
330
70
100
AcDbEntity
  8
0
100
AcDbBlockBegin
  2
*Model_Space
 70
     0
 10
0.0
 20
0.0
 30
0.0
  3
*Model_Space
  1

  0
ENDBLK
  5
72
330
70
100
AcDbEntity
  8
0
100
AcDbBlockEnd
  0
BLOCK
  5
6D
330
6C
100
AcDbEntity
 67
     1
  8
0
100
AcDbBlockBegin
  2
*Paper_Space
 70
     0
 10
0.0
 20
0.0
 30
0.0
  3
*Paper_Space
  1

  0
ENDBLK
  5
6E
330
6C
100
AcDbEntity
 67
     1
  8
0
100
AcDbBlockEnd
  0
BLOCK
  5
75
330
74
100
AcDbEntity
 67
     1
  8
0
100
AcDbBlockBegin
  2
*Paper_Space0
 70
     0
 10
0.0
 20
0.0
 30
0.0
  3
*Paper_Space0
  1

  0
ENDBLK
  5
76
330
74
100
AcDbEntity
 67
     1
  8
0
100
AcDbBlockEnd
  0
BLOCK
  5
7B
330
79
100
AcDbEntity
  8
0
100
AcDbBlockBegin
  2
Block_0
 70
     0
 10
0.0
 20
0.0
 30
0.0
  3
Block_0
  1

  0
LINE
  5
7D
330
79
100
AcDbEntity
  8
1
 62
     7
370
    25
100
AcDbLine
 10
118.6504967736835
 20
36.87662323498314
 30
0.0
 11
118.6504967736835
 21
36.87662323498314
 31
0.0
  0
LINE
  5
7E
330
79
100
AcDbEntity
  8
1
 62
     7
370
    35
100
AcDbLine
 10
13.65537664433614
 20
101.919591004842
 30
0.0
 11
-4.238058124772509
 21
101.919591004842
 31
0.0
  0
LINE
  5
7F
330
79
100
AcDbEntity
  8
1
 62
     7
370
    35
100
AcDbLine
 10
-8.706739848492569
 20
99.83581032141637
 30
0.0
 11
-30.7163397896688
 21
73.60579095603021
 31
0.0
  0
LINE
  5
80
330
79
100
AcDbEntity
  8
1
 62
     7
370
    35
100
AcDbLine
 10
18.12405953474655
 20
99.83581032141637
 30
0.0
 11
40.13365947592278
 21
73.60579095603021
 31
0.0
  0
LINE
  5
81
330
79
100
AcDbEntity
  8
1
 62
     7
370
    35
100
AcDbLine
 10
-53.62584039889884
 20
30.75150070957049
 30
0.0
 11
63.0431600851525
 21
30.75150070957049
 31
0.0
  0
LINE
  5
82
330
79
100
AcDbEntity
  8
1
 62
     7
370
    35
100
AcDbLine
 10
63.0431600851525
 20
49.00201495494044
 30
0.0
 11
63.0431600851525
 21
48.92063132696286
 31
0.0
  0
LINE
  5
83
330
79
100
AcDbEntity
  8
1
 62
     7
370
    35
100
AcDbLine
 10
-53.62584039889884
 20
48.92063132696286
 30
0.0
 11
-53.62584039889884
 21
49.00201495494044
 31
0.0
  0
LINE
  5
84
330
79
100
AcDbEntity
  8
1
 62
     7
370
    35
100
AcDbLine
 10
58.87559871830189
 20
57.83622433891302
 30
0.0
 11
58.87559871830189
 21
57.9176079668906
 31
0.0
  0
LINE
  5
85
330
79
100
AcDbEntity
  8
1
 62
     7
370
    35
100
AcDbLine
 10
12.20799852468097
 20
96.98098521421192
 30
0.0
 11
58.87559871830189
 21
57.9176079668906
 31
0.0
  0
LINE
  5
86
330
79
100
AcDbEntity
  8
1
 62
     7
370
    35
100
AcDbLine
 10
-49.45827903204823
 20
57.9176079668906
 30
0.0
 11
-2.790678838427633
 21
96.98098521421192
 31
0.0
  0
LINE
  5
87
330
79
100
AcDbEntity
  8
1
 62
     7
370
    35
100
AcDbLine
 10
-49.45827903204823
 20
57.9176079668906
 30
0.0
 11
-49.45827903204823
 21
57.83622433891302
 31
0.0
  0
LINE
  5
88
330
79
100
AcDbEntity
  8
1
 62
     7
370
    35
100
AcDbLine
 10
2.083607332235718
 20
56.81562608978871
 30
0.0
 11
2.083607332235718
 21
90.64277609293533
 31
0.0
  0
LINE
  5
89
330
79
100
AcDbEntity
  8
1
 62
     7
370
    35
100
AcDbLine
 10
7.333712354017944
 20
90.64277609293533
 30
0.0
 11
7.333712354017944
 21
56.81562608978871
 31
0.0
  0
LINE
  5
8A
330
79
100
AcDbEntity
  8
1
 62
     7
370
    35
100
AcDbLine
 10
-22.4168827694152
 20
56.81562608978871
 30
0.0
 11
-22.4168827694152
 21
70.13450201723786
 31
0.0
  0
LINE
  5
8B
330
79
100
AcDbEntity
  8
1
 62
     7
370
    35
100
AcDbLine
 10
-17.16677774763265
 20
70.13450201723786
 30
0.0
 11
-17.16677774763265
 21
56.81562608978871
 31
0.0
  0
LINE
  5
8C
330
79
100
AcDbEntity
  8
1
 62
     7
370
    35
100
AcDbLine
 10
-46.91737287106612
 20
41.80198709405813
 30
0.0
 11
-46.91737287106612
 21
49.62622910823075
 31
0.0
  0
LINE
  5
8D
330
79
100
AcDbEntity
  8
1
 62
     7
370
    35
100
AcDbLine
 10
-41.66726784928357
 20
49.62622910823075
 30
0.0
 11
-41.66726784928357
 21
41.80198709405813
 31
0.0
  0
LINE
  5
8E
330
79
100
AcDbEntity
  8
1
 62
     7
370
    35
100
AcDbLine
 10
51.08458753553724
 20
49.62622910823075
 30
0.0
 11
51.08458753553724
 21
41.80198709405813
 31
0.0
  0
LINE
  5
8F
330
79
100
AcDbEntity
  8
1
 62
     7
370
    35
100
AcDbLine
 10
56.33469255731978
 20
41.80198709405813
 30
0.0
 11
56.33469255731978
 21
49.62622910823075
 31
0.0
  0
LINE
  5
90
330
79
100
AcDbEntity
  8
1
 62
     7
370
    35
100
AcDbLine
 10
26.58409743388664
 20
70.13450201723786
 30
0.0
 11
26.58409743388664
 21
56.81562608978871
 31
0.0
  0
LINE
  5
91
330
79
100
AcDbEntity
  8
1
 62
     7
370
    35
100
AcDbLine
 10
31.83420245566886
 20
56.81562608978871
 30
0.0
 11
31.83420245566886
 21
70.13450201723786
 31
0.0
  0
LINE
  5
92
330
79
100
AcDbEntity
  8
1
 62
     7
370
    35
100
AcDbLine
 10
-49.45827903204823
 20
57.83622433891302
 30
0.0
 11
-2.790678838427633
 21
96.89960158623433
 31
0.0
  0
LINE
  5
93
330
79
100
AcDbEntity
  8
1
 62
     7
370
    35
100
AcDbLine
 10
-53.62584039889884
 20
33.24770397632729
 30
0.0
 11
-53.62584039889884
 21
48.92063132696286
 31
0.0
  0
LINE
  5
94
330
79
100
AcDbEntity
  8
1
 62
     7
370
    35
100
AcDbLine
 10
-53.62584039889884
 20
33.24770397632729
 30
0.0
 11
63.0431600851525
 21
33.24770397632729
 31
0.0
  0
LINE
  5
95
330
79
100
AcDbEntity
  8
1
 62
     7
370
    35
100
AcDbLine
 10
63.0431600851525
 20
33.24770397632729
 30
0.0
 11
63.0431600851525
 21
48.92063132696286
 31
0.0
  0
LINE
  5
96
330
79
100
AcDbEntity
  8
1
 62
     7
370
    35
100
AcDbLine
 10
12.20799852468097
 20
96.89960158623433
 30
0.0
 11
58.87559871830189
 21
57.83622433891302
 31
0.0
  0
LINE
  5
97
330
79
100
AcDbEntity
  8
1
 62
     7
370
    35
100
AcDbLine
 10
-2.790678838427633
 20
96.89960158623433
 30
0.0
 11
-2.790678838427633
 21
96.98098521421192
 31
0.0
  0
LINE
  5
98
330
79
100
AcDbEntity
  8
1
 62
     7
370
    35
100
AcDbLine
 10
12.20799852468097
 20
96.98098521421192
 30
0.0
 11
12.20799852468097
 21
96.89960158623433
 31
0.0
  0
LINE
  5
99
330
79
100
AcDbEntity
  8
1
 62
     7
370
    35
100
AcDbLine
 10
-53.62584039889884
 20
30.75150070957049
 30
0.0
 11
-53.62584039889884
 21
33.24770397632729
 31
0.0
  0
LINE
  5
9A
330
79
100
AcDbEntity
  8
1
 62
     7
370
    35
100
AcDbLine
 10
63.0431600851525
 20
30.75150070957049
 30
0.0
 11
63.0431600851525
 21
33.24770397632729
 31
0.0
  0
LINE
  5
9B
330
79
100
AcDbEntity
  8
1
 62
     7
370
    70
100
AcDbLine
 10
1.875513002902465
 20
44.19517046669747
 30
0.0
 11
1.230480433165953
 21
48.12627877026748
 31
0.0
  0
LINE
  5
9C
330
79
100
AcDbEntity
  8
1
 62
     7
370
    70
100
AcDbLine
 10
5.340556650098752
 20
39.72347168262473
 30
0.0
 11
4.972503287651427
 21
39.72347168262473
 31
0.0
  0
LINE
  5
9D
330
79
100
AcDbEntity
  8
1
 62
     7
370
    70
100
AcDbLine
 10
-2.875336198558411
 20
44.19517046669747
 30
0.0
 11
-2.074373176295411
 21
44.19517046669747
 31
0.0
  0
LINE
  5
9E
330
79
100
AcDbEntity
  8
1
 62
     7
370
    70
100
AcDbLine
 10
-15.68504060733496
 20
41.63022349147563
 30
0.0
 11
25.10244196188902
 21
41.63022349147563
 31
0.0
  0
LINE
  5
9F
330
79
100
AcDbEntity
  8
1
 62
     7
370
    70
100
AcDbLine
 10
9.939846986480793
 20
37.75384928279214
 30
0.0
 11
10.33741877274016
 21
37.75384928279214
 31
0.0
  0
LINE
  5
A0
330
79
100
AcDbEntity
  8
1
 62
     7
370
    70
100
AcDbLine
 10
10.56031606485502
 20
48.13489360926284
 30
0.0
 11
10.56031606485502
 21
47.46583305887722
 31
0.0
  0
LINE
  5
A1
330
79
100
AcDbEntity
  8
1
 62
     7
370
    70
100
AcDbLine
 10
-9.560485093264981
 20
44.19517046669747
 30
0.0
 11
-9.561150106567486
 21
45.50405664932751
 31
0.0
  0
LINE
  5
A2
330
79
100
AcDbEntity
  8
1
 62
     7
370
    70
100
AcDbLine
 10
19.37496239082651
 20
44.20378647238318
 30
0.0
 11
20.17134498813028
 21
44.20378647238318
 31
0.0
  0
LINE
  5
A3
330
79
100
AcDbEntity
  8
1
 62
     7
370
    70
100
AcDbLine
 10
7.013422113679019
 20
39.42737742629614
 30
0.0
 11
7.159455534895019
 21
39.4273762596058
 31
0.0
  0
LINE
  5
A4
330
79
100
AcDbEntity
  8
1
 62
     7
370
    70
100
AcDbLine
 10
8.742088026811083
 20
39.42737742629614
 30
0.0
 11
8.865563496783542
 21
39.4273762596058
 31
0.0
  0
LINE
  5
A5
330
79
100
AcDbEntity
  8
1
 62
     7
370
    70
100
AcDbLine
 10
-6.373198835591234
 20
37.73489990373391
 30
0.0
 11
-6.373198835591234
 21
39.72347168262473
 31
0.0
  0
LINE
  5
A6
330
79
100
AcDbEntity
  8
1
 62
     7
370
    70
100
AcDbLine
 10
12.48198983886787
 20
38.03217951710717
 30
0.0
 11
13.44486493331272
 21
39.40842688054756
 31
0.0
  0
LINE
  5
A7
330
79
100
AcDbEntity
  8
1
 62
     7
370
    70
100
AcDbLine
 10
1.690850475626209
 20
38.03217951710717
 30
0.0
 11
0.9013151819600995
 21
38.03217951710717
 31
0.0
  0
LINE
  5
A8
330
79
100
AcDbEntity
  8
1
 62
     7
370
    70
100
AcDbLine
 10
16.23299970646046
 20
48.13489360926284
 30
0.0
 11
15.3976893304549
 21
48.13489360926284
 31
0.0
  0
LINE
  5
A9
330
79
100
AcDbEntity
  8
1
 62
     7
370
    70
100
AcDbLine
 10
-10.98822432006849
 20
47.46296183477555
 30
0.0
 11
-10.98822432006849
 21
48.13202121847146
 31
0.0
  0
LINE
  5
AA
330
79
100
AcDbEntity
  8
1
 62
     7
370
    70
100
AcDbLine
 10
8.319419571857917
 20
37.73489990373391
 30
0.0
 11
8.742088026811083
 21
37.73489990373391
 31
0.0
  0
LINE
  5
AB
330
79
100
AcDbEntity
  8
1
 62
     7
370
    70
100
AcDbLine
 10
4.972503287651427
 20
39.72347168262473
 30
0.0
 11
4.962433586219595
 21
38.22168030783354
 31
0.0
  0
LINE
  5
AC
330
79
100
AcDbEntity
  8
1
 62
     7
370
    70
100
AcDbLine
 10
1.619614717310452
 20
38.87130963618906
 30
0.0
 11
0.9013151819600995
 21
38.87130963618906
 31
0.0
  0
LINE
  5
AD
330
79
100
AcDbEntity
  8
1
 62
     7
370
    70
100
AcDbLine
 10
7.318203543783788
 20
48.13202121847146
 30
0.0
 11
6.482875667427799
 21
48.13202121847146
 31
0.0
  0
LINE
  5
AE
330
79
100
AcDbEntity
  8
1
 62
     7
370
    70
100
AcDbLine
 10
4.082618653289423
 20
39.2366912785251
 30
0.0
 11
4.863274269328489
 21
37.73489990373391
 31
0.0
  0
LINE
  5
AF
330
79
100
AcDbEntity
  8
1
 62
     7
370
    70
100
AcDbLine
 10
15.79091169637619
 20
38.03217951710717
 30
0.0
 11
15.00968673561504
 21
38.03217951710717
 31
0.0
  0
LINE
  5
B0
330
79
100
AcDbEntity
  8
1
 62
     7
370
    70
100
AcDbLine
 10
-0.260479391619813
 20
44.19517046669747
 30
0.0
 11
0.640748969659588
 21
46.85323213789545
 31
0.0
  0
LINE
  5
B1
330
79
100
AcDbEntity
  8
1
 62
     7
370
    70
100
AcDbLine
 10
20.92128282303164
 20
48.13345741386747
 30
0.0
 11
19.37496239082651
 21
44.20378647238318
 31
0.0
  0
LINE
  5
B2
330
79
100
AcDbEntity
  8
1
 62
     7
370
    70
100
AcDbLine
 10
7.013422113679019
 20
38.01263629283626
 30
0.0
 11
7.013422113679019
 21
38.57403235619584
 31
0.0
  0
LINE
  5
B3
330
79
100
AcDbEntity
  8
1
 62
     7
370
    70
100
AcDbLine
 10
-3.171130615555751
 20
38.49171770959404
 30
0.0
 11
-2.86329479101899
 21
39.36739322638744
 31
0.0
  0
LINE
  5
B4
330
79
100
AcDbEntity
  8
1
 62
     7
370
    70
100
AcDbLine
 10
3.272507614698256
 20
39.72347168262473
 30
0.0
 11
2.88783241975227
 21
39.72347168262473
 31
0.0
  0
LINE
  5
B5
330
79
100
AcDbEntity
  8
1
 62
     7
370
    70
100
AcDbLine
 10
11.5072390068635
 20
37.73489990373391
 30
0.0
 11
11.93347053309214
 21
37.73489990373391
 31
0.0
  0
LINE
  5
B6
330
79
100
AcDbEntity
  8
1
 62
     7
370
    70
100
AcDbLine
 10
8.763458287629896
 20
39.76137160743155
 30
0.0
 11
8.319419571857917
 21
39.76137160743155
 31
0.0
  0
LINE
  5
B7
330
79
100
AcDbEntity
  8
1
 62
     7
370
    70
100
AcDbLine
 10
-5.767141878846413
 20
45.65677170420094
 30
0.0
 11
-5.207676687445663
 21
47.07912782332254
 31
0.0
  0
LINE
  5
B8
330
79
100
AcDbEntity
  8
1
 62
     7
370
    70
100
AcDbLine
 10
-6.339770833572281
 20
44.19517046669747
 30
0.0
 11
-6.025504213728458
 21
44.99201740662331
 31
0.0
  0
LINE
  5
B9
330
79
100
AcDbEntity
  8
1
 62
     7
370
    70
100
AcDbLine
 10
1.690850475626209
 20
37.73489990373391
 30
0.0
 11
1.690850475626209
 21
38.03217951710717
 31
0.0
  0
LINE
  5
BA
330
79
100
AcDbEntity
  8
1
 62
     7
370
    70
100
AcDbLine
 10
-7.736523940537606
 20
44.19517046669747
 30
0.0
 11
-8.830504657586345
 21
45.7546581622978
 31
0.0
  0
LINE
  5
BB
330
79
100
AcDbEntity
  8
1
 62
     7
370
    70
100
AcDbLine
 10
-1.395841436450448
 20
48.12627877026748
 30
0.0
 11
-2.23030362882254
 21
48.12627877026748
 31
0.0
  0
LINE
  5
BC
330
79
100
AcDbEntity
  8
1
 62
     7
370
    70
100
AcDbLine
 10
20.17134498813028
 20
44.20378647238318
 30
0.0
 11
20.48430724854875
 21
44.99887637716188
 31
0.0
  0
LINE
  5
BD
330
79
100
AcDbEntity
  8
1
 62
     7
370
    70
100
AcDbLine
 10
14.68093332598126
 20
48.13489360926284
 30
0.0
 11
13.85911455319148
 21
48.13489360926284
 31
0.0
  0
LINE
  5
BE
330
79
100
AcDbEntity
  8
1
 62
     7
370
    70
100
AcDbLine
 10
9.847562973787699
 20
37.73489990373391
 30
0.0
 11
9.519838584738291
 21
38.5319860151108
 31
0.0
  0
LINE
  5
BF
330
79
100
AcDbEntity
  8
1
 62
     7
370
    70
100
AcDbLine
 10
-4.812789454886922
 20
48.13489360926284
 30
0.0
 11
-5.584851232350176
 21
48.13489360926284
 31
0.0
  0
LINE
  5
C0
330
79
100
AcDbEntity
  8
1
 62
     7
370
    70
100
AcDbLine
 10
-0.4998666802629946
 20
45.47838363577144
 30
0.0
 11
-1.395841436450448
 21
48.12627877026748
 31
0.0
  0
LINE
  5
C1
330
79
100
AcDbEntity
  8
1
 62
     7
370
    70
100
AcDbLine
 10
-3.849140844968838
 20
37.73489990373391
 30
0.0
 11
-3.451406888798706
 21
37.73489990373391
 31
0.0
  0
LWPOLYLINE
  5
C2
330
79
100
AcDbEntity
  8
1
 62
     7
370
    70
100
AcDbPolyline
 90
        1
 70
     0
 43
0.0
 10
-2.68662409027566
 20
40.05553149173187
  0
LINE
  5
C3
330
79
100
AcDbEntity
  8
1
 62
     7
370
    70
100
AcDbLine
 10
-5.743944581480352
 20
39.72347168262473
 30
0.0
 11
-5.255383808433331
 21
38.17063995350185
 31
0.0
  0
LINE
  5
C4
330
79
100
AcDbEntity
  8
1
 62
     7
370
    70
100
AcDbLine
 10
-1.848118150346895
 20
37.73489990373391
 30
0.0
 11
-2.629605616359028
 21
39.72347168262473
 31
0.0
  0
LINE
  5
C5
330
79
100
AcDbEntity
  8
1
 62
     7
370
    70
100
AcDbLine
 10
22.12873464326165
 20
44.99887637716188
 30
0.0
 11
22.37201984321082
 21
44.38030083666525
 31
0.0
  0
LINE
  5
C6
330
79
100
AcDbEntity
  8
1
 62
     7
370
    70
100
AcDbLine
 10
-1.584828883574494
 20
37.73489990373391
 30
0.0
 11
-1.024437340309322
 21
37.73489990373391
 31
0.0
  0
LINE
  5
C7
330
79
100
AcDbEntity
  8
1
 62
     7
370
    70
100
AcDbLine
 10
-4.54244638034534
 20
39.21181978100169
 30
0.0
 11
-5.068007560205736
 21
37.73489990373391
 31
0.0
  0
LINE
  5
C8
330
79
100
AcDbEntity
  8
1
 62
     7
370
    70
100
AcDbLine
 10
-1.584828883574494
 20
39.76137160743155
 30
0.0
 11
-1.584828883574494
 21
37.73489990373391
 31
0.0
  0
LINE
  5
C9
330
79
100
AcDbEntity
  8
1
 62
     7
370
    70
100
AcDbLine
 10
-1.024437340309322
 20
39.76137160743155
 30
0.0
 11
-1.584828883574494
 21
39.76137160743155
 31
0.0
  0
LINE
  5
CA
330
79
100
AcDbEntity
  8
1
 62
     7
370
    70
100
AcDbLine
 10
4.18415568441069
 20
39.72347168262473
 30
0.0
 11
3.704497922790643
 21
39.72347168262473
 31
0.0
  0
LINE
  5
CB
330
79
100
AcDbEntity
  8
1
 62
     7
370
    70
100
AcDbLine
 10
6.59075365872521
 20
39.76137160743155
 30
0.0
 11
6.59075365872521
 21
37.73489990373391
 31
0.0
  0
LINE
  5
CC
330
79
100
AcDbEntity
  8
1
 62
     7
370
    70
100
AcDbLine
 10
-2.44719596748244
 20
38.19443809622078
 30
0.0
 11
-2.27434734319516
 21
37.73489990373391
 31
0.0
  0
LINE
  5
CD
330
79
100
AcDbEntity
  8
1
 62
     7
370
    70
100
AcDbLine
 10
3.704497922790643
 20
37.73489990373391
 30
0.0
 11
4.072552451927676
 21
37.73489990373391
 31
0.0
  0
LINE
  5
CE
330
79
100
AcDbEntity
  8
1
 62
     7
370
    70
100
AcDbLine
 10
12.08900197763752
 20
38.04994353912138
 30
0.0
 11
12.08900197763752
 21
37.73489990373391
 31
0.0
  0
LINE
  5
CF
330
79
100
AcDbEntity
  8
1
 62
     7
370
    70
100
AcDbLine
 10
-5.584851232350176
 20
48.13489360926284
 30
0.0
 11
-7.134728902380635
 21
44.19517046669747
 31
0.0
  0
LINE
  5
D0
330
79
100
AcDbEntity
  8
1
 62
     7
370
    70
100
AcDbLine
 10
11.15198190038998
 20
39.72347168262473
 30
0.0
 11
10.70912970835239
 21
39.72347168262473
 31
0.0
  0
LINE
  5
D1
330
79
100
AcDbEntity
  8
1
 62
     7
370
    70
100
AcDbLine
 10
4.863274269328489
 20
37.73489990373391
 30
0.0
 11
5.340556650098752
 21
37.73489990373391
 31
0.0
  0
LINE
  5
D2
330
79
100
AcDbEntity
  8
1
 62
     7
370
    70
100
AcDbLine
 10
20.48430724854875
 20
44.99887637716188
 30
0.0
 11
22.12873464326165
 21
44.99887637716188
 31
0.0
  0
LINE
  5
D3
330
79
100
AcDbEntity
  8
1
 62
     7
370
    70
100
AcDbLine
 10
11.33439154926625
 20
38.19443809622078
 30
0.0
 11
11.5072390068635
 21
37.73489990373391
 31
0.0
  0
LINE
  5
D4
330
79
100
AcDbEntity
  8
1
 62
     7
370
    70
100
AcDbLine
 10
4.962433586219595
 20
38.22168030783354
 30
0.0
 11
4.18415568441069
 21
39.72347168262473
 31
0.0
  0
LINE
  5
D5
330
79
100
AcDbEntity
  8
1
 62
     7
370
    70
100
AcDbLine
 10
-3.275909878200405
 20
38.19443809622078
 30
0.0
 11
-2.44719596748244
 21
38.19443809622078
 31
0.0
  0
LINE
  5
D6
330
79
100
AcDbEntity
  8
1
 62
     7
370
    70
100
AcDbLine
 10
3.704497922790643
 20
39.72347168262473
 30
0.0
 11
3.704497922790643
 21
37.73489990373391
 31
0.0
  0
LINE
  5
D7
330
79
100
AcDbEntity
  8
1
 62
     7
370
    70
100
AcDbLine
 10
18.04737883417833
 20
45.42362504039402
 30
0.0
 11
16.23299970646046
 21
48.13489360926284
 31
0.0
  0
LINE
  5
D8
330
79
100
AcDbEntity
  8
1
 62
     7
370
    70
100
AcDbLine
 10
-10.98822432006849
 20
48.13202121847146
 30
0.0
 11
-13.68108835411087
 21
48.13202121847146
 31
0.0
  0
LINE
  5
D9
330
79
100
AcDbEntity
  8
1
 62
     7
370
    70
100
AcDbLine
 10
7.193886890318035
 20
38.01263629283626
 30
0.0
 11
7.013422113679019
 21
38.01263629283626
 31
0.0
  0
LINE
  5
DA
330
79
100
AcDbEntity
  8
1
 62
     7
370
    70
100
AcDbLine
 10
12.3176568849261
 20
47.46583305887722
 30
0.0
 11
13.25318009889741
 21
47.46583305887722
 31
0.0
  0
LINE
  5
DB
330
79
100
AcDbEntity
  8
1
 62
     7
370
    70
100
AcDbLine
 10
9.954381610560959
 20
44.20091291490082
 30
0.0
 11
9.954381610560959
 21
48.13202121847146
 31
0.0
  0
LINE
  5
DC
330
79
100
AcDbEntity
  8
1
 62
     7
370
    70
100
AcDbLine
 10
2.88783241975227
 20
39.72347168262473
 30
0.0
 11
2.88783241975227
 21
37.73489990373391
 31
0.0
  0
LINE
  5
DD
330
79
100
AcDbEntity
  8
1
 62
     7
370
    70
100
AcDbLine
 10
8.742088026811083
 20
38.56870174956329
 30
0.0
 11
8.862001592198735
 21
38.56870174956329
 31
0.0
  0
LINE
  5
DE
330
79
100
AcDbEntity
  8
1
 62
     7
370
    70
100
AcDbLine
 10
13.04238138213273
 20
39.42619206925146
 30
0.0
 11
12.08900197763752
 21
38.04994353912138
 31
0.0
  0
LINE
  5
DF
330
79
100
AcDbEntity
  8
1
 62
     7
370
    70
100
AcDbLine
 10
21.69337260105526
 20
48.13345741386747
 30
0.0
 11
20.92128282303164
 21
48.13345741386747
 31
0.0
  0
LINE
  5
E0
330
79
100
AcDbEntity
  8
1
 62
     7
370
    70
100
AcDbLine
 10
14.17266249199244
 20
39.72347168262473
 30
0.0
 11
13.78798729704613
 21
39.72347168262473
 31
0.0
  0
LINE
  5
E1
330
79
100
AcDbEntity
  8
1
 62
     7
370
    70
100
AcDbLine
 10
-3.451406888798706
 20
37.73489990373391
 30
0.0
 11
-3.275909878200405
 21
38.19443809622078
 31
0.0
  0
LINE
  5
E2
330
79
100
AcDbEntity
  8
1
 62
     7
370
    70
100
AcDbLine
 10
12.3176568849261
 20
44.20378647238318
 30
0.0
 11
12.3176568849261
 21
47.46583305887722
 31
0.0
  0
LINE
  5
E3
330
79
100
AcDbEntity
  8
1
 62
     7
370
    70
100
AcDbLine
 10
14.68093332598126
 20
44.20378647238318
 30
0.0
 11
14.68093332598126
 21
48.13489360926284
 31
0.0
  0
LINE
  5
E4
330
79
100
AcDbEntity
  8
1
 62
     7
370
    70
100
AcDbLine
 10
14.17266249199244
 20
37.73489990373391
 30
0.0
 11
14.17266249199244
 21
39.72347168262473
 31
0.0
  0
LINE
  5
E5
330
79
100
AcDbEntity
  8
1
 62
     7
370
    70
100
AcDbLine
 10
-3.072456641706275
 20
39.72347168262473
 30
0.0
 11
-3.849140844968838
 21
37.73489990373391
 31
0.0
  0
LINE
  5
E6
330
79
100
AcDbEntity
  8
1
 62
     7
370
    70
100
AcDbLine
 10
-4.137568781275429
 20
37.73489990373391
 30
0.0
 11
-4.505623310412782
 21
37.73489990373391
 31
0.0
  0
LINE
  5
E7
330
79
100
AcDbEntity
  8
1
 62
     7
370
    70
100
AcDbLine
 10
-2.629605616359028
 20
39.72347168262473
 30
0.0
 11
-3.072456641706275
 21
39.72347168262473
 31
0.0
  0
LINE
  5
E8
330
79
100
AcDbEntity
  8
1
 62
     7
370
    70
100
AcDbLine
 10
-3.272058634494601
 20
44.19517046669747
 30
0.0
 11
-4.812789454886922
 21
48.13489360926284
 31
0.0
  0
LINE
  5
E9
330
79
100
AcDbEntity
  8
1
 62
     7
370
    70
100
AcDbLine
 10
1.686100880616671
 20
39.72347168262473
 30
0.0
 11
0.5166388203244057
 21
39.72347168262473
 31
0.0
  0
LINE
  5
EA
330
79
100
AcDbEntity
  8
1
 62
     7
370
    70
100
AcDbLine
 10
2.88783241975227
 20
37.73489990373391
 30
0.0
 11
3.272507614698256
 21
37.73489990373391
 31
0.0
  0
LINE
  5
EB
330
79
100
AcDbEntity
  8
1
 62
     7
370
    70
100
AcDbLine
 10
18.04737883417833
 20
48.12627877026748
 30
0.0
 11
18.04737883417833
 21
45.42362504039402
 31
0.0
  0
LINE
  5
EC
330
79
100
AcDbEntity
  8
1
 62
     7
370
    70
100
AcDbLine
 10
0.397449769430078
 20
48.12627877026748
 30
0.0
 11
-0.4998666802629946
 21
45.47838363577144
 31
0.0
  0
LINE
  5
ED
330
79
100
AcDbEntity
  8
1
 62
     7
370
    70
100
AcDbLine
 10
11.93347053309214
 20
37.73489990373391
 30
0.0
 11
11.15198190038998
 21
39.72347168262473
 31
0.0
  0
LINE
  5
EE
330
79
100
AcDbEntity
  8
1
 62
     7
370
    70
100
AcDbLine
 10
-5.969046917704353
 20
39.21181978100169
 30
0.0
 11
-6.005144306454202
 21
37.73489990373391
 31
0.0
  0
LINE
  5
EF
330
79
100
AcDbEntity
  8
1
 62
     7
370
    70
100
AcDbLine
 10
-2.27434734319516
 20
37.73489990373391
 30
0.0
 11
-1.848118150346895
 21
37.73489990373391
 31
0.0
  0
LINE
  5
F0
330
79
100
AcDbEntity
  8
1
 62
     7
370
    70
100
AcDbLine
 10
-11.92374636735009
 20
44.20378647238318
 30
0.0
 11
-11.92374636735009
 21
47.46296183477555
 31
0.0
  0
LINE
  5
F1
330
79
100
AcDbEntity
  8
1
 62
     7
370
    70
100
AcDbLine
 10
-6.373198835591234
 20
39.72347168262473
 30
0.0
 11
-5.743944581480352
 21
39.72347168262473
 31
0.0
  0
LINE
  5
F2
330
79
100
AcDbEntity
  8
1
 62
     7
370
    70
100
AcDbLine
 10
0.9013151819600995
 20
38.57403235619584
 30
0.0
 11
1.619614717310452
 21
38.57403235619584
 31
0.0
  0
LINE
  5
F3
330
79
100
AcDbEntity
  8
1
 62
     7
370
    70
100
AcDbLine
 10
11.22879093685815
 20
38.49171770959404
 30
0.0
 11
10.61314378827394
 21
38.49171770959404
 31
0.0
  0
LINE
  5
F4
330
79
100
AcDbEntity
  8
1
 62
     7
370
    70
100
AcDbLine
 10
13.46504983708621
 20
37.73489990373391
 30
0.0
 11
13.46504983708621
 21
38.03217951710717
 31
0.0
  0
LINE
  5
F5
330
79
100
AcDbEntity
  8
1
 62
     7
370
    70
100
AcDbLine
 10
16.22094779871046
 20
44.19517046669747
 30
0.0
 11
16.22094779871046
 21
46.90054375097145
 31
0.0
  0
LINE
  5
F6
330
79
100
AcDbEntity
  8
1
 62
     7
370
    70
100
AcDbLine
 10
13.44486493331272
 20
39.72347168262473
 30
0.0
 11
12.12580871390999
 21
39.72347168262473
 31
0.0
  0
LINE
  5
F7
330
79
100
AcDbEntity
  8
1
 62
     7
370
    70
100
AcDbLine
 10
-5.44081051766292
 20
37.73489990373391
 30
0.0
 11
-5.969046917704353
 21
39.21181978100169
 31
0.0
  0
LINE
  5
F8
330
79
100
AcDbEntity
  8
1
 62
     7
370
    70
100
AcDbLine
 10
-1.162161595311035
 20
38.01263629283626
 30
0.0
 11
-1.162161595311035
 21
39.42737742629614
 31
0.0
  0
LINE
  5
F9
330
79
100
AcDbEntity
  8
1
 62
     7
370
    70
100
AcDbLine
 10
13.44486493331272
 20
39.40842688054756
 30
0.0
 11
13.44486493331272
 21
39.72347168262473
 31
0.0
  0
LINE
  5
FA
330
79
100
AcDbEntity
  8
1
 62
     7
370
    70
100
AcDbLine
 10
6.59075365872521
 20
37.73489990373391
 30
0.0
 11
7.303115908640973
 21
37.73489990373391
 31
0.0
  0
LINE
  5
FB
330
79
100
AcDbEntity
  8
1
 62
     7
370
    70
100
AcDbLine
 10
3.272507614698256
 20
37.73489990373391
 30
0.0
 11
3.272507614698256
 21
39.72347168262473
 31
0.0
  0
LINE
  5
FC
330
79
100
AcDbEntity
  8
1
 62
     7
370
    70
100
AcDbLine
 10
0.9013151819600995
 20
38.03217951710717
 30
0.0
 11
0.9013151819600995
 21
38.57403235619584
 31
0.0
  0
LINE
  5
FD
330
79
100
AcDbEntity
  8
1
 62
     7
370
    70
100
AcDbLine
 10
-4.647666651811822
 20
45.65677170420094
 30
0.0
 11
-5.767141878846413
 21
45.65677170420094
 31
0.0
  0
LINE
  5
FE
330
79
100
AcDbEntity
  8
1
 62
     7
370
    70
100
AcDbLine
 10
7.013422113679019
 20
38.57403235619584
 30
0.0
 11
7.193886890318035
 21
38.57403235619584
 31
0.0
  0
LINE
  5
FF
330
79
100
AcDbEntity
  8
1
 62
     7
370
    70
100
AcDbLine
 10
1.619614717310452
 20
38.57403235619584
 30
0.0
 11
1.619614717310452
 21
38.87130963618906
 31
0.0
  0
LINE
  5
100
330
79
100
AcDbEntity
  8
1
 62
     7
370
    70
100
AcDbLine
 10
13.78798729704613
 20
39.72347168262473
 30
0.0
 11
13.78798729704613
 21
37.73489990373391
 31
0.0
  0
LINE
  5
101
330
79
100
AcDbEntity
  8
1
 62
     7
370
    70
100
AcDbLine
 10
14.62501154066905
 20
39.72347168262473
 30
0.0
 11
14.62501154066905
 21
37.73489990373391
 31
0.0
  0
LINE
  5
102
330
79
100
AcDbEntity
  8
1
 62
     7
370
    70
100
AcDbLine
 10
-4.505623310412782
 20
37.73489990373391
 30
0.0
 11
-4.54244638034534
 21
39.21181978100169
 31
0.0
  0
LINE
  5
103
330
79
100
AcDbEntity
  8
1
 62
     7
370
    70
100
AcDbLine
 10
-4.766821868695961
 20
39.72347168262473
 30
0.0
 11
-4.137568781275429
 21
39.72347168262473
 31
0.0
  0
LINE
  5
104
330
79
100
AcDbEntity
  8
1
 62
     7
370
    70
100
AcDbLine
 10
0.9013151819600995
 20
39.42619206925146
 30
0.0
 11
1.686100880616671
 21
39.42619206925146
 31
0.0
  0
LINE
  5
105
330
79
100
AcDbEntity
  8
1
 62
     7
370
    70
100
AcDbLine
 10
7.306132968993332
 20
44.20091291490082
 30
0.0
 11
7.306132968993332
 21
46.90628619917543
 31
0.0
  0
LINE
  5
106
330
79
100
AcDbEntity
  8
1
 62
     7
370
    70
100
AcDbLine
 10
10.56031606485502
 20
47.46583305887722
 30
0.0
 11
11.49583811213631
 21
47.46583305887722
 31
0.0
  0
LINE
  5
107
330
79
100
AcDbEntity
  8
1
 62
     7
370
    70
100
AcDbLine
 10
9.954381610560959
 20
48.13202121847146
 30
0.0
 11
9.131125475685454
 21
48.13202121847146
 31
0.0
  0
LINE
  5
108
330
79
100
AcDbEntity
  8
1
 62
     7
370
    70
100
AcDbLine
 10
-2.555484633661576
 20
38.49171770959404
 30
0.0
 11
-3.171130615555751
 21
38.49171770959404
 31
0.0
  0
LINE
  5
109
330
79
100
AcDbEntity
  8
1
 62
     7
370
    70
100
AcDbLine
 10
9.131125475685454
 20
45.42954015871902
 30
0.0
 11
7.318203543783788
 21
48.13202121847146
 31
0.0
  0
LINE
  5
10A
330
79
100
AcDbEntity
  8
1
 62
     7
370
    70
100
AcDbLine
 10
-6.025504213728458
 20
44.99201740662331
 30
0.0
 11
-4.381102486195874
 21
44.99201740662331
 31
0.0
  0
LINE
  5
10B
330
79
100
AcDbEntity
  8
1
 62
     7
370
    70
100
AcDbLine
 10
-1.162161595311035
 20
39.42737742629614
 30
0.0
 11
-0.9460777728242719
 21
39.4273762596058
 31
0.0
  0
LINE
  5
10C
330
79
100
AcDbEntity
  8
1
 62
     7
370
    70
100
AcDbLine
 10
7.303115908640973
 20
39.76137160743155
 30
0.0
 11
6.59075365872521
 21
39.76137160743155
 31
0.0
  0
LINE
  5
10D
330
79
100
AcDbEntity
  8
1
 62
     7
370
    70
100
AcDbLine
 10
21.86345850341064
 20
45.66506687013553
 30
0.0
 11
20.74396927609635
 21
45.66506687013553
 31
0.0
  0
LINE
  5
10E
330
79
100
AcDbEntity
  8
1
 62
     7
370
    70
100
AcDbLine
 10
18.86919760696779
 20
44.19517046669747
 30
0.0
 11
18.86919760696779
 21
48.12627877026748
 31
0.0
  0
LINE
  5
10F
330
79
100
AcDbEntity
  8
1
 62
     7
370
    70
100
AcDbLine
 10
13.25318009889741
 20
48.13489360926284
 30
0.0
 11
10.56031606485502
 21
48.13489360926284
 31
0.0
  0
LINE
  5
110
330
79
100
AcDbEntity
  8
1
 62
     7
370
    70
100
AcDbLine
 10
-5.255383808433331
 20
38.17063995350185
 30
0.0
 11
-4.766821868695961
 21
39.72347168262473
 31
0.0
  0
LINE
  5
111
330
79
100
AcDbEntity
  8
1
 62
     7
370
    70
100
AcDbLine
 10
8.865563496783542
 20
38.90506547809899
 30
0.0
 11
8.742088026811083
 21
38.90506547809899
 31
0.0
  0
LINE
  5
112
330
79
100
AcDbEntity
  8
1
 62
     7
370
    70
100
AcDbLine
 10
13.25318009889741
 20
47.46583305887722
 30
0.0
 11
13.25318009889741
 21
48.13489360926284
 31
0.0
  0
LINE
  5
113
330
79
100
AcDbEntity
  8
1
 62
     7
370
    70
100
AcDbLine
 10
9.131125475685454
 20
48.13202121847146
 30
0.0
 11
9.131125475685454
 21
45.42954015871902
 31
0.0
  0
LINE
  5
114
330
79
100
AcDbEntity
  8
1
 62
     7
370
    70
100
AcDbLine
 10
-7.736523940537606
 20
44.19517046669747
 30
0.0
 11
-8.643340746939463
 21
44.19517046669747
 31
0.0
  0
LINE
  5
115
330
79
100
AcDbEntity
  8
1
 62
     7
370
    70
100
AcDbLine
 10
8.742088026811083
 20
38.90506547809899
 30
0.0
 11
8.742088026811083
 21
39.42737742629614
 31
0.0
  0
LINE
  5
116
330
79
100
AcDbEntity
  8
1
 62
     7
370
    70
100
AcDbLine
 10
-2.094551079929378
 20
39.38776013380188
 30
0.0
 11
-2.108610861177529
 21
39.38776013380188
 31
0.0
  0
LINE
  5
117
330
79
100
AcDbEntity
  8
1
 62
     7
370
    70
100
AcDbLine
 10
12.12580871390999
 20
39.42619206925146
 30
0.0
 11
13.04238138213273
 21
39.42619206925146
 31
0.0
  0
LINE
  5
118
330
79
100
AcDbEntity
  8
1
 62
     7
370
    70
100
AcDbLine
 10
-0.9460777728242719
 20
38.01263629283626
 30
0.0
 11
-1.162161595311035
 21
38.01263629283626
 31
0.0
  0
LINE
  5
119
330
79
100
AcDbEntity
  8
1
 62
     7
370
    70
100
AcDbLine
 10
15.00968673561504
 20
38.03217951710717
 30
0.0
 11
15.00968673561504
 21
39.72347168262473
 31
0.0
  0
LINE
  5
11A
330
79
100
AcDbEntity
  8
1
 62
     7
370
    70
100
AcDbLine
 10
13.46504983708621
 20
38.03217951710717
 30
0.0
 11
12.48198983886787
 21
38.03217951710717
 31
0.0
  0
LINE
  5
11B
330
79
100
AcDbEntity
  8
1
 62
     7
370
    70
100
AcDbLine
 10
0.5166388203244057
 20
37.73489990373391
 30
0.0
 11
1.690850475626209
 21
37.73489990373391
 31
0.0
  0
LINE
  5
11C
330
79
100
AcDbEntity
  8
1
 62
     7
370
    70
100
AcDbLine
 10
8.742088026811083
 20
37.73489990373391
 30
0.0
 11
8.742088026811083
 21
38.56870174956329
 31
0.0
  0
LINE
  5
11D
330
79
100
AcDbEntity
  8
1
 62
     7
370
    70
100
AcDbLine
 10
10.92097961281135
 20
39.36739089300739
 30
0.0
 11
11.22879093685815
 21
38.49171770959404
 31
0.0
  0
LINE
  5
11E
330
79
100
AcDbEntity
  8
1
 62
     7
370
    70
100
AcDbLine
 10
12.12580871390999
 20
39.72347168262473
 30
0.0
 11
12.12580871390999
 21
39.42619206925146
 31
0.0
  0
LINE
  5
11F
330
79
100
AcDbEntity
  8
1
 62
     7
370
    70
100
AcDbLine
 10
10.70912970835239
 20
39.72347168262473
 30
0.0
 11
9.939846986480793
 21
37.75384928279214
 31
0.0
  0
LINE
  5
120
330
79
100
AcDbEntity
  8
1
 62
     7
370
    70
100
AcDbLine
 10
14.62501154066905
 20
37.73489990373391
 30
0.0
 11
15.79091169637619
 21
37.73489990373391
 31
0.0
  0
LINE
  5
121
330
79
100
AcDbEntity
  8
1
 62
     7
370
    70
100
AcDbLine
 10
13.78798729704613
 20
37.73489990373391
 30
0.0
 11
14.17266249199244
 21
37.73489990373391
 31
0.0
  0
LINE
  5
122
330
79
100
AcDbEntity
  8
1
 62
     7
370
    70
100
AcDbLine
 10
-2.23030362882254
 20
48.12627877026748
 30
0.0
 11
-2.875336198558411
 21
44.19517046669747
 31
0.0
  0
LINE
  5
123
330
79
100
AcDbEntity
  8
1
 62
     7
370
    70
100
AcDbLine
 10
7.013422113679019
 20
38.95244009243588
 30
0.0
 11
7.013422113679019
 21
39.42737742629614
 31
0.0
  0
LINE
  5
124
330
79
100
AcDbEntity
  8
1
 62
     7
370
    70
100
AcDbLine
 10
0.9013151819600995
 20
38.87130963618906
 30
0.0
 11
0.9013151819600995
 21
39.42619206925146
 31
0.0
  0
LINE
  5
125
330
79
100
AcDbEntity
  8
1
 62
     7
370
    70
100
AcDbLine
 10
-2.86329479101899
 20
39.36739322638744
 30
0.0
 11
-2.555484633661576
 21
38.49171770959404
 31
0.0
  0
LINE
  5
126
330
79
100
AcDbEntity
  8
1
 62
     7
370
    70
100
AcDbLine
 10
5.340556650098752
 20
37.73489990373391
 30
0.0
 11
5.340556650098752
 21
39.72347168262473
 31
0.0
  0
LINE
  5
127
330
79
100
AcDbEntity
  8
1
 62
     7
370
    70
100
AcDbLine
 10
-9.561150106567486
 20
45.50405664932751
 30
0.0
 11
-8.643340746939463
 21
44.19517046669747
 31
0.0
  0
LINE
  5
128
330
79
100
AcDbEntity
  8
1
 62
     7
370
    70
100
AcDbLine
 10
10.50567647185826
 20
38.19443809622078
 30
0.0
 11
11.33439154926625
 21
38.19443809622078
 31
0.0
  0
LINE
  5
129
330
79
100
AcDbEntity
  8
1
 62
     7
370
    70
100
AcDbLine
 10
-5.068007560205736
 20
37.73489990373391
 30
0.0
 11
-5.44081051766292
 21
37.73489990373391
 31
0.0
  0
LINE
  5
12A
330
79
100
AcDbEntity
  8
1
 62
     7
370
    70
100
AcDbLine
 10
9.37740440218705
 20
37.73489990373391
 30
0.0
 11
9.847562973787699
 21
37.73489990373391
 31
0.0
  0
LINE
  5
12B
330
79
100
AcDbEntity
  8
1
 62
     7
370
    70
100
AcDbLine
 10
18.86919760696779
 20
48.12627877026748
 30
0.0
 11
18.04737883417833
 21
48.12627877026748
 31
0.0
  0
LINE
  5
12C
330
79
100
AcDbEntity
  8
1
 62
     7
370
    70
100
AcDbLine
 10
-5.207676687445663
 20
47.07912782332254
 30
0.0
 11
-4.647666651811822
 21
45.65677170420094
 31
0.0
  0
LINE
  5
12D
330
79
100
AcDbEntity
  8
1
 62
     7
370
    70
100
AcDbLine
 10
-9.774922716154435
 20
47.57495007495966
 30
0.0
 11
-9.774922716154435
 21
46.37608859323634
 31
0.0
  0
LINE
  5
12E
330
79
100
AcDbEntity
  8
1
 62
     7
370
    70
100
AcDbLine
 10
10.33741877274016
 20
37.75384928279214
 30
0.0
 11
10.50567647185826
 21
38.19443809622078
 31
0.0
  0
LINE
  5
12F
330
79
100
AcDbEntity
  8
1
 62
     7
370
    70
100
AcDbLine
 10
10.61314378827394
 20
38.49171770959404
 30
0.0
 11
10.92097961281135
 21
39.36739089300739
 31
0.0
  0
LINE
  5
130
330
79
100
AcDbEntity
  8
1
 62
     7
370
    70
100
AcDbLine
 10
23.23697347885955
 20
44.20234911029683
 30
0.0
 11
21.69337260105526
 21
48.13345741386747
 31
0.0
  0
LINE
  5
131
330
79
100
AcDbEntity
  8
1
 62
     7
370
    70
100
AcDbLine
 10
-11.92374636735009
 20
47.46296183477555
 30
0.0
 11
-10.98822432006849
 21
47.46296183477555
 31
0.0
  0
LINE
  5
132
330
79
100
AcDbEntity
  8
1
 62
     7
370
    70
100
AcDbLine
 10
0.5166388203244057
 20
39.72347168262473
 30
0.0
 11
0.5166388203244057
 21
37.73489990373391
 31
0.0
  0
LINE
  5
133
330
79
100
AcDbEntity
  8
1
 62
     7
370
    70
100
AcDbLine
 10
15.00968673561504
 20
39.72347168262473
 30
0.0
 11
14.62501154066905
 21
39.72347168262473
 31
0.0
  0
LINE
  5
134
330
79
100
AcDbEntity
  8
1
 62
     7
370
    70
100
AcDbLine
 10
7.168953558224387
 20
38.95244009243588
 30
0.0
 11
7.013422113679019
 21
38.95244009243588
 31
0.0
  0
LINE
  5
135
330
79
100
AcDbEntity
  8
1
 62
     7
370
    70
100
AcDbLine
 10
21.30385680927911
 20
47.0868174771448
 30
0.0
 11
21.86345850341064
 21
45.66506687013553
 31
0.0
  0
LINE
  5
136
330
79
100
AcDbEntity
  8
1
 62
     7
370
    70
100
AcDbLine
 10
-2.074373176295411
 20
44.19517046669747
 30
0.0
 11
-1.638713628138153
 21
46.8622471515626
 31
0.0
  0
LINE
  5
137
330
79
100
AcDbEntity
  8
1
 62
     7
370
    70
100
AcDbLine
 10
8.319419571857917
 20
39.76137160743155
 30
0.0
 11
8.319419571857917
 21
37.73489990373391
 31
0.0
  0
LINE
  5
138
330
79
100
AcDbEntity
  8
1
 62
     7
370
    70
100
AcDbLine
 10
-4.137568781275429
 20
39.72347168262473
 30
0.0
 11
-4.137568781275429
 21
37.73489990373391
 31
0.0
  0
LINE
  5
139
330
79
100
AcDbEntity
  8
1
 62
     7
370
    70
100
AcDbLine
 10
12.08900197763752
 20
37.73489990373391
 30
0.0
 11
13.46504983708621
 21
37.73489990373391
 31
0.0
  0
LINE
  5
13A
330
79
100
AcDbEntity
  8
1
 62
     7
370
    70
100
AcDbLine
 10
-6.005144306454202
 20
37.73489990373391
 30
0.0
 11
-6.373198835591234
 21
37.73489990373391
 31
0.0
  0
LINE
  5
13B
330
79
100
AcDbEntity
  8
1
 62
     7
370
    70
100
AcDbLine
 10
1.686100880616671
 20
39.42619206925146
 30
0.0
 11
1.686100880616671
 21
39.72347168262473
 31
0.0
  0
LINE
  5
13C
330
79
100
AcDbEntity
  8
1
 62
     7
370
    70
100
AcDbLine
 10
20.74396927609635
 20
45.66506687013553
 30
0.0
 11
21.30385680927911
 21
47.0868174771448
 31
0.0
  0
LINE
  5
13D
330
79
100
AcDbEntity
  8
1
 62
     7
370
    70
100
AcDbLine
 10
-7.134728902380635
 20
44.19517046669747
 30
0.0
 11
-6.339770833572281
 21
44.19517046669747
 31
0.0
  0
LINE
  5
13E
330
79
100
AcDbEntity
  8
1
 62
     7
370
    70
100
AcDbLine
 10
1.230480433165953
 20
48.12627877026748
 30
0.0
 11
0.397449769430078
 21
48.12627877026748
 31
0.0
  0
LINE
  5
13F
330
79
100
AcDbEntity
  8
1
 62
     7
370
    70
100
AcDbLine
 10
4.072552451927676
 20
37.73489990373391
 30
0.0
 11
4.082618653289423
 21
39.2366912785251
 31
0.0
  0
LINE
  5
140
330
79
100
AcDbEntity
  8
1
 62
     7
370
    70
100
AcDbLine
 10
-17.45840941469265
 20
48.93639564230846
 30
0.0
 11
-17.45840941469265
 21
43.39927204574531
 31
0.0
  0
LINE
  5
141
330
79
100
AcDbEntity
  8
1
 62
     7
370
    70
100
AcDbLine
 10
26.87581076924703
 20
43.39927204574531
 30
0.0
 11
26.87581076924703
 21
48.93639564230846
 31
0.0
  0
LINE
  5
142
330
79
100
AcDbEntity
  8
1
 62
     7
370
    70
100
AcDbLine
 10
25.10244196188902
 20
50.70544419657815
 30
0.0
 11
-15.68504060733496
 21
50.70544419657815
 31
0.0
  0
LINE
  5
143
330
79
100
AcDbEntity
  8
1
 62
     7
370
    70
100
AcDbLine
 10
15.79091169637619
 20
37.73489990373391
 30
0.0
 11
15.79091169637619
 21
38.03217951710717
 31
0.0
  0
LINE
  5
144
330
79
100
AcDbEntity
  8
1
 62
     7
370
    35
100
AcDbLine
 10
124.01727079595
 20
98.7695279917726
 30
0.0
 11
122.2672357886892
 21
98.7695279917726
 31
0.0
  0
LINE
  5
145
330
79
100
AcDbEntity
  8
1
 62
     7
370
    35
100
AcDbLine
 10
122.2672357886892
 20
92.35273296514993
 30
0.0
 11
124.01727079595
 21
92.35273296514993
 31
0.0
  0
LINE
  5
146
330
79
100
AcDbEntity
  8
1
 62
     7
370
    35
100
AcDbLine
 10
122.2672357886892
 20
99.81954899612887
 30
0.0
 11
122.0338977877207
 21
100.0528869970969
 31
0.0
  0
LINE
  5
147
330
79
100
AcDbEntity
  8
1
 62
     7
370
    35
100
AcDbLine
 10
122.0338977877207
 20
91.06937395982525
 30
0.0
 11
122.2672357886892
 21
91.30271196079334
 31
0.0
  0
LINE
  5
148
330
79
100
AcDbEntity
  8
1
 62
     7
370
    35
100
AcDbLine
 10
128.6840308153118
 20
99.81954899612887
 30
0.0
 11
128.4506928143434
 21
100.0528869970969
 31
0.0
  0
LINE
  5
149
330
79
100
AcDbEntity
  8
1
 62
     7
370
    35
100
AcDbLine
 10
128.4506928143434
 20
91.06937395982525
 30
0.0
 11
128.6840308153118
 21
91.30271196079334
 31
0.0
  0
LINE
  5
14A
330
79
100
AcDbEntity
  8
1
 62
     7
370
    35
100
AcDbLine
 10
122.0338977877207
 20
100.0528869970969
 30
0.0
 11
119.3505107765882
 21
100.0528869970969
 31
0.0
  0
LINE
  5
14B
330
79
100
AcDbEntity
  8
1
 62
     7
370
    35
100
AcDbLine
 10
119.3505107765882
 20
91.06937395982525
 30
0.0
 11
122.0338977877207
 21
91.06937395982525
 31
0.0
  0
LINE
  5
14C
330
79
100
AcDbEntity
  8
1
 62
     7
370
    35
100
AcDbLine
 10
128.4506928143434
 20
100.0528869970969
 30
0.0
 11
125.4172988017579
 21
100.0528869970969
 31
0.0
  0
LINE
  5
14D
330
79
100
AcDbEntity
  8
1
 62
     7
370
    35
100
AcDbLine
 10
125.4172988017579
 20
91.06937395982525
 30
0.0
 11
128.4506928143434
 21
91.06937395982525
 31
0.0
  0
LINE
  5
14E
330
79
100
AcDbEntity
  8
1
 62
     7
370
    35
100
AcDbLine
 10
125.1839608007908
 20
91.30271196079334
 30
0.0
 11
125.4172988017579
 21
91.06937395982525
 31
0.0
  0
LINE
  5
14F
330
79
100
AcDbEntity
  8
1
 62
     7
370
    35
100
AcDbLine
 10
125.4172988017579
 20
100.0528869970969
 30
0.0
 11
125.1839608007908
 21
99.81954899612887
 31
0.0
  0
LINE
  5
150
330
79
100
AcDbEntity
  8
1
 62
     7
370
    35
100
AcDbLine
 10
121.1058717237202
 20
48.49395529184262
 30
0.0
 11
118.6504967736835
 21
47.9601782809683
 31
0.0
  0
LINE
  5
151
330
79
100
AcDbEntity
  8
1
 62
     7
370
    35
100
AcDbLine
 10
121.1058717237202
 20
36.34284622410817
 30
0.0
 11
121.3338837848168
 21
36.05994023159465
 31
0.0
  0
LINE
  5
152
330
79
100
AcDbEntity
  8
1
 62
     7
370
    35
100
AcDbLine
 10
121.3338837848168
 20
48.77686128435613
 30
0.0
 11
121.1058717237202
 21
48.49395529184262
 31
0.0
  0
LINE
  5
153
330
79
100
AcDbEntity
  8
1
 62
     7
370
    35
100
AcDbLine
 10
121.3338837848168
 20
35.00991922723841
 30
0.0
 11
124.01727079595
 21
35.00991922723841
 31
0.0
  0
LINE
  5
154
330
79
100
AcDbEntity
  8
1
 62
     7
370
    35
100
AcDbLine
 10
124.01727079595
 20
49.82688228871303
 30
0.0
 11
121.3338837848168
 21
49.82688228871303
 31
0.0
  0
LINE
  5
155
330
79
100
AcDbEntity
  8
1
 62
     7
370
    35
100
AcDbLine
 10
122.2672357886892
 20
91.30271196079334
 30
0.0
 11
122.2672357886892
 21
99.81954899612887
 31
0.0
  0
LINE
  5
156
330
79
100
AcDbEntity
  8
1
 62
     7
370
    35
100
AcDbLine
 10
128.6840308153118
 20
99.81954899612887
 30
0.0
 11
128.6840308153118
 21
91.30271196079334
 31
0.0
  0
LINE
  5
157
330
79
100
AcDbEntity
  8
1
 62
     7
370
    35
100
AcDbLine
 10
122.0338977877207
 20
100.0528869970969
 30
0.0
 11
122.0338977877207
 21
95.66919980691952
 31
0.0
  0
LINE
  5
158
330
79
100
AcDbEntity
  8
1
 62
     7
370
    35
100
AcDbLine
 10
122.0338977877207
 20
95.66919980691952
 30
0.0
 11
122.0338977877207
 21
91.06937395982525
 31
0.0
  0
LINE
  5
159
330
79
100
AcDbEntity
  8
1
 62
     7
370
    35
100
AcDbLine
 10
128.4506928143434
 20
100.0528869970969
 30
0.0
 11
128.4506928143434
 21
91.06937395982525
 31
0.0
  0
LINE
  5
15A
330
79
100
AcDbEntity
  8
1
 62
     7
370
    35
100
AcDbLine
 10
125.4172988017579
 20
100.0528869970969
 30
0.0
 11
125.4172988017579
 21
91.06937395982525
 31
0.0
  0
LINE
  5
15B
330
79
100
AcDbEntity
  8
1
 62
     7
370
    35
100
AcDbLine
 10
112.3503707475448
 20
80.9775054179544
 30
0.0
 11
112.3503707475448
 21
110.1447555389681
 31
0.0
  0
LINE
  5
15C
330
79
100
AcDbEntity
  8
1
 62
     7
370
    35
100
AcDbLine
 10
119.3505107765882
 20
91.06937395982525
 30
0.0
 11
119.3505107765882
 21
100.0528869970969
 31
0.0
  0
LINE
  5
15D
330
79
100
AcDbEntity
  8
1
 62
     7
370
    35
100
AcDbLine
 10
121.1058717237202
 20
48.49395529184262
 30
0.0
 11
121.1058717237202
 21
36.53312636375825
 31
0.0
  0
LINE
  5
15E
330
79
100
AcDbEntity
  8
1
 62
     7
370
    35
100
AcDbLine
 10
121.1058717237202
 20
36.53312636375825
 30
0.0
 11
121.1058717237202
 21
36.34284622410817
 31
0.0
  0
LINE
  5
15F
330
79
100
AcDbEntity
  8
1
 62
     7
370
    35
100
AcDbLine
 10
121.3338837848168
 20
35.00991922723841
 30
0.0
 11
121.3338837848168
 21
44.25799089000826
 31
0.0
  0
LINE
  5
160
330
79
100
AcDbEntity
  8
1
 62
     7
370
    35
100
AcDbLine
 10
121.3338837848168
 20
44.25799089000826
 30
0.0
 11
121.3338837848168
 21
49.82688228871303
 31
0.0
  0
LINE
  5
161
330
79
100
AcDbEntity
  8
1
 62
     7
370
    35
100
AcDbLine
 10
159.6860654722275
 20
99.62248805417148
 30
0.0
 11
159.4956628301273
 21
96.89960158623433
 31
0.0
  0
LINE
  5
162
330
79
100
AcDbEntity
  8
1
 62
     7
370
    35
100
AcDbLine
 10
158.5222175242386
 20
99.7038728488391
 30
0.0
 11
158.3318148821384
 21
96.98098521421192
 31
0.0
  0
LINE
  5
163
330
79
100
AcDbEntity
  8
1
 62
     7
370
    35
100
AcDbLine
 10
124.01727079595
 20
99.83581032141637
 30
0.0
 11
124.01727079595
 21
101.919591004842
 31
0.0
  0
LINE
  5
164
330
79
100
AcDbEntity
  8
1
 62
     7
370
    35
100
AcDbLine
 10
125.1839608007908
 20
101.919591004842
 30
0.0
 11
125.1839608007908
 21
99.83581032141637
 31
0.0
  0
LINE
  5
165
330
79
100
AcDbEntity
  8
1
 62
     7
370
    35
100
AcDbLine
 10
124.01727079595
 20
101.919591004842
 30
0.0
 11
125.1839608007908
 21
101.919591004842
 31
0.0
  0
LINE
  5
166
330
79
100
AcDbEntity
  8
1
 62
     7
370
    35
100
AcDbLine
 10
124.01727079595
 20
99.83581032141637
 30
0.0
 11
124.01727079595
 21
56.06211351671285
 31
0.0
  0
LINE
  5
167
330
79
100
AcDbEntity
  8
1
 62
     7
370
    35
100
AcDbLine
 10
125.1839608007908
 20
99.83581032141637
 30
0.0
 11
125.1839608007908
 21
56.06211351671285
 31
0.0
  0
LINE
  5
168
330
79
100
AcDbEntity
  8
1
 62
     7
370
    35
100
AcDbLine
 10
125.1839608007908
 20
99.83581032141637
 30
0.0
 11
124.01727079595
 21
99.83581032141637
 31
0.0
  0
LINE
  5
169
330
79
100
AcDbEntity
  8
1
 62
     7
370
    35
100
AcDbLine
 10
156.7640856883442
 20
57.83622433891302
 30
0.0
 11
159.4956628301273
 21
96.89960158623433
 31
0.0
  0
LINE
  5
16A
330
79
100
AcDbEntity
  8
1
 62
     7
370
    35
100
AcDbLine
 10
155.6002377403554
 20
57.9176079668906
 30
0.0
 11
158.3318148821384
 21
96.98098521421192
 31
0.0
  0
LINE
  5
16B
330
79
100
AcDbEntity
  8
1
 62
     7
370
    35
100
AcDbLine
 10
159.4956628301273
 20
96.89960158623433
 30
0.0
 11
158.3318148821384
 21
96.98098521421192
 31
0.0
  0
LINE
  5
16C
330
79
100
AcDbEntity
  8
1
 62
     7
370
    35
100
AcDbLine
 10
154.9767982692293
 20
49.00201495494044
 30
0.0
 11
155.6002377403554
 21
57.9176079668906
 31
0.0
  0
LINE
  5
16D
330
79
100
AcDbEntity
  8
1
 62
     7
370
    35
100
AcDbLine
 10
156.7640856883442
 20
57.83622433891302
 30
0.0
 11
156.1406462172175
 21
48.92063132696286
 31
0.0
  0
LINE
  5
16E
330
79
100
AcDbEntity
  8
1
 62
     7
370
    35
100
AcDbLine
 10
155.6002377403554
 20
57.9176079668906
 30
0.0
 11
156.7640856883442
 21
57.83622433891302
 31
0.0
  0
LINE
  5
16F
330
79
100
AcDbEntity
  8
1
 62
     7
370
    35
100
AcDbLine
 10
124.01727079595
 20
33.43488772070371
 30
0.0
 11
124.01727079595
 21
33.56409747204931
 31
0.0
  0
LINE
  5
170
330
79
100
AcDbEntity
  8
1
 62
     7
370
    35
100
AcDbLine
 10
125.1839608007908
 20
33.43488772070371
 30
0.0
 11
125.1839608007908
 21
33.56409747204931
 31
0.0
  0
LINE
  5
171
330
79
100
AcDbEntity
  8
1
 62
     7
370
    35
100
AcDbLine
 10
156.1406462172175
 20
48.92063132696286
 30
0.0
 11
154.9767982692293
 21
49.00201495494044
 31
0.0
  0
LINE
  5
172
330
79
100
AcDbEntity
  8
1
 62
     7
370
    35
100
AcDbLine
 10
153.8808411793116
 20
33.32908760430488
 30
0.0
 11
154.9767982692293
 21
49.00201495494044
 31
0.0
  0
LINE
  5
173
330
79
100
AcDbEntity
  8
1
 62
     7
370
    35
100
AcDbLine
 10
126.7006578070832
 20
31.91819071441063
 30
0.0
 11
152.3678379135746
 21
31.91819071441063
 31
0.0
  0
LINE
  5
174
330
79
100
AcDbEntity
  8
1
 62
     7
370
    35
100
AcDbLine
 10
124.01727079595
 20
33.56409747204931
 30
0.0
 11
124.01727079595
 21
56.06211351671285
 31
0.0
  0
LINE
  5
175
330
79
100
AcDbEntity
  8
1
 62
     7
370
    35
100
AcDbLine
 10
125.1839608007908
 20
56.06211351671285
 30
0.0
 11
125.1839608007908
 21
33.56409747204931
 31
0.0
  0
LINE
  5
176
330
79
100
AcDbEntity
  8
1
 62
     7
370
    35
100
AcDbLine
 10
124.01727079595
 20
56.06211351671285
 30
0.0
 11
125.1839608007908
 21
56.06211351671285
 31
0.0
  0
LINE
  5
177
330
79
100
AcDbEntity
  8
1
 62
     7
370
    35
100
AcDbLine
 10
125.1839608007908
 20
33.56409747204931
 30
0.0
 11
124.01727079595
 21
33.56409747204931
 31
0.0
  0
LINE
  5
178
330
79
100
AcDbEntity
  8
1
 62
     7
370
    35
100
AcDbLine
 10
155.0446891273004
 20
33.24770397632729
 30
0.0
 11
156.1406462172175
 21
48.92063132696286
 31
0.0
  0
LINE
  5
179
330
79
100
AcDbEntity
  8
1
 62
     7
370
    35
100
AcDbLine
 10
126.7006578070832
 20
30.75150070957049
 30
0.0
 11
152.3678379135746
 21
30.75150070957049
 31
0.0
  0
LINE
  5
17A
330
79
100
AcDbEntity
  8
1
 62
     7
370
    35
100
AcDbLine
 10
159.6860654722275
 20
99.62248805417148
 30
0.0
 11
158.5222175242386
 21
99.7038728488391
 31
0.0
  0
LINE
  5
17B
330
79
100
AcDbEntity
  8
1
 62
     7
370
    35
100
AcDbLine
 10
118.6504967736835
 20
36.87662323498314
 30
0.0
 11
121.1058717237202
 21
36.34284622410817
 31
0.0
  0
LINE
  5
17C
330
79
100
AcDbEntity
  8
1
 62
     7
370
    35
100
AcDbLine
 10
118.6504967736835
 20
47.9601782809683
 30
0.0
 11
118.6504967736835
 21
43.79447195122466
 31
0.0
  0
LINE
  5
17D
330
79
100
AcDbEntity
  8
1
 62
     7
370
    35
100
AcDbLine
 10
118.6504967736835
 20
43.79447195122466
 30
0.0
 11
118.6504967736835
 21
36.87662323498314
 31
0.0
  0
SPLINE
  5
17E
330
79
100
AcDbEntity
  8
1
 62
     7
370
    35
100
AcDbSpline
210
0.0
220
0.0
230
1.0
 70
     8
 71
     3
 72
     8
 73
     4
 74
     0
 42
0.0000000001
 43
0.0000000001
 40
0.0
 40
0.0
 40
0.0
 40
0.0
 40
1.0
 40
1.0
 40
1.0
 40
1.0
 10
6.859465420492343
 20
99.5044681499116
 30
0.0
 10
5.518708191965883
 20
100.2357542748322
 30
0.0
 10
3.898238070534855
 20
100.2356895502417
 30
0.0
 10
2.557539264142171
 20
99.50429632297991
 30
0.0
  0
SPLINE
  5
17F
330
79
100
AcDbEntity
  8
1
 62
     7
370
    35
100
AcDbSpline
210
0.0
220
0.0
230
1.0
 70
     8
 71
     3
 72
     8
 73
     4
 74
     0
 42
0.0000000001
 43
0.0000000001
 40
0.0
 40
0.0
 40
0.0
 40
0.0
 40
1.0
 40
1.0
 40
1.0
 40
1.0
 10
2.329811188697984
 20
91.75101818326156
 30
0.0
 10
3.785336302305488
 20
90.84225915210264
 30
0.0
 10
5.631433790463917
 20
90.84215164847272
 30
0.0
 10
7.087064733566298
 20
91.75074115454146
 30
0.0
  0
SPLINE
  5
180
330
79
100
AcDbEntity
  8
1
 62
     7
370
    35
100
AcDbSpline
210
0.0
220
0.0
230
1.0
 70
     8
 71
     3
 72
     8
 73
     4
 74
     0
 42
0.0000000001
 43
0.0000000001
 40
0.0
 40
0.0
 40
0.0
 40
0.0
 40
1.0
 40
1.0
 40
1.0
 40
1.0
 10
5.93364424571369
 20
99.63955437563441
 30
0.0
 10
5.134508856037527
 20
99.87958052607616
 30
0.0
 10
4.282465857721217
 20
99.87954649389424
 30
0.0
 10
3.483349644776471
 20
99.63945650631057
 30
0.0
  0
SPLINE
  5
181
330
79
100
AcDbEntity
  8
1
 62
     7
370
    35
100
AcDbSpline
210
0.0
220
0.0
230
1.0
 70
     8
 71
     3
 72
     8
 73
     4
 74
     0
 42
0.0000000001
 43
0.0000000001
 40
0.0
 40
0.0
 40
0.0
 40
0.0
 40
1.0
 40
1.0
 40
1.0
 40
1.0
 10
2.438512690699292
 20
91.95827602984088
 30
0.0
 10
3.825585136176531
 20
91.08428608458636
 30
0.0
 10
5.591213144731174
 20
91.08418326692804
 30
0.0
 10
6.978387370757535
 20
91.95801165972458
 30
0.0
  0
SPLINE
  5
182
330
79
100
AcDbEntity
  8
1
 62
     7
370
    35
100
AcDbSpline
210
0.0
220
0.0
230
1.0
 70
     8
 71
     3
 72
     8
 73
     4
 74
     0
 42
0.0000000001
 43
0.0000000001
 40
0.0
 40
0.0
 40
0.0
 40
0.0
 40
1.0
 40
1.0
 40
1.0
 40
1.0
 10
-4.238058124772509
 20
101.919591004842
 30
0.0
 10
-5.962384438319188
 20
101.919591004842
 30
0.0
 10
-7.598364510620778
 20
101.1567209685385
 30
0.0
 10
-8.706740100025438
 20
99.83581037792216
 30
0.0
  0
SPLINE
  5
183
330
79
100
AcDbEntity
  8
1
 62
     7
370
    35
100
AcDbSpline
210
0.0
220
0.0
230
1.0
 70
     8
 71
     3
 72
     8
 73
     4
 74
     0
 42
0.0000000001
 43
0.0000000001
 40
0.0
 40
0.0
 40
0.0
 40
0.0
 40
1.0
 40
1.0
 40
1.0
 40
1.0
 10
18.12405861958875
 20
99.83581037792216
 30
0.0
 10
17.01568303018473
 20
101.1567209685385
 30
0.0
 10
15.37970295788282
 20
101.919591004842
 30
0.0
 10
13.65537664433614
 20
101.919591004842
 30
0.0
  0
SPLINE
  5
184
330
79
100
AcDbEntity
  8
1
 62
     7
370
    35
100
AcDbSpline
210
0.0
220
0.0
230
1.0
 70
     8
 71
     3
 72
     8
 73
     4
 74
     0
 42
0.0000000001
 43
0.0000000001
 40
0.0
 40
0.0
 40
0.0
 40
0.0
 40
1.0
 40
1.0
 40
1.0
 40
1.0
 10
2.083731603630945
 20
82.28462778434334
 30
0.0
 10
3.708056586630384
 20
81.34688251164526
 30
0.0
 10
5.709263099623599
 20
81.34688251164526
 30
0.0
 10
7.333588082622717
 20
82.28462778434334
 30
0.0
  0
SPLINE
  5
185
330
79
100
AcDbEntity
  8
1
 62
     7
370
    35
100
AcDbSpline
210
0.0
220
0.0
230
1.0
 70
     8
 71
     3
 72
     8
 73
     4
 74
     0
 42
0.0000000001
 43
0.0000000001
 40
0.0
 40
0.0
 40
0.0
 40
0.0
 40
1.0
 40
1.0
 40
1.0
 40
1.0
 10
119.3505114581707
 20
100.0528866367646
 30
0.0
 10
118.6959662389074
 20
104.3154302935466
 30
0.0
 10
116.1135147962779
 20
108.0384645041434
 30
0.0
 10
112.3503715084856
 20
110.1447551929088
 30
0.0
  0
SPLINE
  5
186
330
79
100
AcDbEntity
  8
1
 62
     7
370
    35
100
AcDbSpline
210
0.0
220
0.0
230
1.0
 70
     8
 71
     3
 72
     8
 73
     4
 74
     0
 42
0.0000000001
 43
0.0000000001
 40
0.0
 40
0.0
 40
0.0
 40
0.0
 40
1.0
 40
1.0
 40
1.0
 40
1.0
 10
112.3503715084856
 20
80.97750576401338
 30
0.0
 10
116.1135147962779
 20
83.08379645277907
 30
0.0
 10
118.6959662389074
 20
86.80683066337556
 30
0.0
 10
119.3505114581707
 20
91.06937432015755
 30
0.0
  0
SPLINE
  5
187
330
79
100
AcDbEntity
  8
1
 62
     7
370
    35
100
AcDbSpline
210
0.0
220
0.0
230
1.0
 70
     8
 71
     3
 72
     8
 73
     4
 74
     0
 42
0.0000000001
 43
0.0000000001
 40
0.0
 40
0.0
 40
0.0
 40
0.0
 40
1.0
 40
1.0
 40
1.0
 40
1.0
 10
125.1839608007901
 20
33.43488772070371
 30
0.0
 10
125.1839608007901
 20
32.59723909401465
 30
0.0
 10
125.8630091803941
 20
31.91819071441063
 30
0.0
 10
126.7006578070832
 20
31.91819071441063
 30
0.0
  0
SPLINE
  5
188
330
79
100
AcDbEntity
  8
1
 62
     7
370
    35
100
AcDbSpline
210
0.0
220
0.0
230
1.0
 70
     8
 71
     3
 72
     8
 73
     4
 74
     0
 42
0.0000000001
 43
0.0000000001
 40
0.0
 40
0.0
 40
0.0
 40
0.0
 40
1.0
 40
1.0
 40
1.0
 40
1.0
 10
124.0172707959493
 20
33.43488772070371
 30
0.0
 10
124.0172707959493
 20
31.95289399656094
 30
0.0
 10
125.2186640829404
 20
30.75150070957049
 30
0.0
 10
126.7006578070832
 20
30.75150070957049
 30
0.0
  0
SPLINE
  5
189
330
79
100
AcDbEntity
  8
1
 62
     7
370
    35
100
AcDbSpline
210
0.0
220
0.0
230
1.0
 70
     8
 71
     3
 72
     8
 73
     4
 74
     0
 42
0.0000000001
 43
0.0000000001
 40
0.0
 40
0.0
 40
0.0
 40
0.0
 40
1.0
 40
1.0
 40
1.0
 40
1.0
 10
152.3678379135746
 20
30.75150070957049
 30
0.0
 10
153.7771902519935
 20
30.75150070957049
 30
0.0
 10
154.9463768794244
 20
31.84178487815977
 30
0.0
 10
155.0446883288151
 20
33.24770410511565
 30
0.0
  0
SPLINE
  5
18A
330
79
100
AcDbEntity
  8
1
 62
     7
370
    35
100
AcDbSpline
210
0.0
220
0.0
230
1.0
 70
     8
 71
     3
 72
     8
 73
     4
 74
     0
 42
0.0000000001
 43
0.0000000001
 40
0.0
 40
0.0
 40
0.0
 40
0.0
 40
1.0
 40
1.0
 40
1.0
 40
1.0
 10
152.3678379135746
 20
31.91819071441063
 30
0.0
 10
153.1644283657244
 20
31.91819071441063
 30
0.0
 10
153.8252729812282
 20
32.53443828796199
 30
0.0
 10
153.880840322189
 20
33.32908828580658
 30
0.0
  0
SPLINE
  5
18B
330
79
100
AcDbEntity
  8
1
 62
     7
370
    35
100
AcDbSpline
210
0.0
220
0.0
230
1.0
 70
     8
 71
     3
 72
    11
 73
     7
 74
     0
 42
0.0000000001
 43
0.0000000001
 40
0.0
 40
0.0
 40
0.0
 40
0.0
 40
1.0
 40
1.0
 40
1.0
 40
2.0
 40
2.0
 40
2.0
 40
2.0
 10
51.08458753553724
 20
41.88337072203634
 30
0.0
 10
51.08458753553724
 20
40.43712590824505
 30
0.0
 10
52.25986357715797
 20
39.26471283906158
 30
0.0
 10
53.70964004642883
 20
39.26471283906158
 30
0.0
 10
55.15941651569904
 20
39.26471283906158
 30
0.0
 10
56.33469255731978
 20
40.43712590824505
 30
0.0
 10
56.33469255731978
 20
41.88337072203634
 30
0.0
  0
SPLINE
  5
18C
330
79
100
AcDbEntity
  8
1
 62
     7
370
    35
100
AcDbSpline
210
0.0
220
0.0
230
1.0
 70
     8
 71
     3
 72
    11
 73
     7
 74
     0
 42
0.0000000001
 43
0.0000000001
 40
0.0
 40
0.0
 40
0.0
 40
0.0
 40
1.0
 40
1.0
 40
1.0
 40
2.0
 40
2.0
 40
2.0
 40
2.0
 10
-46.91737287106612
 20
41.88337072203634
 30
0.0
 10
-46.91737287106612
 20
40.43712590824505
 30
0.0
 10
-45.74209682944506
 20
39.26471283906158
 30
0.0
 10
-44.29232036017484
 20
39.26471283906158
 30
0.0
 10
-42.84254389090463
 20
39.26471283906158
 30
0.0
 10
-41.66726784928357
 20
40.43712590824505
 30
0.0
 10
-41.66726784928357
 20
41.88337072203634
 30
0.0
  0
SPLINE
  5
18D
330
79
100
AcDbEntity
  8
1
 62
     7
370
    35
100
AcDbSpline
210
0.0
220
0.0
230
1.0
 70
     8
 71
     3
 72
    11
 73
     7
 74
     0
 42
0.0000000001
 43
0.0000000001
 40
0.0
 40
0.0
 40
0.0
 40
0.0
 40
1.0
 40
1.0
 40
1.0
 40
2.0
 40
2.0
 40
2.0
 40
2.0
 10
26.58409743388664
 20
56.89700971776661
 30
0.0
 10
26.58409743388632
 20
55.45076490397532
 30
0.0
 10
27.75937347550738
 20
54.2783518347915
 30
0.0
 10
29.20914994477759
 20
54.2783518347915
 30
0.0
 10
30.6589264140478
 20
54.2783518347915
 30
0.0
 10
31.83420245566886
 20
55.45076490397532
 30
0.0
 10
31.83420245566886
 20
56.89700971776661
 30
0.0
  0
SPLINE
  5
18E
330
79
100
AcDbEntity
  8
1
 62
     7
370
    35
100
AcDbSpline
210
0.0
220
0.0
230
1.0
 70
     8
 71
     3
 72
    11
 73
     7
 74
     0
 42
0.0000000001
 43
0.0000000001
 40
0.0
 40
0.0
 40
0.0
 40
0.0
 40
1.0
 40
1.0
 40
1.0
 40
2.0
 40
2.0
 40
2.0
 40
2.0
 10
-22.4168827694152
 20
56.89700971776661
 30
0.0
 10
-22.4168827694152
 20
55.45076490397532
 30
0.0
 10
-21.24160672779414
 20
54.2783518347915
 30
0.0
 10
-19.79183025852393
 20
54.2783518347915
 30
0.0
 10
-18.34205378925371
 20
54.2783518347915
 30
0.0
 10
-17.16677774763265
 20
55.45076490397532
 30
0.0
 10
-17.16677774763265
 20
56.89700971776661
 30
0.0
  0
SPLINE
  5
18F
330
79
100
AcDbEntity
  8
1
 62
     7
370
    35
100
AcDbSpline
210
0.0
220
0.0
230
1.0
 70
     8
 71
     3
 72
    11
 73
     7
 74
     0
 42
0.0000000001
 43
0.0000000001
 40
0.0
 40
0.0
 40
0.0
 40
0.0
 40
1.0
 40
1.0
 40
1.0
 40
2.0
 40
2.0
 40
2.0
 40
2.0
 10
2.083607332235718
 20
56.89700971776661
 30
0.0
 10
2.083607332235718
 20
55.45076490397532
 30
0.0
 10
3.258883373856779
 20
54.2783518347915
 30
0.0
 10
4.70865984312667
 20
54.2783518347915
 30
0.0
 10
6.158436312396883
 20
54.2783518347915
 30
0.0
 10
7.333712354017944
 20
55.45076490397532
 30
0.0
 10
7.333712354017944
 20
56.89700971776661
 30
0.0
  0
SPLINE
  5
190
330
79
100
AcDbEntity
  8
1
 62
     7
370
    35
100
AcDbSpline
210
0.0
220
0.0
230
1.0
 70
     8
 71
     3
 72
    11
 73
     7
 74
     0
 42
0.0000000001
 43
0.0000000001
 40
0.0
 40
0.0
 40
0.0
 40
0.0
 40
1.0
 40
1.0
 40
1.0
 40
2.0
 40
2.0
 40
2.0
 40
2.0
 10
2.083607332235718
 20
56.81562608978871
 30
0.0
 10
2.083607332235718
 20
55.36938127599741
 30
0.0
 10
3.258883373856779
 20
54.19696820681393
 30
0.0
 10
4.70865984312667
 20
54.19696820681393
 30
0.0
 10
6.158436312396883
 20
54.19696820681393
 30
0.0
 10
7.333712354017944
 20
55.36938127599741
 30
0.0
 10
7.333712354017944
 20
56.81562608978871
 30
0.0
  0
SPLINE
  5
191
330
79
100
AcDbEntity
  8
1
 62
     7
370
    35
100
AcDbSpline
210
0.0
220
0.0
230
1.0
 70
     8
 71
     3
 72
    11
 73
     7
 74
     0
 42
0.0000000001
 43
0.0000000001
 40
0.0
 40
0.0
 40
0.0
 40
0.0
 40
1.0
 40
1.0
 40
1.0
 40
2.0
 40
2.0
 40
2.0
 40
2.0
 10
7.333712354017944
 20
90.64277609293533
 30
0.0
 10
7.333712354017944
 20
92.08902090672662
 30
0.0
 10
6.158436312396883
 20
93.2614339759101
 30
0.0
 10
4.70865984312667
 20
93.26143397590946
 30
0.0
 10
3.258883373856779
 20
93.26143397590946
 30
0.0
 10
2.083607332235718
 20
92.0890209067263
 30
0.0
 10
2.083607332235718
 20
90.64277609293533
 30
0.0
  0
SPLINE
  5
192
330
79
100
AcDbEntity
  8
1
 62
     7
370
    35
100
AcDbSpline
210
0.0
220
0.0
230
1.0
 70
     8
 71
     3
 72
    11
 73
     7
 74
     0
 42
0.0000000001
 43
0.0000000001
 40
0.0
 40
0.0
 40
0.0
 40
0.0
 40
1.0
 40
1.0
 40
1.0
 40
2.0
 40
2.0
 40
2.0
 40
2.0
 10
-22.4168827694152
 20
56.81562608978871
 30
0.0
 10
-22.4168827694152
 20
55.36938127599741
 30
0.0
 10
-21.24160672779414
 20
54.19696820681393
 30
0.0
 10
-19.79183025852393
 20
54.19696820681393
 30
0.0
 10
-18.34205378925371
 20
54.19696820681393
 30
0.0
 10
-17.16677774763265
 20
55.36938127599741
 30
0.0
 10
-17.16677774763265
 20
56.81562608978871
 30
0.0
  0
SPLINE
  5
193
330
79
100
AcDbEntity
  8
1
 62
     7
370
    35
100
AcDbSpline
210
0.0
220
0.0
230
1.0
 70
     8
 71
     3
 72
    11
 73
     7
 74
     0
 42
0.0000000001
 43
0.0000000001
 40
0.0
 40
0.0
 40
0.0
 40
0.0
 40
1.0
 40
1.0
 40
1.0
 40
2.0
 40
2.0
 40
2.0
 40
2.0
 10
-17.16677774763265
 20
70.13450201723786
 30
0.0
 10
-17.16677774763265
 20
71.58074683102916
 30
0.0
 10
-18.34205378925371
 20
72.75315990021265
 30
0.0
 10
-19.79183025852425
 20
72.75315990021265
 30
0.0
 10
-21.24160672779414
 20
72.75315990021265
 30
0.0
 10
-22.4168827694152
 20
71.58074683102916
 30
0.0
 10
-22.4168827694152
 20
70.13450201723786
 30
0.0
  0
SPLINE
  5
194
330
79
100
AcDbEntity
  8
1
 62
     7
370
    35
100
AcDbSpline
210
0.0
220
0.0
230
1.0
 70
     8
 71
     3
 72
    11
 73
     7
 74
     0
 42
0.0000000001
 43
0.0000000001
 40
0.0
 40
0.0
 40
0.0
 40
0.0
 40
1.0
 40
1.0
 40
1.0
 40
2.0
 40
2.0
 40
2.0
 40
2.0
 10
-46.91737287106612
 20
41.80198709405813
 30
0.0
 10
-46.91737287106612
 20
40.35574228026683
 30
0.0
 10
-45.74209682944506
 20
39.18332921108335
 30
0.0
 10
-44.29232036017484
 20
39.18332921108335
 30
0.0
 10
-42.84254389090463
 20
39.18332921108335
 30
0.0
 10
-41.66726784928357
 20
40.35574228026683
 30
0.0
 10
-41.66726784928357
 20
41.80198709405813
 30
0.0
  0
SPLINE
  5
195
330
79
100
AcDbEntity
  8
1
 62
     7
370
    35
100
AcDbSpline
210
0.0
220
0.0
230
1.0
 70
     8
 71
     3
 72
    11
 73
     7
 74
     0
 42
0.0000000001
 43
0.0000000001
 40
0.0
 40
0.0
 40
0.0
 40
0.0
 40
1.0
 40
1.0
 40
1.0
 40
2.0
 40
2.0
 40
2.0
 40
2.0
 10
-41.66726784928357
 20
49.62622910823075
 30
0.0
 10
-41.66726784928357
 20
51.0724739220214
 30
0.0
 10
-42.84254389090463
 20
52.24488699120553
 30
0.0
 10
-44.29232036017484
 20
52.24488699120553
 30
0.0
 10
-45.74209682944506
 20
52.24488699120553
 30
0.0
 10
-46.91737287106612
 20
51.0724739220214
 30
0.0
 10
-46.91737287106612
 20
49.62622910823075
 30
0.0
  0
SPLINE
  5
196
330
79
100
AcDbEntity
  8
1
 62
     7
370
    35
100
AcDbSpline
210
0.0
220
0.0
230
1.0
 70
     8
 71
     3
 72
    11
 73
     7
 74
     0
 42
0.0000000001
 43
0.0000000001
 40
0.0
 40
0.0
 40
0.0
 40
0.0
 40
1.0
 40
1.0
 40
1.0
 40
2.0
 40
2.0
 40
2.0
 40
2.0
 10
51.08458753553724
 20
41.80198709405813
 30
0.0
 10
51.08458753553724
 20
40.35574228026683
 30
0.0
 10
52.25986357715797
 20
39.18332921108335
 30
0.0
 10
53.70964004642883
 20
39.18332921108335
 30
0.0
 10
55.15941651569904
 20
39.18332921108335
 30
0.0
 10
56.33469255731978
 20
40.35574228026683
 30
0.0
 10
56.33469255731978
 20
41.80198709405813
 30
0.0
  0
SPLINE
  5
197
330
79
100
AcDbEntity
  8
1
 62
     7
370
    35
100
AcDbSpline
210
0.0
220
0.0
230
1.0
 70
     8
 71
     3
 72
    11
 73
     7
 74
     0
 42
0.0000000001
 43
0.0000000001
 40
0.0
 40
0.0
 40
0.0
 40
0.0
 40
1.0
 40
1.0
 40
1.0
 40
2.0
 40
2.0
 40
2.0
 40
2.0
 10
56.33469255731978
 20
49.62622910823075
 30
0.0
 10
56.33469255731978
 20
51.0724739220214
 30
0.0
 10
55.15941651569904
 20
52.24488699120553
 30
0.0
 10
53.70964004642883
 20
52.24488699120553
 30
0.0
 10
52.25986357715797
 20
52.24488699120553
 30
0.0
 10
51.08458753553724
 20
51.0724739220214
 30
0.0
 10
51.08458753553724
 20
49.62622910823075
 30
0.0
  0
SPLINE
  5
198
330
79
100
AcDbEntity
  8
1
 62
     7
370
    35
100
AcDbSpline
210
0.0
220
0.0
230
1.0
 70
     8
 71
     3
 72
    11
 73
     7
 74
     0
 42
0.0000000001
 43
0.0000000001
 40
0.0
 40
0.0
 40
0.0
 40
0.0
 40
1.0
 40
1.0
 40
1.0
 40
2.0
 40
2.0
 40
2.0
 40
2.0
 10
26.58409743388664
 20
56.81562608978871
 30
0.0
 10
26.58409743388664
 20
55.36938127599741
 30
0.0
 10
27.75937347550738
 20
54.19696820681393
 30
0.0
 10
29.20914994477759
 20
54.19696820681393
 30
0.0
 10
30.6589264140478
 20
54.19696820681393
 30
0.0
 10
31.83420245566886
 20
55.36938127599741
 30
0.0
 10
31.83420245566886
 20
56.81562608978871
 30
0.0
  0
SPLINE
  5
199
330
79
100
AcDbEntity
  8
1
 62
     7
370
    35
100
AcDbSpline
210
0.0
220
0.0
230
1.0
 70
     8
 71
     3
 72
    11
 73
     7
 74
     0
 42
0.0000000001
 43
0.0000000001
 40
0.0
 40
0.0
 40
0.0
 40
0.0
 40
1.0
 40
1.0
 40
1.0
 40
2.0
 40
2.0
 40
2.0
 40
2.0
 10
31.83420245566886
 20
70.13450201723786
 30
0.0
 10
31.83420245566886
 20
71.58074683102883
 30
0.0
 10
30.6589264140478
 20
72.75315990021265
 30
0.0
 10
29.20914994477759
 20
72.75315990021265
 30
0.0
 10
27.75937347550738
 20
72.75315990021265
 30
0.0
 10
26.58409743388664
 20
71.58074683102916
 30
0.0
 10
26.58409743388664
 20
70.13450201723786
 30
0.0
  0
SPLINE
  5
19A
330
79
100
AcDbEntity
  8
1
 62
     7
370
    35
100
AcDbSpline
210
0.0
220
0.0
230
1.0
 70
     8
 71
     3
 72
     8
 73
     4
 74
     0
 42
0.0000000001
 43
0.0000000001
 40
0.0
 40
0.0
 40
0.0
 40
0.0
 40
1.0
 40
1.0
 40
1.0
 40
1.0
 10
63.0431600851525
 20
49.00201495494044
 30
0.0
 10
63.0431600851525
 20
52.44226666423418
 30
0.0
 10
61.51742001254615
 20
55.70625631392573
 30
0.0
 10
58.87559883131344
 20
57.9176074868625
 30
0.0
  0
SPLINE
  5
19B
330
79
100
AcDbEntity
  8
1
 62
     7
370
    35
100
AcDbSpline
210
0.0
220
0.0
230
1.0
 70
     8
 71
     3
 72
     8
 73
     4
 74
     0
 42
0.0000000001
 43
0.0000000001
 40
0.0
 40
0.0
 40
0.0
 40
0.0
 40
1.0
 40
1.0
 40
1.0
 40
1.0
 10
-49.45827914505978
 20
57.9176074868625
 30
0.0
 10
-52.10010032629249
 20
55.70625631392573
 30
0.0
 10
-53.62584039889884
 20
52.44226666423418
 30
0.0
 10
-53.62584039889884
 20
49.00201495494044
 30
0.0
  0
SPLINE
  5
19C
330
79
100
AcDbEntity
  8
1
 62
     7
370
    35
100
AcDbSpline
210
0.0
220
0.0
230
1.0
 70
     8
 71
     3
 72
     8
 73
     4
 74
     0
 42
0.0000000001
 43
0.0000000001
 40
0.0
 40
0.0
 40
0.0
 40
0.0
 40
1.0
 40
1.0
 40
1.0
 40
1.0
 10
-49.45827914505978
 20
57.8362238588846
 30
0.0
 10
-52.10010032629249
 20
55.62487268594782
 30
0.0
 10
-53.62584039889884
 20
52.36088303625661
 30
0.0
 10
-53.62584039889884
 20
48.92063132696286
 30
0.0
  0
SPLINE
  5
19D
330
79
100
AcDbEntity
  8
1
 62
     7
370
    35
100
AcDbSpline
210
0.0
220
0.0
230
1.0
 70
     8
 71
     3
 72
     8
 73
     4
 74
     0
 42
0.0000000001
 43
0.0000000001
 40
0.0
 40
0.0
 40
0.0
 40
0.0
 40
1.0
 40
1.0
 40
1.0
 40
1.0
 10
63.0431600851525
 20
48.92063132696286
 30
0.0
 10
63.0431600851525
 20
52.36088303625661
 30
0.0
 10
61.51742001254615
 20
55.62487268594782
 30
0.0
 10
58.87559883131344
 20
57.8362238588846
 30
0.0
  0
SPLINE
  5
19E
330
79
100
AcDbEntity
  8
1
 62
     7
370
    35
100
AcDbSpline
210
0.0
220
0.0
230
1.0
 70
     8
 71
     3
 72
     8
 73
     4
 74
     0
 42
0.0000000001
 43
0.0000000001
 40
0.0
 40
0.0
 40
0.0
 40
0.0
 40
1.0
 40
1.0
 40
1.0
 40
1.0
 10
12.20799863769284
 20
96.98098473418317
 30
0.0
 10
7.870752703309437
 20
100.611500664804
 30
0.0
 10
1.546566982944224
 20
100.611500664804
 30
0.0
 10
-2.790678951439497
 20
96.98098473418317
 30
0.0
  0
SPLINE
  5
19F
330
79
100
AcDbEntity
  8
1
 62
     7
370
    35
100
AcDbSpline
210
0.0
220
0.0
230
1.0
 70
     8
 71
     3
 72
     8
 73
     4
 74
     0
 42
0.0000000001
 43
0.0000000001
 40
0.0
 40
0.0
 40
0.0
 40
0.0
 40
1.0
 40
1.0
 40
1.0
 40
1.0
 10
12.20799863769284
 20
96.89960110620591
 30
0.0
 10
7.870752703309437
 20
100.5301170368268
 30
0.0
 10
1.546566982944224
 20
100.5301170368268
 30
0.0
 10
-2.790678951439497
 20
96.89960110620591
 30
0.0
  0
SPLINE
  5
1A0
330
79
100
AcDbEntity
  8
1
 62
     7
370
    70
100
AcDbSpline
210
0.0
220
0.0
230
1.0
 70
     8
 71
     3
 72
     8
 73
     4
 74
     0
 42
0.0000000001
 43
0.0000000001
 40
0.0
 40
0.0
 40
0.0
 40
0.0
 40
1.0
 40
1.0
 40
1.0
 40
1.0
 10
25.10244196188902
 20
41.63022316480204
 30
0.0
 10
26.08184651001816
 20
41.63022316480204
 30
0.0
 10
26.87581076924703
 20
42.42225332709484
 30
0.0
 10
26.87581076924703
 20
43.39927204574531
 30
0.0
  0
SPLINE
  5
1A1
330
79
100
AcDbEntity
  8
1
 62
     7
370
    70
100
AcDbSpline
210
0.0
220
0.0
230
1.0
 70
     8
 71
     3
 72
     8
 73
     4
 74
     0
 42
0.0000000001
 43
0.0000000001
 40
0.0
 40
0.0
 40
0.0
 40
0.0
 40
1.0
 40
1.0
 40
1.0
 40
1.0
 10
26.87581076924703
 20
48.93639564230846
 30
0.0
 10
26.87581076924703
 20
49.91341436095829
 30
0.0
 10
26.08184651001816
 20
50.70544452325109
 30
0.0
 10
25.10244196188902
 20
50.70544452325109
 30
0.0
  0
SPLINE
  5
1A2
330
79
100
AcDbEntity
  8
1
 62
     7
370
    70
100
AcDbSpline
210
0.0
220
0.0
230
1.0
 70
     8
 71
     3
 72
     8
 73
     4
 74
     0
 42
0.0000000001
 43
0.0000000001
 40
0.0
 40
0.0
 40
0.0
 40
0.0
 40
1.0
 40
1.0
 40
1.0
 40
1.0
 10
-15.68504060733496
 20
50.70544452325109
 30
0.0
 10
-16.66444515546442
 20
50.70544452325109
 30
0.0
 10
-17.45840941469265
 20
49.91341436095829
 30
0.0
 10
-17.45840941469265
 20
48.93639564230846
 30
0.0
  0
SPLINE
  5
1A3
330
79
100
AcDbEntity
  8
1
 62
     7
370
    70
100
AcDbSpline
210
0.0
220
0.0
230
1.0
 70
     8
 71
     3
 72
     8
 73
     4
 74
     0
 42
0.0000000001
 43
0.0000000001
 40
0.0
 40
0.0
 40
0.0
 40
0.0
 40
1.0
 40
1.0
 40
1.0
 40
1.0
 10
-8.830503964117914
 20
45.75465797435249
 30
0.0
 10
-8.42264492607669
 20
45.83950601533262
 30
0.0
 10
-8.084595977662827
 20
46.12268999185141
 30
0.0
 10
-7.930302724357571
 20
46.50875754466214
 30
0.0
  0
SPLINE
  5
1A4
330
79
100
AcDbEntity
  8
1
 62
     7
370
    70
100
AcDbSpline
210
0.0
220
0.0
230
1.0
 70
     8
 71
     3
 72
     8
 73
     4
 74
     0
 42
0.0000000001
 43
0.0000000001
 40
0.0
 40
0.0
 40
0.0
 40
0.0
 40
1.0
 40
1.0
 40
1.0
 40
1.0
 10
-17.45840941469265
 20
43.39927204574531
 30
0.0
 10
-17.45840941469265
 20
42.42225332709484
 30
0.0
 10
-16.66444515546442
 20
41.63022316480204
 30
0.0
 10
-15.68504060733496
 20
41.63022316480204
 30
0.0
  0
SPLINE
  5
1A5
330
79
100
AcDbEntity
  8
1
 62
     7
370
    70
100
AcDbSpline
210
0.0
220
0.0
230
1.0
 70
     8
 71
     3
 72
    65
 73
    61
 74
     0
 42
0.0000000001
 43
0.0000000001
 40
0.0
 40
0.0
 40
0.0
 40
0.0
 40
1.0
 40
1.0
 40
1.0
 40
2.0
 40
2.0
 40
2.0
 40
3.0
 40
3.0
 40
3.0
 40
4.0
 40
4.0
 40
4.0
 40
5.0
 40
5.0
 40
5.0
 40
6.0
 40
6.0
 40
6.0
 40
7.0
 40
7.0
 40
7.0
 40
8.0
 40
8.0
 40
8.0
 40
9.0
 40
9.0
 40
9.0
 40
10.0
 40
10.0
 40
10.0
 40
11.0
 40
11.0
 40
11.0
 40
12.0
 40
12.0
 40
12.0
 40
13.0
 40
13.0
 40
13.0
 40
14.0
 40
14.0
 40
14.0
 40
15.0
 40
15.0
 40
15.0
 40
16.0
 40
16.0
 40
16.0
 40
17.0
 40
17.0
 40
17.0
 40
18.0
 40
18.0
 40
18.0
 40
19.0
 40
19.0
 40
19.0
 40
20.0
 40
20.0
 40
20.0
 40
20.0
 10
8.865563354520148
 20
39.42737650847593
 30
0.0
 10
8.91590526346733
 20
39.42737635890359
 30
0.0
 10
8.967521008653083
 20
39.42610791664436
 30
0.0
 10
9.016445078381956
 20
39.42050561514867
 30
0.0
 10
9.04090711324607
 20
39.41770446440114
 30
0.0
 10
9.064696229246205
 20
39.41381984884482
 30
0.0
 10
9.087306111260213
 20
39.40849112067198
 30
0.0
 10
9.109915993273897
 20
39.40316239249979
 30
0.0
 10
9.131346641301455
 20
39.39638955171172
 30
0.0
 10
9.151107786109273
 20
39.38784062672364
 30
0.0
 10
9.170868930917093
 20
39.3792917017362
 30
0.0
 10
9.188960572505175
 20
39.36896669254938
 30
0.0
 10
9.20497707040471
 20
39.35654603313845
 30
0.0
 10
9.220993568304566
 20
39.34412537372688
 30
0.0
 10
9.234934922516197
 20
39.32960906408991
 30
0.0
 10
9.246473389172146
 20
39.3125336012446
 30
0.0
 10
9.252242622500123
 20
39.30399586982162
 30
0.0
 10
9.257411133939097
 20
39.29481835009575
 30
0.0
 10
9.261926462355635
 20
39.28493303090384
 30
0.0
 10
9.266441790772175
 20
39.27504771171256
 30
0.0
 10
9.270303936166277
 20
39.2644545930546
 30
0.0
 10
9.273450758446134
 20
39.25306433674712
 30
0.0
 10
9.276597580726313
 20
39.24167408044093
 30
0.0
 10
9.27902907989257
 20
39.22948668648459
 30
0.0
 10
9.280674270079002
 20
39.2165077699943
 30
0.0
 10
9.281496865172057
 20
39.21001831174916
 30
0.0
 10
9.282122883020717
 20
39.2033309728707
 30
0.0
 10
9.282542043145951
 20
39.19636516402058
 30
0.0
 10
9.282961203271186
 20
39.1893993551711
 30
0.0
 10
9.283173505672996
 20
39.18215507634997
 30
0.0
 10
9.283177008033305
 20
39.17490245553182
 30
0.0
 10
9.283180634964404
 20
39.16739187555963
 30
0.0
 10
9.28296034462814
 20
39.15987234962519
 30
0.0
 10
9.282533354208236
 20
39.15263076616142
 30
0.0
 10
9.282106363788333
 20
39.14538918269636
 30
0.0
 10
9.281472673285112
 20
39.13842554170067
 30
0.0
 10
9.28063915244582
 20
39.13166042474684
 30
0.0
 10
9.278972110767554
 20
39.11813019083724
 30
0.0
 10
9.276505747745327
 20
39.10539405309055
 30
0.0
 10
9.273314174504491
 20
39.09345628091593
 30
0.0
 10
9.270122601263656
 20
39.08151850874066
 30
0.0
 10
9.266205817803891
 20
39.07037910213553
 30
0.0
 10
9.261627543406255
 20
39.05995528115763
 30
0.0
 10
9.257049269008298
 20
39.04953146018101
 30
0.0
 10
9.25180950367247
 20
39.03982322483034
 30
0.0
 10
9.245964923121661
 20
39.03076713343382
 30
0.0
 10
9.234275762019723
 20
39.01265495064013
 30
0.0
 10
9.220167340057216
 20
38.9971513436605
 30
0.0
 10
9.204004482283464
 20
38.98380722846436
 30
0.0
 10
9.187841624509392
 20
38.97046311326949
 30
0.0
 10
9.169624330924717
 20
38.95927848985812
 30
0.0
 10
9.149772944606961
 20
38.94993585360463
 30
0.0
 10
9.129921558288884
 20
38.94059321735115
 30
0.0
 10
9.108436079237405
 20
38.93309256825618
 30
0.0
 10
9.085815800687322
 20
38.92711622127467
 30
0.0
 10
9.063195522136918
 20
38.92113987429251
 30
0.0
 10
9.039440444087267
 20
38.91668782942446
 30
0.0
 10
9.015070058688159
 20
38.91341777677066
 30
0.0
 10
8.966329287889944
 20
38.90687767146372
 30
0.0
 10
8.915127287693582
 20
38.90506553501448
 30
0.0
 10
8.865563352520293
 20
38.90506542958205
 30
0.0
  0
SPLINE
  5
1A6
330
79
100
AcDbEntity
  8
1
 62
     7
370
    70
100
AcDbSpline
210
0.0
220
0.0
230
1.0
 70
     8
 71
     3
 72
     8
 73
     4
 74
     0
 42
0.0000000001
 43
0.0000000001
 40
0.0
 40
0.0
 40
0.0
 40
0.0
 40
1.0
 40
1.0
 40
1.0
 40
1.0
 10
9.037032664684947
 20
44.32537407010143
 30
0.0
 10
9.090432015226232
 20
44.2457512658326
 30
0.0
 10
9.174577766548901
 20
44.20091478275325
 30
0.0
 10
9.270610418158717
 20
44.20091452862759
 30
0.0
  0
SPLINE
  5
1A7
330
79
100
AcDbEntity
  8
1
 62
     7
370
    70
100
AcDbSpline
210
0.0
220
0.0
230
1.0
 70
     8
 71
     3
 72
     8
 73
     4
 74
     0
 42
0.0000000001
 43
0.0000000001
 40
0.0
 40
0.0
 40
0.0
 40
0.0
 40
1.0
 40
1.0
 40
1.0
 40
1.0
 10
-13.4000617011788
 20
47.4629676678487
 30
0.0
 10
-13.18189614219879
 20
47.46296662260181
 30
0.0
 10
-12.96373058322519
 20
47.46296412331497
 30
0.0
 10
-12.7455650242516
 20
47.46296162402876
 30
0.0
  0
SPLINE
  5
1A8
330
79
100
AcDbEntity
  8
1
 62
     7
370
    70
100
AcDbSpline
210
0.0
220
0.0
230
1.0
 70
     8
 71
     3
 72
     8
 73
     4
 74
     0
 42
0.0000000001
 43
0.0000000001
 40
0.0
 40
0.0
 40
0.0
 40
0.0
 40
1.0
 40
1.0
 40
1.0
 40
1.0
 10
7.193886755863477
 20
38.57403184321842
 30
0.0
 10
7.393891485375668
 20
38.57403180422686
 30
0.0
 10
7.598745638730121
 20
38.53862041979657
 30
0.0
 10
7.598745638730121
 20
38.28267474600267
 30
0.0
  0
SPLINE
  5
1A9
330
79
100
AcDbEntity
  8
1
 62
     7
370
    70
100
AcDbSpline
210
0.0
220
0.0
230
1.0
 70
     8
 71
     3
 72
     8
 73
     4
 74
     0
 42
0.0000000001
 43
0.0000000001
 40
0.0
 40
0.0
 40
0.0
 40
0.0
 40
1.0
 40
1.0
 40
1.0
 40
1.0
 10
13.85911499575269
 20
48.13489418718405
 30
0.0
 10
13.85911427833638
 20
46.91797107665426
 30
0.0
 10
13.85911356091942
 20
45.70104796612318
 30
0.0
 10
13.85911292951644
 20
44.48412485559339
 30
0.0
  0
SPLINE
  5
1AA
330
79
100
AcDbEntity
  8
1
 62
     7
370
    70
100
AcDbSpline
210
0.0
220
0.0
230
1.0
 70
     8
 71
     3
 72
    17
 73
    13
 74
     0
 42
0.0000000001
 43
0.0000000001
 40
0.0
 40
0.0
 40
0.0
 40
0.0
 40
1.0
 40
1.0
 40
1.0
 40
2.0
 40
2.0
 40
2.0
 40
3.0
 40
3.0
 40
3.0
 40
4.0
 40
4.0
 40
4.0
 40
4.0
 10
-7.930302981809792
 20
46.50875753400479
 30
0.0
 10
-7.930254976310428
 20
46.50886623704755
 30
0.0
 10
-7.930207719641117
 20
46.50897545051118
 30
0.0
 10
-7.93016048171423
 20
46.50908467489783
 30
0.0
 10
-7.788435700126636
 20
46.83678326783708
 30
0.0
 10
-7.815413328721473
 20
47.26279955433372
 30
0.0
 10
-8.007165896578692
 20
47.57458352486963
 30
0.0
 10
-8.103042180507301
 20
47.73047551013727
 30
0.0
 10
-8.234309112535317
 20
47.85963467619551
 30
0.0
 10
-8.390179411326913
 20
47.95506171408605
 30
0.0
 10
-8.546049710118509
 20
48.05048875197595
 30
0.0
 10
-8.726559876695455
 20
48.12484298155593
 30
0.0
 10
-8.915679539494076
 20
48.12484296276891
 30
0.0
  0
SPLINE
  5
1AB
330
79
100
AcDbEntity
  8
1
 62
     7
370
    70
100
AcDbSpline
210
0.0
220
0.0
230
1.0
 70
     8
 71
     3
 72
     8
 73
     4
 74
     0
 42
0.0000000001
 43
0.0000000001
 40
0.0
 40
0.0
 40
0.0
 40
0.0
 40
1.0
 40
1.0
 40
1.0
 40
1.0
 10
-0.7974848427157745
 20
44.38554524660653
 30
0.0
 10
-0.7572703049135209
 20
44.26714757125407
 30
0.0
 10
-0.6566344311239645
 20
44.19516547263556
 30
0.0
 10
-0.5313204560987052
 20
44.19516645125675
 30
0.0
  0
SPLINE
  5
1AC
330
79
100
AcDbEntity
  8
1
 62
     7
370
    70
100
AcDbSpline
210
0.0
220
0.0
230
1.0
 70
     8
 71
     3
 72
     8
 73
     4
 74
     0
 42
0.0000000001
 43
0.0000000001
 40
0.0
 40
0.0
 40
0.0
 40
0.0
 40
1.0
 40
1.0
 40
1.0
 40
1.0
 10
1.036156104484391
 20
44.4304604053564
 30
0.0
 10
1.059493426434113
 20
44.28746594632139
 30
0.0
 10
1.168303503200605
 20
44.19516415918863
 30
0.0
 10
1.313535007686868
 20
44.19516531863934
 30
0.0
  0
SPLINE
  5
1AD
330
79
100
AcDbEntity
  8
1
 62
     7
370
    70
100
AcDbSpline
210
0.0
220
0.0
230
1.0
 70
     8
 71
     3
 72
     8
 73
     4
 74
     0
 42
0.0000000001
 43
0.0000000001
 40
0.0
 40
0.0
 40
0.0
 40
0.0
 40
1.0
 40
1.0
 40
1.0
 40
1.0
 10
11.49583860136541
 20
47.46583279050713
 30
0.0
 10
11.49583670170428
 20
46.47193014553653
 30
0.0
 10
11.49583480204315
 20
45.47802750056592
 30
0.0
 10
11.49583317394039
 20
44.48412485559403
 30
0.0
  0
SPLINE
  5
1AE
330
79
100
AcDbEntity
  8
1
 62
     7
370
    70
100
AcDbSpline
210
0.0
220
0.0
230
1.0
 70
     8
 71
     3
 72
     8
 73
     4
 74
     0
 42
0.0000000001
 43
0.0000000001
 40
0.0
 40
0.0
 40
0.0
 40
0.0
 40
1.0
 40
1.0
 40
1.0
 40
1.0
 10
-4.381102183637665
 20
44.99201770839511
 30
0.0
 10
-4.299782526091239
 20
44.78566009611349
 30
0.0
 10
-4.218462868545133
 20
44.57930248383251
 30
0.0
 10
-4.137143564049326
 20
44.37294473310239
 30
0.0
  0
SPLINE
  5
1AF
330
79
100
AcDbEntity
  8
1
 62
     7
370
    70
100
AcDbSpline
210
0.0
220
0.0
230
1.0
 70
     8
 71
     3
 72
     8
 73
     4
 74
     0
 42
0.0000000001
 43
0.0000000001
 40
0.0
 40
0.0
 40
0.0
 40
0.0
 40
1.0
 40
1.0
 40
1.0
 40
1.0
 10
6.482876109989338
 20
48.13202125165692
 30
0.0
 10
6.482875392574304
 20
46.91510049985943
 30
0.0
 10
6.482874675158948
 20
45.69817974806258
 30
0.0
 10
6.482874043757575
 20
44.48125899626574
 30
0.0
  0
SPLINE
  5
1B0
330
79
100
AcDbEntity
  8
1
 62
     7
370
    70
100
AcDbSpline
210
0.0
220
0.0
230
1.0
 70
     8
 71
     3
 72
     8
 73
     4
 74
     0
 42
0.0000000001
 43
0.0000000001
 40
0.0
 40
0.0
 40
0.0
 40
0.0
 40
1.0
 40
1.0
 40
1.0
 40
1.0
 10
15.67871785009108
 20
44.19516489367286
 30
0.0
 10
15.85946118937529
 20
44.19516639204974
 30
0.0
 10
16.04020452865307
 20
44.19516861023136
 30
0.0
 10
16.22094786793117
 20
44.1951708284136
 30
0.0
  0
SPLINE
  5
1B1
330
79
100
AcDbEntity
  8
1
 62
     7
370
    70
100
AcDbSpline
210
0.0
220
0.0
230
1.0
 70
     8
 71
     3
 72
    17
 73
    13
 74
     0
 42
0.0000000001
 43
0.0000000001
 40
0.0
 40
0.0
 40
0.0
 40
0.0
 40
1.0
 40
1.0
 40
1.0
 40
2.0
 40
2.0
 40
2.0
 40
3.0
 40
3.0
 40
3.0
 40
4.0
 40
4.0
 40
4.0
 40
4.0
 10
3.177117325876644
 20
45.23805434252345
 30
0.0
 10
2.939921051278758
 20
45.47840492841593
 30
0.0
 10
2.803408174657973
 20
45.81132336908051
 30
0.0
 10
2.799516692418837
 20
46.14778240699661
 30
0.0
 10
2.795625226047956
 20
46.48424007299865
 30
0.0
 10
2.924163610426083
 20
46.82044197035244
 30
0.0
 10
3.155712729918875
 20
47.06561225290657
 30
0.0
 10
3.387261849411346
 20
47.31078253546134
 30
0.0
 10
3.720117644784732
 20
47.45911374153867
 30
0.0
 10
4.05714808850151
 20
47.46176239085517
 30
0.0
 10
4.394178532218288
 20
47.46441104017296
 30
0.0
 10
4.728634441981694
 20
47.32302965590807
 30
0.0
 10
4.96285258638851
 20
47.0832925555664
 30
0.0
  0
SPLINE
  5
1B2
330
79
100
AcDbEntity
  8
1
 62
     7
370
    70
100
AcDbSpline
210
0.0
220
0.0
230
1.0
 70
     8
 71
     3
 72
     8
 73
     4
 74
     0
 42
0.0000000001
 43
0.0000000001
 40
0.0
 40
0.0
 40
0.0
 40
0.0
 40
1.0
 40
1.0
 40
1.0
 40
1.0
 10
1.313535007686868
 20
44.19516531863934
 30
0.0
 10
1.500861075835662
 20
44.1951668141491
 30
0.0
 10
1.688187143980606
 20
44.19516882128103
 30
0.0
 10
1.875513212125549
 20
44.1951708284136
 30
0.0
  0
SPLINE
  5
1B3
330
79
100
AcDbEntity
  8
1
 62
     7
370
    70
100
AcDbSpline
210
0.0
220
0.0
230
1.0
 70
     8
 71
     3
 72
     8
 73
     4
 74
     0
 42
0.0000000001
 43
0.0000000001
 40
0.0
 40
0.0
 40
0.0
 40
0.0
 40
1.0
 40
1.0
 40
1.0
 40
1.0
 10
9.51983906504938
 20
38.5319864229099
 30
0.0
 10
9.483757241765008
 20
38.61218719681622
 30
0.0
 10
9.409273641544745
 20
38.6761199686534
 30
0.0
 10
9.335722258107645
 20
38.73925257504897
 30
0.0
  0
SPLINE
  5
1B4
330
79
100
AcDbEntity
  8
1
 62
     7
370
    70
100
AcDbSpline
210
0.0
220
0.0
230
1.0
 70
     8
 71
     3
 72
    35
 73
    31
 74
     0
 42
0.0000000001
 43
0.0000000001
 40
0.0
 40
0.0
 40
0.0
 40
0.0
 40
1.0
 40
1.0
 40
1.0
 40
2.0
 40
2.0
 40
2.0
 40
3.0
 40
3.0
 40
3.0
 40
4.0
 40
4.0
 40
4.0
 40
5.0
 40
5.0
 40
5.0
 40
6.0
 40
6.0
 40
6.0
 40
7.0
 40
7.0
 40
7.0
 40
8.0
 40
8.0
 40
8.0
 40
9.0
 40
9.0
 40
9.0
 40
10.0
 40
10.0
 40
10.0
 40
10.0
 10
4.96285258638851
 20
47.0832925555664
 30
0.0
 10
5.010690586321068
 20
47.03432733376796
 30
0.0
 10
5.054670567026378
 20
46.98132084324845
 30
0.0
 10
5.093823826598245
 20
46.92580446859465
 30
0.0
 10
5.178428048465134
 20
46.8058420509126
 30
0.0
 10
5.243394164270122
 20
46.67039699350906
 30
0.0
 10
5.284314167681906
 20
46.53012037753767
 30
0.0
 10
5.326296914802335
 20
46.38620060226766
 30
0.0
 10
5.343994820701973
 20
46.23295239997261
 30
0.0
 10
5.334641425593408
 20
46.08333749500526
 30
0.0
 10
5.32551244371722
 20
45.93731225603338
 30
0.0
 10
5.291081726923035
 20
45.79089645453439
 30
0.0
 10
5.234947111640003
 20
45.65556146551088
 30
0.0
 10
5.18111154402169
 20
45.5257692523464
 30
0.0
 10
5.1058063593927
 20
45.40270580122725
 30
0.0
 10
5.013459724628614
 20
45.29673790926618
 30
0.0
 10
4.919793167942849
 20
45.18925540506276
 30
0.0
 10
4.805648470341882
 20
45.09714576467889
 30
0.0
 10
4.681287861806449
 20
45.02715732401415
 30
0.0
 10
4.563686471710918
 20
44.96097287855601
 30
0.0
 10
4.433834922947977
 20
44.91266381469515
 30
0.0
 10
4.301416804068715
 20
44.88667897102216
 30
0.0
 10
4.161834133261861
 20
44.85928820372417
 30
0.0
 10
4.015343398701582
 20
44.85671644773855
 30
0.0
 10
3.874977435171186
 20
44.87932793138107
 30
0.0
 10
3.736697849295173
 20
44.90160332147923
 30
0.0
 10
3.600382251637859
 20
44.9481408058808
 30
0.0
 10
3.476765168893944
 20
45.01447743309218
 30
0.0
 10
3.367026001651956
 20
45.07336675539499
 30
0.0
 10
3.264663905449476
 20
45.1493435407669
 30
0.0
 10
3.177117325876644
 20
45.23805434252345
 30
0.0
  0
SPLINE
  5
1B5
330
79
100
AcDbEntity
  8
1
 62
     7
370
    70
100
AcDbSpline
210
0.0
220
0.0
230
1.0
 70
     8
 71
     3
 72
     8
 73
     4
 74
     0
 42
0.0000000001
 43
0.0000000001
 40
0.0
 40
0.0
 40
0.0
 40
0.0
 40
1.0
 40
1.0
 40
1.0
 40
1.0
 10
-8.561618864276564
 20
47.00570312180899
 30
0.0
 10
-8.56198325599519
 20
47.2827681155798
 30
0.0
 10
-8.734727936143647
 20
47.49972346197246
 30
0.0
 10
-9.005179987646195
 20
47.56278492766432
 30
0.0
  0
SPLINE
  5
1B6
330
79
100
AcDbEntity
  8
1
 62
     7
370
    70
100
AcDbSpline
210
0.0
220
0.0
230
1.0
 70
     8
 71
     3
 72
     8
 73
     4
 74
     0
 42
0.0000000001
 43
0.0000000001
 40
0.0
 40
0.0
 40
0.0
 40
0.0
 40
1.0
 40
1.0
 40
1.0
 40
1.0
 10
-4.137143564049326
 20
44.37294473310239
 30
0.0
 10
-4.093318224855128
 20
44.2617325372145
 30
0.0
 10
-3.995384899537072
 20
44.19516512062705
 30
0.0
 10
-3.87559621245205
 20
44.19516596832624
 30
0.0
  0
SPLINE
  5
1B7
330
79
100
AcDbEntity
  8
1
 62
     7
370
    70
100
AcDbSpline
210
0.0
220
0.0
230
1.0
 70
     8
 71
     3
 72
     8
 73
     4
 74
     0
 42
0.0000000001
 43
0.0000000001
 40
0.0
 40
0.0
 40
0.0
 40
0.0
 40
1.0
 40
1.0
 40
1.0
 40
1.0
 10
7.539382117903808
 20
39.18694756695456
 30
0.0
 10
7.539382117903808
 20
38.98656324464386
 30
0.0
 10
7.337369112706023
 20
38.95244066643246
 30
0.0
 10
7.168953612514693
 20
38.95244047506883
 30
0.0
  0
SPLINE
  5
1B8
330
79
100
AcDbEntity
  8
1
 62
     7
370
    70
100
AcDbSpline
210
0.0
220
0.0
230
1.0
 70
     8
 71
     3
 72
     8
 73
     4
 74
     0
 42
0.0000000001
 43
0.0000000001
 40
0.0
 40
0.0
 40
0.0
 40
0.0
 40
1.0
 40
1.0
 40
1.0
 40
1.0
 10
16.22094786793117
 20
46.90054380641488
 30
0.0
 10
16.79791416891786
 20
46.04023752318786
 30
0.0
 10
17.37488046990454
 20
45.17993123996083
 30
0.0
 10
17.95184645484674
 20
44.3196247458099
 30
0.0
  0
SPLINE
  5
1B9
330
79
100
AcDbEntity
  8
1
 62
     7
370
    70
100
AcDbSpline
210
0.0
220
0.0
230
1.0
 70
     8
 71
     3
 72
     8
 73
     4
 74
     0
 42
0.0000000001
 43
0.0000000001
 40
0.0
 40
0.0
 40
0.0
 40
0.0
 40
1.0
 40
1.0
 40
1.0
 40
1.0
 10
13.85911292951644
 20
44.48412485559339
 30
0.0
 10
13.85911284350246
 20
44.31834765933328
 30
0.0
 10
13.97396158240739
 20
44.2037787844995
 30
0.0
 10
14.14014307282413
 20
44.20378016406645
 30
0.0
  0
SPLINE
  5
1BA
330
79
100
AcDbEntity
  8
1
 62
     7
370
    70
100
AcDbSpline
210
0.0
220
0.0
230
1.0
 70
     8
 71
     3
 72
     8
 73
     4
 74
     0
 42
0.0000000001
 43
0.0000000001
 40
0.0
 40
0.0
 40
0.0
 40
0.0
 40
1.0
 40
1.0
 40
1.0
 40
1.0
 10
7.962050386187045
 20
39.23669145494357
 30
0.0
 10
7.961769463359316
 20
39.68270484273428
 30
0.0
 10
7.564730351445304
 20
39.7613710354037
 30
0.0
 10
7.303115473209993
 20
39.76137117412171
 30
0.0
  0
SPLINE
  5
1BB
330
79
100
AcDbEntity
  8
1
 62
     7
370
    70
100
AcDbSpline
210
0.0
220
0.0
230
1.0
 70
     8
 71
     3
 72
     8
 73
     4
 74
     0
 42
0.0000000001
 43
0.0000000001
 40
0.0
 40
0.0
 40
0.0
 40
0.0
 40
1.0
 40
1.0
 40
1.0
 40
1.0
 10
-0.5313204560987052
 20
44.19516645125675
 30
0.0
 10
-0.4410400937489144
 20
44.19516715628827
 30
0.0
 10
-0.3507597314081073
 20
44.19516899235094
 30
0.0
 10
-0.2604793690666586
 20
44.1951708284136
 30
0.0
  0
SPLINE
  5
1BC
330
79
100
AcDbEntity
  8
1
 62
     7
370
    70
100
AcDbSpline
210
0.0
220
0.0
230
1.0
 70
     8
 71
     3
 72
     8
 73
     4
 74
     0
 42
0.0000000001
 43
0.0000000001
 40
0.0
 40
0.0
 40
0.0
 40
0.0
 40
1.0
 40
1.0
 40
1.0
 40
1.0
 10
-10.38228906448579
 20
44.47550958711784
 30
0.0
 10
-10.38228900873626
 20
44.30973239085773
 30
0.0
 10
-10.26744026983165
 20
44.19516351602395
 30
0.0
 10
-10.10125877941459
 20
44.19516489561015
 30
0.0
  0
SPLINE
  5
1BD
330
79
100
AcDbEntity
  8
1
 62
     7
370
    70
100
AcDbSpline
210
0.0
220
0.0
230
1.0
 70
     8
 71
     3
 72
     8
 73
     4
 74
     0
 42
0.0000000001
 43
0.0000000001
 40
0.0
 40
0.0
 40
0.0
 40
0.0
 40
1.0
 40
1.0
 40
1.0
 40
1.0
 10
11.49583317394039
 20
44.48412485559403
 30
0.0
 10
11.49583290238202
 20
44.31834765933521
 30
0.0
 10
11.61068164128695
 20
44.20377878450143
 30
0.0
 10
11.77686313170369
 20
44.20378016406259
 30
0.0
  0
SPLINE
  5
1BE
330
79
100
AcDbEntity
  8
1
 62
     7
370
    70
100
AcDbSpline
210
0.0
220
0.0
230
1.0
 70
     8
 71
     3
 72
     8
 73
     4
 74
     0
 42
0.0000000001
 43
0.0000000001
 40
0.0
 40
0.0
 40
0.0
 40
0.0
 40
1.0
 40
1.0
 40
1.0
 40
1.0
 10
-8.915679539494076
 20
48.12484296276891
 30
0.0
 10
-9.40454982740726
 20
48.12484291420384
 30
0.0
 10
-9.893420115320122
 20
48.12484268256973
 30
0.0
 10
-10.38229040323266
 20
48.12484245093628
 30
0.0
  0
SPLINE
  5
1BF
330
79
100
AcDbEntity
  8
1
 62
     7
370
    70
100
AcDbSpline
210
0.0
220
0.0
230
1.0
 70
     8
 71
     3
 72
     8
 73
     4
 74
     0
 42
0.0000000001
 43
0.0000000001
 40
0.0
 40
0.0
 40
0.0
 40
0.0
 40
1.0
 40
1.0
 40
1.0
 40
1.0
 10
-12.7455650242516
 20
47.46296162402876
 30
0.0
 10
-12.74556633278503
 20
46.47001603455094
 30
0.0
 10
-12.74556764131782
 20
45.47707044507377
 30
0.0
 10
-12.74556876264069
 20
44.48412485559596
 30
0.0
  0
SPLINE
  5
1C0
330
79
100
AcDbEntity
  8
1
 62
     7
370
    70
100
AcDbSpline
210
0.0
220
0.0
230
1.0
 70
     8
 71
     3
 72
     8
 73
     4
 74
     0
 42
0.0000000001
 43
0.0000000001
 40
0.0
 40
0.0
 40
0.0
 40
0.0
 40
1.0
 40
1.0
 40
1.0
 40
1.0
 10
-3.87559621245205
 20
44.19516596832624
 30
0.0
 10
-3.674417012280565
 20
44.19516739199524
 30
0.0
 10
-3.473237812111327
 20
44.19516911020409
 30
0.0
 10
-3.272058611941767
 20
44.1951708284136
 30
0.0
  0
SPLINE
  5
1C1
330
79
100
AcDbEntity
  8
1
 62
     7
370
    70
100
AcDbSpline
210
0.0
220
0.0
230
1.0
 70
     8
 71
     3
 72
     8
 73
     4
 74
     0
 42
0.0000000001
 43
0.0000000001
 40
0.0
 40
0.0
 40
0.0
 40
0.0
 40
1.0
 40
1.0
 40
1.0
 40
1.0
 10
18.18542408115277
 20
44.19516581868331
 30
0.0
 10
18.41334856616635
 20
44.1951668750611
 30
0.0
 10
18.64127305117609
 20
44.19516885173734
 30
0.0
 10
18.8691975361855
 20
44.1951708284136
 30
0.0
  0
SPLINE
  5
1C2
330
79
100
AcDbEntity
  8
1
 62
     7
370
    70
100
AcDbSpline
210
0.0
220
0.0
230
1.0
 70
     8
 71
     3
 72
     8
 73
     4
 74
     0
 42
0.0000000001
 43
0.0000000001
 40
0.0
 40
0.0
 40
0.0
 40
0.0
 40
1.0
 40
1.0
 40
1.0
 40
1.0
 10
-13.68108800488478
 20
48.13202125165692
 30
0.0
 10
-13.68108931342335
 20
48.00245234614795
 30
0.0
 10
-13.68109062196127
 20
47.87288344063899
 30
0.0
 10
-13.68109119601945
 20
47.74331453512682
 30
0.0
  0
SPLINE
  5
1C3
330
79
100
AcDbEntity
  8
1
 62
     7
370
    70
100
AcDbSpline
210
0.0
220
0.0
230
1.0
 70
     8
 71
     3
 72
    47
 73
    43
 74
     0
 42
0.0000000001
 43
0.0000000001
 40
0.0
 40
0.0
 40
0.0
 40
0.0
 40
1.0
 40
1.0
 40
1.0
 40
2.0
 40
2.0
 40
2.0
 40
3.0
 40
3.0
 40
3.0
 40
4.0
 40
4.0
 40
4.0
 40
5.0
 40
5.0
 40
5.0
 40
6.0
 40
6.0
 40
6.0
 40
7.0
 40
7.0
 40
7.0
 40
8.0
 40
8.0
 40
8.0
 40
9.0
 40
9.0
 40
9.0
 40
10.0
 40
10.0
 40
10.0
 40
11.0
 40
11.0
 40
11.0
 40
12.0
 40
12.0
 40
12.0
 40
13.0
 40
13.0
 40
13.0
 40
14.0
 40
14.0
 40
14.0
 40
14.0
 10
-0.9460774018295017
 20
39.42737650687617
 30
0.0
 10
-0.8592871579726416
 20
39.42737635888241
 30
0.0
 10
-0.7732335384710291
 20
39.41128184105466
 30
0.0
 10
-0.6930103806006386
 20
39.38013395845221
 30
0.0
 10
-0.6127872227302483
 20
39.34898607584911
 30
0.0
 10
-0.53839452649108
 20
39.30278482847258
 30
0.0
 10
-0.4748578571587636
 20
39.24255098264144
 30
0.0
 10
-0.4430895224919637
 20
39.21243405972523
 30
0.0
 10
-0.4140351945526789
 20
39.17880898719521
 30
0.0
 10
-0.3883168851625713
 20
39.14180670397396
 30
0.0
 10
-0.3625985757724637
 20
39.10480442075142
 30
0.0
 10
-0.3402162849318543
 20
39.06442492683763
 30
0.0
 10
-0.3217950990083824
 20
39.0207168308694
 30
0.0
 10
-0.3033739130845897
 20
38.97700873490116
 30
0.0
 10
-0.2889138320788971
 20
38.92997203687847
 30
0.0
 10
-0.2790578435322397
 20
38.87990902395902
 30
0.0
 10
-0.2741298492590714
 20
38.85487751749993
 30
0.0
 10
-0.2703528781012234
 20
38.82908943231601
 30
0.0
 10
-0.2678072692332202
 20
38.80231290318362
 30
0.0
 10
-0.2652616603652171
 20
38.77553637405122
 30
0.0
 10
-0.2639474137877005
 20
38.74777140097035
 30
0.0
 10
-0.2639474137877005
 20
38.72000642788948
 30
0.0
 10
-0.2639474137877005
 20
38.69224145480925
 30
0.0
 10
-0.2652616603652171
 20
38.66447648172773
 30
0.0
 10
-0.2678072692332202
 20
38.63769995259598
 30
0.0
 10
-0.2703528781012234
 20
38.61092342346294
 30
0.0
 10
-0.2741298492590714
 20
38.58513533827903
 30
0.0
 10
-0.2790578435322397
 20
38.56010383181994
 30
0.0
 10
-0.2889138320788971
 20
38.51004081890049
 30
0.0
 10
-0.3033739130845897
 20
38.46300412087844
 30
0.0
 10
-0.3217950990083824
 20
38.41929602490957
 30
0.0
 10
-0.3402162849318543
 20
38.37558792894133
 30
0.0
 10
-0.3625985757724637
 20
38.33520843502755
 30
0.0
 10
-0.3883168851625713
 20
38.29820615180564
 30
0.0
 10
-0.4140351945526789
 20
38.2612038685831
 30
0.0
 10
-0.4430895224919637
 20
38.22757879605373
 30
0.0
 10
-0.4748578571587636
 20
38.19746187313816
 30
0.0
 10
-0.53839452649108
 20
38.13722802730575
 30
0.0
 10
-0.6127872227302483
 20
38.09102677992921
 30
0.0
 10
-0.6930103806006386
 20
38.05987889732675
 30
0.0
 10
-0.7732335384710291
 20
38.02873101472494
 30
0.0
 10
-0.8592871579726416
 20
38.01263649689655
 30
0.0
 10
-0.9460774018295017
 20
38.01263651815732
 30
0.0
  0
SPLINE
  5
1C4
330
79
100
AcDbEntity
  8
1
 62
     7
370
    70
100
AcDbSpline
210
0.0
220
0.0
230
1.0
 70
     8
 71
     3
 72
     8
 73
     4
 74
     0
 42
0.0000000001
 43
0.0000000001
 40
0.0
 40
0.0
 40
0.0
 40
0.0
 40
1.0
 40
1.0
 40
1.0
 40
1.0
 10
9.335722258107645
 20
38.73925257504897
 30
0.0
 10
9.574844489747039
 20
38.78798598154153
 30
0.0
 10
9.721585143478362
 20
38.98064645231664
 30
0.0
 10
9.721585143478362
 20
39.20945075437804
 30
0.0
  0
SPLINE
  5
1C5
330
79
100
AcDbEntity
  8
1
 62
     7
370
    70
100
AcDbSpline
210
0.0
220
0.0
230
1.0
 70
     8
 71
     3
 72
     8
 73
     4
 74
     0
 42
0.0000000001
 43
0.0000000001
 40
0.0
 40
0.0
 40
0.0
 40
0.0
 40
1.0
 40
1.0
 40
1.0
 40
1.0
 10
11.77686313170369
 20
44.20378016406259
 30
0.0
 10
11.95712766140953
 20
44.20378166053556
 30
0.0
 10
12.13739219110894
 20
44.20378387871653
 30
0.0
 10
12.31765672080868
 20
44.20378609689812
 30
0.0
  0
SPLINE
  5
1C6
330
79
100
AcDbEntity
  8
1
 62
     7
370
    70
100
AcDbSpline
210
0.0
220
0.0
230
1.0
 70
     8
 71
     3
 72
     8
 73
     4
 74
     0
 42
0.0000000001
 43
0.0000000001
 40
0.0
 40
0.0
 40
0.0
 40
0.0
 40
1.0
 40
1.0
 40
1.0
 40
1.0
 10
8.862001210025567
 20
38.56870188732901
 30
0.0
 10
9.029684852528209
 20
38.56870210194205
 30
0.0
 10
9.075426801683942
 20
38.51684388808842
 30
0.0
 10
9.132699028464244
 20
38.36854229308364
 30
0.0
  0
SPLINE
  5
1C7
330
79
100
AcDbEntity
  8
1
 62
     7
370
    70
100
AcDbSpline
210
0.0
220
0.0
230
1.0
 70
     8
 71
     3
 72
     8
 73
     4
 74
     0
 42
0.0000000001
 43
0.0000000001
 40
0.0
 40
0.0
 40
0.0
 40
0.0
 40
1.0
 40
1.0
 40
1.0
 40
1.0
 10
-1.638713232244176
 20
46.8622474343106
 30
0.0
 10
-1.3583037033956
 20
46.03668006060646
 30
0.0
 10
-1.077894174546382
 20
45.21111268690298
 30
0.0
 10
-0.7974848427157745
 20
44.38554524660653
 30
0.0
  0
SPLINE
  5
1C8
330
79
100
AcDbEntity
  8
1
 62
     7
370
    70
100
AcDbSpline
210
0.0
220
0.0
230
1.0
 70
     8
 71
     3
 72
     8
 73
     4
 74
     0
 42
0.0000000001
 43
0.0000000001
 40
0.0
 40
0.0
 40
0.0
 40
0.0
 40
1.0
 40
1.0
 40
1.0
 40
1.0
 10
15.39768977301644
 20
48.13489418718405
 30
0.0
 10
15.39768905560044
 20
46.91509932049231
 30
0.0
 10
15.39768833818508
 20
45.69530445380059
 30
0.0
 10
15.397687706605
 20
44.47550958710886
 30
0.0
  0
SPLINE
  5
1C9
330
79
100
AcDbEntity
  8
1
 62
     7
370
    70
100
AcDbSpline
210
0.0
220
0.0
230
1.0
 70
     8
 71
     3
 72
     8
 73
     4
 74
     0
 42
0.0000000001
 43
0.0000000001
 40
0.0
 40
0.0
 40
0.0
 40
0.0
 40
1.0
 40
1.0
 40
1.0
 40
1.0
 10
-9.774922226925655
 20
46.37608801064934
 30
0.0
 10
-9.60940644036397
 20
46.37608785379948
 30
0.0
 10
-9.443890653802286
 20
46.37608769695091
 30
0.0
 10
-9.278374867240604
 20
46.37608742416594
 30
0.0
  0
SPLINE
  5
1CA
330
79
100
AcDbEntity
  8
1
 62
     7
370
    70
100
AcDbSpline
210
0.0
220
0.0
230
1.0
 70
     8
 71
     3
 72
     8
 73
     4
 74
     0
 42
0.0000000001
 43
0.0000000001
 40
0.0
 40
0.0
 40
0.0
 40
0.0
 40
1.0
 40
1.0
 40
1.0
 40
1.0
 10
-9.005179987646195
 20
47.56278492766432
 30
0.0
 10
-9.097572959531287
 20
47.58432825186718
 30
0.0
 10
-9.190826259305875
 20
47.57495089190543
 30
0.0
 10
-9.27837479094772
 20
47.57495054912135
 30
0.0
  0
SPLINE
  5
1CB
330
79
100
AcDbEntity
  8
1
 62
     7
370
    70
100
AcDbSpline
210
0.0
220
0.0
230
1.0
 70
     8
 71
     3
 72
     8
 73
     4
 74
     0
 42
0.0000000001
 43
0.0000000001
 40
0.0
 40
0.0
 40
0.0
 40
0.0
 40
1.0
 40
1.0
 40
1.0
 40
1.0
 10
14.14014307282413
 20
44.20378016406645
 30
0.0
 10
14.32040642028579
 20
44.20378166053363
 30
0.0
 10
14.50066976774072
 20
44.20378387871653
 30
0.0
 10
14.68093311519596
 20
44.20378609689812
 30
0.0
  0
SPLINE
  5
1CC
330
79
100
AcDbEntity
  8
1
 62
     7
370
    70
100
AcDbSpline
210
0.0
220
0.0
230
1.0
 70
     8
 71
     3
 72
     8
 73
     4
 74
     0
 42
0.0000000001
 43
0.0000000001
 40
0.0
 40
0.0
 40
0.0
 40
0.0
 40
1.0
 40
1.0
 40
1.0
 40
1.0
 10
7.306132431535093
 20
46.90628613937165
 30
0.0
 10
7.883099323654608
 20
46.04598221487885
 30
0.0
 10
8.460066215773482
 20
45.18567829038668
 30
0.0
 10
9.037032664684947
 20
44.32537407010143
 30
0.0
  0
SPLINE
  5
1CD
330
79
100
AcDbEntity
  8
1
 62
     7
370
    70
100
AcDbSpline
210
0.0
220
0.0
230
1.0
 70
     8
 71
     3
 72
     8
 73
     4
 74
     0
 42
0.0000000001
 43
0.0000000001
 40
0.0
 40
0.0
 40
0.0
 40
0.0
 40
1.0
 40
1.0
 40
1.0
 40
1.0
 10
-10.10125877941459
 20
44.19516489561015
 30
0.0
 10
-9.921000752063093
 20
44.19516639205553
 30
0.0
 10
-9.740742724716728
 20
44.19516861023455
 30
0.0
 10
-9.560484697371004
 20
44.1951708284136
 30
0.0
  0
SPLINE
  5
1CE
330
79
100
AcDbEntity
  8
1
 62
     7
370
    70
100
AcDbSpline
210
0.0
220
0.0
230
1.0
 70
     8
 71
     3
 72
     8
 73
     4
 74
     0
 42
0.0000000001
 43
0.0000000001
 40
0.0
 40
0.0
 40
0.0
 40
0.0
 40
1.0
 40
1.0
 40
1.0
 40
1.0
 10
9.132699028464244
 20
38.36854229308364
 30
0.0
 10
9.214267359894462
 20
38.15732798672621
 30
0.0
 10
9.295835752314646
 20
37.94611370380748
 30
0.0
 10
9.377404144734507
 20
37.73489942088811
 30
0.0
  0
SPLINE
  5
1CF
330
79
100
AcDbEntity
  8
1
 62
     7
370
    70
100
AcDbSpline
210
0.0
220
0.0
230
1.0
 70
     8
 71
     3
 72
     8
 73
     4
 74
     0
 42
0.0000000001
 43
0.0000000001
 40
0.0
 40
0.0
 40
0.0
 40
0.0
 40
1.0
 40
1.0
 40
1.0
 40
1.0
 10
8.023788447846051
 20
38.32590455342264
 30
0.0
 10
8.023839469763085
 20
38.55022911700497
 30
0.0
 10
7.834273818676805
 20
38.7084770182957
 30
0.0
 10
7.592809286647426
 20
38.72918535962275
 30
0.0
  0
SPLINE
  5
1D0
330
79
100
AcDbEntity
  8
1
 62
     7
370
    70
100
AcDbSpline
210
0.0
220
0.0
230
1.0
 70
     8
 71
     3
 72
     8
 73
     4
 74
     0
 42
0.0000000001
 43
0.0000000001
 40
0.0
 40
0.0
 40
0.0
 40
0.0
 40
1.0
 40
1.0
 40
1.0
 40
1.0
 10
-8.78884244794407
 20
46.50116879278399
 30
0.0
 10
-8.623641510424112
 20
46.61330041469749
 30
0.0
 10
-8.561366710154073
 20
46.81397790760346
 30
0.0
 10
-8.561618864276564
 20
47.00570312180899
 30
0.0
  0
SPLINE
  5
1D1
330
79
100
AcDbEntity
  8
1
 62
     7
370
    70
100
AcDbSpline
210
0.0
220
0.0
230
1.0
 70
     8
 71
     3
 72
     8
 73
     4
 74
     0
 42
0.0000000001
 43
0.0000000001
 40
0.0
 40
0.0
 40
0.0
 40
0.0
 40
1.0
 40
1.0
 40
1.0
 40
1.0
 10
-12.46453872052957
 20
44.20378016406581
 30
0.0
 10
-12.28427478195176
 20
44.20378166053556
 30
0.0
 10
-12.10401084338005
 20
44.20378387871717
 30
0.0
 10
-11.92374690480833
 20
44.20378609689812
 30
0.0
  0
SPLINE
  5
1D2
330
79
100
AcDbEntity
  8
1
 62
     7
370
    70
100
AcDbSpline
210
0.0
220
0.0
230
1.0
 70
     8
 71
     3
 72
     8
 73
     4
 74
     0
 42
0.0000000001
 43
0.0000000001
 40
0.0
 40
0.0
 40
0.0
 40
0.0
 40
1.0
 40
1.0
 40
1.0
 40
1.0
 10
9.270610418158717
 20
44.20091452862759
 30
0.0
 10
9.498534312035298
 20
44.20091392548696
 30
0.0
 10
9.726458205912839
 20
44.20091354342898
 30
0.0
 10
9.954382099790061
 20
44.200913161371
 30
0.0
  0
SPLINE
  5
1D3
330
79
100
AcDbEntity
  8
1
 62
     7
370
    70
100
AcDbSpline
210
0.0
220
0.0
230
1.0
 70
     8
 71
     3
 72
     8
 73
     4
 74
     0
 42
0.0000000001
 43
0.0000000001
 40
0.0
 40
0.0
 40
0.0
 40
0.0
 40
1.0
 40
1.0
 40
1.0
 40
1.0
 10
7.598745638730121
 20
38.28267474600267
 30
0.0
 10
7.598745638730121
 20
38.05598281622504
 30
0.0
 10
7.37960426405403
 20
38.01263649691708
 30
0.0
 10
7.193886744275355
 20
38.01263653453669
 30
0.0
  0
SPLINE
  5
1D4
330
79
100
AcDbEntity
  8
1
 62
     7
370
    70
100
AcDbSpline
210
0.0
220
0.0
230
1.0
 70
     8
 71
     3
 72
     8
 73
     4
 74
     0
 42
0.0000000001
 43
0.0000000001
 40
0.0
 40
0.0
 40
0.0
 40
0.0
 40
1.0
 40
1.0
 40
1.0
 40
1.0
 10
0.6407484322010282
 20
46.85323236075881
 30
0.0
 10
0.7725510998388079
 20
46.04564172685692
 30
0.0
 10
0.9043537674759459
 20
45.23805109295567
 30
0.0
 10
1.036156104484391
 20
44.4304604053564
 30
0.0
  0
SPLINE
  5
1D5
330
79
100
AcDbEntity
  8
1
 62
     7
370
    70
100
AcDbSpline
210
0.0
220
0.0
230
1.0
 70
     8
 71
     3
 72
     8
 73
     4
 74
     0
 42
0.0000000001
 43
0.0000000001
 40
0.0
 40
0.0
 40
0.0
 40
0.0
 40
1.0
 40
1.0
 40
1.0
 40
1.0
 10
-13.68109119601945
 20
47.74331453512682
 30
0.0
 10
-13.68109193049951
 20
47.57753733887056
 30
0.0
 10
-13.5662431915949
 20
47.46296846403613
 30
0.0
 10
-13.4000617011788
 20
47.4629676678487
 30
0.0
  0
SPLINE
  5
1D6
330
79
100
AcDbEntity
  8
1
 62
     7
370
    70
100
AcDbSpline
210
0.0
220
0.0
230
1.0
 70
     8
 71
     3
 72
     8
 73
     4
 74
     0
 42
0.0000000001
 43
0.0000000001
 40
0.0
 40
0.0
 40
0.0
 40
0.0
 40
1.0
 40
1.0
 40
1.0
 40
1.0
 10
7.592809286647426
 20
38.72918535962275
 30
0.0
 10
7.827614421108067
 20
38.80181927427372
 30
0.0
 10
7.962206443220143
 20
38.98892402742733
 30
0.0
 10
7.962050386187045
 20
39.23669145494357
 30
0.0
  0
SPLINE
  5
1D7
330
79
100
AcDbEntity
  8
1
 62
     7
370
    70
100
AcDbSpline
210
0.0
220
0.0
230
1.0
 70
     8
 71
     3
 72
     8
 73
     4
 74
     0
 42
0.0000000001
 43
0.0000000001
 40
0.0
 40
0.0
 40
0.0
 40
0.0
 40
1.0
 40
1.0
 40
1.0
 40
1.0
 10
22.37202023180931
 20
44.38030085724711
 30
0.0
 10
22.41579932831975
 20
44.26898864468321
 30
0.0
 10
22.51377154410488
 20
44.20234716653911
 30
0.0
 10
22.63363658431512
 20
44.20234751614893
 30
0.0
  0
SPLINE
  5
1D8
330
79
100
AcDbEntity
  8
1
 62
     7
370
    70
100
AcDbSpline
210
0.0
220
0.0
230
1.0
 70
     8
 71
     3
 72
    17
 73
    13
 74
     0
 42
0.0000000001
 43
0.0000000001
 40
0.0
 40
0.0
 40
0.0
 40
0.0
 40
1.0
 40
1.0
 40
1.0
 40
2.0
 40
2.0
 40
2.0
 40
3.0
 40
3.0
 40
3.0
 40
4.0
 40
4.0
 40
4.0
 40
4.0
 10
2.210519804854012
 20
46.96471385797371
 30
0.0
 10
2.002454867260578
 20
46.47504503137827
 30
0.0
 10
1.996201108421003
 20
45.90211022650058
 30
0.0
 10
2.191592829068573
 20
45.40605098781626
 30
0.0
 10
2.38698453203541
 20
44.90999179401943
 30
0.0
 10
2.78581464156174
 20
44.49584121797719
 30
0.0
 10
3.278038307730463
 20
44.28340414045761
 30
0.0
 10
3.770261973899186
 20
44.07096706293804
 30
0.0
 10
4.349010413480066
 20
44.0670185365336
 30
0.0
 10
4.844214859393695
 20
44.27264606541572
 30
0.0
 10
5.339419305307646
 20
44.47827359429847
 30
0.0
 10
5.743095020230703
 20
44.88983995852692
 30
0.0
 10
5.946530938533831
 20
45.38375092695169
 30
0.0
  0
SPLINE
  5
1D9
330
79
100
AcDbEntity
  8
1
 62
     7
370
    70
100
AcDbSpline
210
0.0
220
0.0
230
1.0
 70
     8
 71
     3
 72
     8
 73
     4
 74
     0
 42
0.0000000001
 43
0.0000000001
 40
0.0
 40
0.0
 40
0.0
 40
0.0
 40
1.0
 40
1.0
 40
1.0
 40
1.0
 10
17.95184645484674
 20
44.3196247458099
 30
0.0
 10
18.00524567822542
 20
44.24000185667315
 30
0.0
 10
18.08939142954744
 20
44.19516537359444
 30
0.0
 10
18.18542408115277
 20
44.19516581868331
 30
0.0
  0
SPLINE
  5
1DA
330
79
100
AcDbEntity
  8
1
 62
     7
370
    70
100
AcDbSpline
210
0.0
220
0.0
230
1.0
 70
     8
 71
     3
 72
     8
 73
     4
 74
     0
 42
0.0000000001
 43
0.0000000001
 40
0.0
 40
0.0
 40
0.0
 40
0.0
 40
1.0
 40
1.0
 40
1.0
 40
1.0
 10
15.397687706605
 20
44.47550958710886
 30
0.0
 10
15.39768762076941
 20
44.30973239084939
 30
0.0
 10
15.51253635967402
 20
44.19516351601497
 30
0.0
 10
15.67871785009108
 20
44.19516489367286
 30
0.0
  0
SPLINE
  5
1DB
330
79
100
AcDbEntity
  8
1
 62
     7
370
    70
100
AcDbSpline
210
0.0
220
0.0
230
1.0
 70
     8
 71
     3
 72
     8
 73
     4
 74
     0
 42
0.0000000001
 43
0.0000000001
 40
0.0
 40
0.0
 40
0.0
 40
0.0
 40
1.0
 40
1.0
 40
1.0
 40
1.0
 10
9.721585143478362
 20
39.20945075437804
 30
0.0
 10
9.721585143478362
 20
39.77297485203273
 30
0.0
 10
9.195438762280643
 20
39.7613710354037
 30
0.0
 10
8.763458226121439
 20
39.76137129006774
 30
0.0
  0
SPLINE
  5
1DC
330
79
100
AcDbEntity
  8
1
 62
     7
370
    70
100
AcDbSpline
210
0.0
220
0.0
230
1.0
 70
     8
 71
     3
 72
     8
 73
     4
 74
     0
 42
0.0000000001
 43
0.0000000001
 40
0.0
 40
0.0
 40
0.0
 40
0.0
 40
1.0
 40
1.0
 40
1.0
 40
1.0
 10
22.63363658431544
 20
44.20234751614893
 30
0.0
 10
22.83474871890002
 20
44.20234810273179
 30
0.0
 10
23.03586085348461
 20
44.20234886593269
 30
0.0
 10
23.23697298806887
 20
44.20234962913425
 30
0.0
  0
SPLINE
  5
1DD
330
79
100
AcDbEntity
  8
1
 62
     7
370
    70
100
AcDbSpline
210
0.0
220
0.0
230
1.0
 70
     8
 71
     3
 72
     8
 73
     4
 74
     0
 42
0.0000000001
 43
0.0000000001
 40
0.0
 40
0.0
 40
0.0
 40
0.0
 40
1.0
 40
1.0
 40
1.0
 40
1.0
 10
-9.27837479094772
 20
47.57495054912135
 30
0.0
 10
-9.443890602938974
 20
47.57494990106756
 30
0.0
 10
-9.609406414932475
 20
47.57494970054881
 30
0.0
 10
-9.774922226925655
 20
47.57494950003005
 30
0.0
  0
SPLINE
  5
1DE
330
79
100
AcDbEntity
  8
1
 62
     7
370
    70
100
AcDbSpline
210
0.0
220
0.0
230
1.0
 70
     8
 71
     3
 72
     8
 73
     4
 74
     0
 42
0.0000000001
 43
0.0000000001
 40
0.0
 40
0.0
 40
0.0
 40
0.0
 40
1.0
 40
1.0
 40
1.0
 40
1.0
 10
7.303115470607583
 20
37.73489969163569
 30
0.0
 10
7.559227165806254
 20
37.7348997889763
 30
0.0
 10
8.023671819114939
 20
37.81313100827224
 30
0.0
 10
8.023788447846051
 20
38.32590455342264
 30
0.0
  0
SPLINE
  5
1DF
330
79
100
AcDbEntity
  8
1
 62
     7
370
    70
100
AcDbSpline
210
0.0
220
0.0
230
1.0
 70
     8
 71
     3
 72
     8
 73
     4
 74
     0
 42
0.0000000001
 43
0.0000000001
 40
0.0
 40
0.0
 40
0.0
 40
0.0
 40
1.0
 40
1.0
 40
1.0
 40
1.0
 10
6.763904187072327
 20
44.20091317296586
 30
0.0
 10
6.944646935226262
 20
44.20091344247304
 30
0.0
 10
7.125389683380517
 20
44.2009133019217
 30
0.0
 10
7.306132431535093
 20
44.200913161371
 30
0.0
  0
SPLINE
  5
1E0
330
79
100
AcDbEntity
  8
1
 62
     7
370
    70
100
AcDbSpline
210
0.0
220
0.0
230
1.0
 70
     8
 71
     3
 72
     8
 73
     4
 74
     0
 42
0.0000000001
 43
0.0000000001
 40
0.0
 40
0.0
 40
0.0
 40
0.0
 40
1.0
 40
1.0
 40
1.0
 40
1.0
 10
6.482874043757575
 20
44.48125899626574
 30
0.0
 10
6.482873957743914
 20
44.31548180000563
 30
0.0
 10
6.59772269664885
 20
44.20091292517185
 30
0.0
 10
6.763904187072327
 20
44.20091317296586
 30
0.0
  0
SPLINE
  5
1E1
330
79
100
AcDbEntity
  8
1
 62
     7
370
    70
100
AcDbSpline
210
0.0
220
0.0
230
1.0
 70
     8
 71
     3
 72
     8
 73
     4
 74
     0
 42
0.0000000001
 43
0.0000000001
 40
0.0
 40
0.0
 40
0.0
 40
0.0
 40
1.0
 40
1.0
 40
1.0
 40
1.0
 10
-10.38229040323266
 20
48.12484245093628
 30
0.0
 10
-10.38228993840063
 20
46.90839816299723
 30
0.0
 10
-10.38228947356861
 20
45.69195387505753
 30
0.0
 10
-10.38228906448579
 20
44.47550958711784
 30
0.0
  0
SPLINE
  5
1E2
330
79
100
AcDbEntity
  8
1
 62
     7
370
    70
100
AcDbSpline
210
0.0
220
0.0
230
1.0
 70
     8
 71
     3
 72
    59
 73
    55
 74
     0
 42
0.0000000001
 43
0.0000000001
 40
0.0
 40
0.0
 40
0.0
 40
0.0
 40
1.0
 40
1.0
 40
1.0
 40
2.0
 40
2.0
 40
2.0
 40
3.0
 40
3.0
 40
3.0
 40
4.0
 40
4.0
 40
4.0
 40
5.0
 40
5.0
 40
5.0
 40
6.0
 40
6.0
 40
6.0
 40
7.0
 40
7.0
 40
7.0
 40
8.0
 40
8.0
 40
8.0
 40
9.0
 40
9.0
 40
9.0
 40
10.0
 40
10.0
 40
10.0
 40
11.0
 40
11.0
 40
11.0
 40
12.0
 40
12.0
 40
12.0
 40
13.0
 40
13.0
 40
13.0
 40
14.0
 40
14.0
 40
14.0
 40
15.0
 40
15.0
 40
15.0
 40
16.0
 40
16.0
 40
16.0
 40
17.0
 40
17.0
 40
17.0
 40
18.0
 40
18.0
 40
18.0
 40
18.0
 10
-1.024437196677505
 20
37.73489970931964
 30
0.0
 10
-0.8697127084119117
 20
37.73489978895577
 30
0.0
 10
-0.7193226410208876
 20
37.74786749492726
 30
0.0
 10
-0.580578464511572
 20
37.77993961949892
 30
0.0
 10
-0.5112063762567536
 20
37.79597568178476
 30
0.0
 10
-0.444745760722202
 20
37.8167878487208
 30
0.0
 10
-0.3821291836396389
 20
37.84316365954938
 30
0.0
 10
-0.3195126065570758
 20
37.86953947037924
 30
0.0
 10
-0.2607400679265013
 20
37.90147892510165
 30
0.0
 10
-0.2067845342591919
 20
37.93975786936203
 30
0.0
 10
-0.1528290005912409
 20
37.97803681362115
 30
0.0
 10
-0.103690471886876
 20
38.02265524741631
 30
0.0
 10
-0.0603772651288063
 20
38.07433949399217
 30
0.0
 10
-0.0170640583710575
 20
38.12602374056867
 30
0.0
 10
0.0204238264407168
 20
38.18477379992586
 30
0.0
 10
0.0511281500952478
 20
38.25121931067581
 30
0.0
 10
0.0664803119221925
 20
38.28444206605175
 30
0.0
 10
0.0801365834599867
 20
38.31958868427508
 30
0.0
 10
0.091983243493086
 20
38.35678827679485
 30
0.0
 10
0.1038299035255437
 20
38.39398786931525
 30
0.0
 10
0.1138669520529856
 20
38.4332404361321
 30
0.0
 10
0.1219855531149753
 20
38.4744377343169
 30
0.0
 10
0.1301041541766442
 20
38.51563503250106
 30
0.0
 10
0.1363043077722191
 20
38.55877706205381
 30
0.0
 10
0.1404740508196009
 20
38.60471739670632
 30
0.0
 10
0.1446437938666618
 20
38.65065773135948
 30
0.0
 10
0.1467831263648878
 20
38.69939637111304
 30
0.0
 10
0.1467828696313693
 20
38.74813546249311
 30
0.0
 10
0.1467826129514327
 20
38.79686444622199
 30
0.0
 10
0.1446436543750871
 20
38.84559388138999
 30
0.0
 10
0.1404740398410929
 20
38.89152632298068
 30
0.0
 10
0.1363044253070986
 20
38.93745876457074
 30
0.0
 10
0.1301041548148138
 20
38.98059421258478
 30
0.0
 10
0.1219855031554966
 20
39.02178591045223
 30
0.0
 10
0.1138668514965002
 20
39.06297760831967
 30
0.0
 10
0.1038298186701503
 20
39.10222555604117
 30
0.0
 10
0.0919831603831141
 20
39.13942146014866
 30
0.0
 10
0.0801365020960778
 20
39.17661736425614
 30
0.0
 10
0.0664802183483551
 20
39.2117612247496
 30
0.0
 10
0.0511280596400678
 20
39.24498201186454
 30
0.0
 10
0.020423742223814
 20
39.31142358609377
 30
0.0
 10
-0.0170640750324522
 20
39.37017286681013
 30
0.0
 10
-0.0603771691258173
 20
39.42185861417695
 30
0.0
 10
-0.1036902632188615
 20
39.47354436154312
 30
0.0
 10
-0.1528286341486836
 20
39.51816657555845
 30
0.0
 10
-0.2067840293033302
 20
39.55645064335188
 30
0.0
 10
-0.2607394244576559
 20
39.59473471114467
 30
0.0
 10
-0.3195118438371269
 20
39.62668063271556
 30
0.0
 10
-0.3821283606760216
 20
39.65306325712123
 30
0.0
 10
-0.4447448775152373
 20
39.67944588152754
 30
0.0
 10
-0.5112054918141973
 20
39.70026520876926
 30
0.0
 10
-0.5805776299819712
 20
39.71630777938878
 30
0.0
 10
-0.7193219063168771
 20
39.74839292062846
 30
0.0
 10
-0.8697122781247919
 20
39.76137103538317
 30
0.0
 10
-1.024437196677826
 20
39.76137114712543
 30
0.0
  0
SPLINE
  5
1E3
330
79
100
AcDbEntity
  8
1
 62
     7
370
    70
100
AcDbSpline
210
0.0
220
0.0
230
1.0
 70
     8
 71
     3
 72
    17
 73
    13
 74
     0
 42
0.0000000001
 43
0.0000000001
 40
0.0
 40
0.0
 40
0.0
 40
0.0
 40
1.0
 40
1.0
 40
1.0
 40
2.0
 40
2.0
 40
2.0
 40
3.0
 40
3.0
 40
3.0
 40
4.0
 40
4.0
 40
4.0
 40
4.0
 10
5.946530938533831
 20
45.38375092695169
 30
0.0
 10
6.149403647491793
 20
45.87629458546047
 30
0.0
 10
6.147763291895764
 20
46.44208220133762
 30
0.0
 10
5.949788196134865
 20
46.93231998858255
 30
0.0
 10
5.751813100373966
 20
47.42255777582811
 30
0.0
 10
5.35571017374131
 20
47.83138039505955
 30
0.0
 10
4.868321211571384
 20
48.04132653692168
 30
0.0
 10
4.380932249401778
 20
48.25127267878253
 30
0.0
 10
3.807691012434975
 20
48.25682683255717
 30
0.0
 10
3.315312215664965
 20
48.05652121167799
 30
0.0
 10
2.822933463235397
 20
47.85621560883696
 30
0.0
 10
2.418999964837862
 20
47.45535988651194
 30
0.0
 10
2.210519804854012
 20
46.96471385797371
 30
0.0
  0
SPLINE
  5
1E4
330
79
100
AcDbEntity
  8
1
 62
     7
370
    70
100
AcDbSpline
210
0.0
220
0.0
230
1.0
 70
     8
 71
     3
 72
     8
 73
     4
 74
     0
 42
0.0000000001
 43
0.0000000001
 40
0.0
 40
0.0
 40
0.0
 40
0.0
 40
1.0
 40
1.0
 40
1.0
 40
1.0
 10
-9.278374867240604
 20
46.37608742416594
 30
0.0
 10
-9.109340896573062
 20
46.37608714558321
 30
0.0
 10
-8.933584336850296
 20
46.40292393409597
 30
0.0
 10
-8.78884244794407
 20
46.50116879278399
 30
0.0
  0
SPLINE
  5
1E5
330
79
100
AcDbEntity
  8
1
 62
     7
370
    70
100
AcDbSpline
210
0.0
220
0.0
230
1.0
 70
     8
 71
     3
 72
     8
 73
     4
 74
     0
 42
0.0000000001
 43
0.0000000001
 40
0.0
 40
0.0
 40
0.0
 40
0.0
 40
1.0
 40
1.0
 40
1.0
 40
1.0
 10
7.159455439383572
 20
39.42737664681726
 30
0.0
 10
7.343441683756012
 20
39.42737635890359
 30
0.0
 10
7.539382117903808
 20
39.414239196085
 30
0.0
 10
7.539382117903808
 20
39.18694756695456
 30
0.0
  0
SPLINE
  5
1E6
330
79
100
AcDbEntity
  8
1
 62
     7
370
    70
100
AcDbSpline
210
0.0
220
0.0
230
1.0
 70
     8
 71
     3
 72
     8
 73
     4
 74
     0
 42
0.0000000001
 43
0.0000000001
 40
0.0
 40
0.0
 40
0.0
 40
0.0
 40
1.0
 40
1.0
 40
1.0
 40
1.0
 10
-12.74556876264069
 20
44.48412485559596
 30
0.0
 10
-12.74556894985125
 20
44.31834765933585
 30
0.0
 10
-12.63072021094632
 20
44.20377878450207
 30
0.0
 10
-12.46453872052957
 20
44.20378016406581
 30
0.0
  0
SPLINE
  5
1E7
330
79
100
AcDbEntity
  8
1
 62
     7
370
    35
100
AcDbSpline
210
0.0
220
0.0
230
1.0
 70
     8
 71
     3
 72
    65
 73
    61
 74
     0
 42
0.0000000001
 43
0.0000000001
 40
0.0
 40
0.0
 40
0.0
 40
0.0
 40
1.0
 40
1.0
 40
1.0
 40
2.0
 40
2.0
 40
2.0
 40
3.0
 40
3.0
 40
3.0
 40
4.0
 40
4.0
 40
4.0
 40
5.0
 40
5.0
 40
5.0
 40
6.0
 40
6.0
 40
6.0
 40
7.0
 40
7.0
 40
7.0
 40
8.0
 40
8.0
 40
8.0
 40
9.0
 40
9.0
 40
9.0
 40
10.0
 40
10.0
 40
10.0
 40
11.0
 40
11.0
 40
11.0
 40
12.0
 40
12.0
 40
12.0
 40
13.0
 40
13.0
 40
13.0
 40
14.0
 40
14.0
 40
14.0
 40
15.0
 40
15.0
 40
15.0
 40
16.0
 40
16.0
 40
16.0
 40
17.0
 40
17.0
 40
17.0
 40
18.0
 40
18.0
 40
18.0
 40
19.0
 40
19.0
 40
19.0
 40
20.0
 40
20.0
 40
20.0
 40
20.0
 10
122.5589088423116
 20
95.52609978718773
 30
0.0
 10
122.5589126494247
 20
95.60776970797476
 30
0.0
 10
122.5673983693175
 20
95.68761163858047
 30
0.0
 10
122.5837177061534
 20
95.76576683669376
 30
0.0
 10
122.5878016242808
 20
95.78532519457985
 30
0.0
 10
122.5923816225249
 20
95.80477712815168
 30
0.0
 10
122.5974581088922
 20
95.82412304676093
 30
0.0
 10
122.6025345952595
 20
95.84346896537049
 30
0.0
 10
122.6081278032965
 20
95.86276576788156
 30
0.0
 10
122.6141441852298
 20
95.88172476723052
 30
0.0
 10
122.626176949095
 20
95.91964276592907
 30
0.0
 10
122.6399264293405
 20
95.95637272145387
 30
0.0
 10
122.655270214543
 20
95.99202059823721
 30
0.0
 10
122.6706139997443
 20
96.0276684750212
 30
0.0
 10
122.6875530264938
 20
96.06223345081852
 30
0.0
 10
122.7060317649443
 20
96.09578103806953
 30
0.0
 10
122.7245105033941
 20
96.12932862532087
 30
0.0
 10
122.7446324580726
 20
96.16198729359528
 30
0.0
 10
122.7658661379132
 20
96.19307515597634
 30
0.0
 10
122.8083334975936
 20
96.25525088073914
 30
0.0
 10
122.8554182128292
 20
96.31173359628622
 30
0.0
 10
122.9069890057694
 20
96.36335070194581
 30
0.0
 10
122.9327744022401
 20
96.38915925477544
 30
0.0
 10
122.9596941535941
 20
96.41373865236303
 30
0.0
 10
122.9878164196949
 20
96.43712485455218
 30
0.0
 10
123.0018775527449
 20
96.44881795564643
 30
0.0
 10
123.0162686459556
 20
96.4602319633658
 30
0.0
 10
123.0308534473979
 20
96.47125780403886
 30
0.0
 10
123.0454382488396
 20
96.4822836447132
 30
0.0
 10
123.0602367357181
 20
96.49294003542969
 30
0.0
 10
123.0752564566755
 20
96.50323711314918
 30
0.0
 10
123.1052958985896
 20
96.52383126858811
 30
0.0
 10
123.1362162805877
 20
96.54299203771287
 30
0.0
 10
123.1681211790455
 20
96.56075391779824
 30
0.0
 10
123.2000260775033
 20
96.57851579788362
 30
0.0
 10
123.232913739079
 20
96.59487962092834
 30
0.0
 10
123.2669625603553
 20
96.60981255401702
 30
0.0
 10
123.301011381631
 20
96.62474548710475
 30
0.0
 10
123.3362180175329
 20
96.63824995365935
 30
0.0
 10
123.3728729952543
 20
96.65020228191842
 30
0.0
 10
123.391200484115
 20
96.6561784460478
 30
0.0
 10
123.4097850425333
 20
96.66172732150453
 30
0.0
 10
123.4285274878913
 20
96.66680586416399
 30
0.0
 10
123.4472699332486
 20
96.6718844068238
 30
0.0
 10
123.46620555262
 20
96.67650428878886
 30
0.0
 10
123.4853504090909
 20
96.6806537896303
 30
0.0
 10
123.5236401220314
 20
96.68895279131481
 30
0.0
 10
123.5627647924839
 20
96.69537774862112
 30
0.0
 10
123.6028777082746
 20
96.6997534770239
 30
0.0
 10
123.6229341661702
 20
96.70194134122528
 30
0.0
 10
123.6433002557662
 20
96.703616241501
 30
0.0
 10
123.6636862703907
 20
96.70473389395969
 30
0.0
 10
123.6840722850145
 20
96.705851546419
 30
0.0
 10
123.7045146073353
 20
96.7064192149539
 30
0.0
 10
123.7250143715542
 20
96.70642981115847
 30
0.0
 10
123.8070134284328
 20
96.70647219597746
 30
0.0
 10
123.8864137260418
 20
96.69771159076997
 30
0.0
 10
123.9636877196568
 20
96.68111966944724
 30
0.0
 10
123.982465300106
 20
96.67708783256559
 30
0.0
 10
124.0011169028299
 20
96.6725824457298
 30
0.0
 10
124.0193896475588
 20
96.66768954843547
 30
0.0
  0
SPLINE
  5
1E8
330
79
100
AcDbEntity
  8
1
 62
     7
370
    35
100
AcDbSpline
210
0.0
220
0.0
230
1.0
 70
     8
 71
     3
 72
    71
 73
    67
 74
     0
 42
0.0000000001
 43
0.0000000001
 40
0.0
 40
0.0
 40
0.0
 40
0.0
 40
1.0
 40
1.0
 40
1.0
 40
2.0
 40
2.0
 40
2.0
 40
3.0
 40
3.0
 40
3.0
 40
4.0
 40
4.0
 40
4.0
 40
5.0
 40
5.0
 40
5.0
 40
6.0
 40
6.0
 40
6.0
 40
7.0
 40
7.0
 40
7.0
 40
8.0
 40
8.0
 40
8.0
 40
9.0
 40
9.0
 40
9.0
 40
10.0
 40
10.0
 40
10.0
 40
11.0
 40
11.0
 40
11.0
 40
12.0
 40
12.0
 40
12.0
 40
13.0
 40
13.0
 40
13.0
 40
14.0
 40
14.0
 40
14.0
 40
15.0
 40
15.0
 40
15.0
 40
16.0
 40
16.0
 40
16.0
 40
17.0
 40
17.0
 40
17.0
 40
18.0
 40
18.0
 40
18.0
 40
19.0
 40
19.0
 40
19.0
 40
20.0
 40
20.0
 40
20.0
 40
21.0
 40
21.0
 40
21.0
 40
22.0
 40
22.0
 40
22.0
 40
22.0
 10
124.019857386587
 20
96.71198651792762
 30
0.0
 10
124.0020336738155
 20
96.71649415266497
 30
0.0
 10
123.9840348966507
 20
96.72060693495957
 30
0.0
 10
123.9658472830038
 20
96.72431724437677
 30
0.0
 10
123.9275575700633
 20
96.73212842209757
 30
0.0
 10
123.8884328996108
 20
96.73816315208428
 30
0.0
 10
123.8483199838201
 20
96.74227079314652
 30
0.0
 10
123.8282635259245
 20
96.74432461367748
 30
0.0
 10
123.8078974363292
 20
96.74589596992301
 30
0.0
 10
123.7875114217046
 20
96.74694438680383
 30
0.0
 10
123.7671254070802
 20
96.74799280368464
 30
0.0
 10
123.7466830847607
 20
96.74852511018052
 30
0.0
 10
123.7261833205412
 20
96.74853504748949
 30
0.0
 10
123.6441842636625
 20
96.74857479672441
 30
0.0
 10
123.5647839660529
 20
96.74037138697645
 30
0.0
 10
123.487509972438
 20
96.72475572568403
 30
0.0
 10
123.4681914740332
 20
96.72085181036077
 30
0.0
 10
123.4490063158691
 20
96.71647289028205
 30
0.0
 10
123.4302298676446
 20
96.71170511740372
 30
0.0
 10
123.4114534194201
 20
96.70693734452541
 30
0.0
 10
123.3930067161194
 20
96.7017660024987
 30
0.0
 10
123.3748545399265
 20
96.69620833836786
 30
0.0
 10
123.3385501875402
 20
96.68509301010649
 30
0.0
 10
123.3034186422665
 20
96.6724377419807
 30
0.0
 10
123.2692548514848
 20
96.6583022717527
 30
0.0
 10
123.2350910607019
 20
96.64416680152466
 30
0.0
 10
123.2018967037574
 20
96.62854984227115
 30
0.0
 10
123.1695424206497
 20
96.61143161901399
 30
0.0
 10
123.1533652790968
 20
96.60287250738509
 30
0.0
 10
123.1374336671775
 20
96.59395304030784
 30
0.0
 10
123.1218367694005
 20
96.58473619795209
 30
0.0
 10
123.1062398716248
 20
96.57551935559602
 30
0.0
 10
123.0909446395098
 20
96.56598787637635
 30
0.0
 10
123.0759318319669
 20
96.55614149414901
 30
0.0
 10
123.0158806017962
 20
96.51675596524162
 30
0.0
 10
122.9602709813647
 20
96.47239100179346
 30
0.0
 10
122.9085801096512
 20
96.42254638766212
 30
0.0
 10
122.8827346737944
 20
96.39762408059615
 30
0.0
 10
122.8578838407582
 20
96.37132080583846
 30
0.0
 10
122.8340440736979
 20
96.34349419606488
 30
0.0
 10
122.8221241901667
 20
96.32958089117762
 30
0.0
 10
122.8104795266313
 20
96.31530716060257
 30
0.0
 10
122.7992040541099
 20
96.30077992581743
 30
0.0
 10
122.7879285815885
 20
96.2862526910326
 30
0.0
 10
122.7769947536431
 20
96.27144036009411
 30
0.0
 10
122.766402583868
 20
96.25633558207118
 30
0.0
 10
122.7240339047666
 20
96.1959164699782
 30
0.0
 10
122.6870560250955
 20
96.13087622779467
 30
0.0
 10
122.6560519237802
 20
96.06032757363342
 30
0.0
 10
122.6483008984509
 20
96.04269041009278
 30
0.0
 10
122.640906510832
 20
96.024644597196
 30
0.0
 10
122.6339787636147
 20
96.00641294507875
 30
0.0
 10
122.6270510163981
 20
95.9881812929615
 30
0.0
 10
122.6205847294016
 20
95.9697620952639
 30
0.0
 10
122.6145820088122
 20
95.95115273957652
 30
0.0
 10
122.6025765676335
 20
95.91393402820147
 30
0.0
 10
122.5924212182837
 20
95.87595617650189
 30
0.0
 10
122.5841810531445
 20
95.83718165852983
 30
0.0
 10
122.5759408880046
 20
95.79840714055778
 30
0.0
 10
122.5696148382247
 20
95.75883644509284
 30
0.0
 10
122.5653415643376
 20
95.71840514089883
 30
0.0
 10
122.5610682904505
 20
95.67797383670416
 30
0.0
 10
122.5589154551492
 20
95.63729596676138
 30
0.0
 10
122.5589088563904
 20
95.59640615728669
 30
0.0
 10
122.5589088497912
 20
95.59636526747761
 30
0.0
 10
122.5589088453186
 20
95.59632437812606
 30
0.0
 10
122.5589088429725
 20
95.59628348923299
 30
0.0
  0
SPLINE
  5
1E9
330
79
100
AcDbEntity
  8
1
 62
     7
370
    35
100
AcDbSpline
210
0.0
220
0.0
230
1.0
 70
     8
 71
     3
 72
    50
 73
    46
 74
     0
 42
0.0000000001
 43
0.0000000001
 40
0.0
 40
0.0
 40
0.0
 40
0.0
 40
1.0
 40
1.0
 40
1.0
 40
2.0
 40
2.0
 40
2.0
 40
3.0
 40
3.0
 40
3.0
 40
4.0
 40
4.0
 40
4.0
 40
5.0
 40
5.0
 40
5.0
 40
6.0
 40
6.0
 40
6.0
 40
7.0
 40
7.0
 40
7.0
 40
8.0
 40
8.0
 40
8.0
 40
9.0
 40
9.0
 40
9.0
 40
10.0
 40
10.0
 40
10.0
 40
11.0
 40
11.0
 40
11.0
 40
12.0
 40
12.0
 40
12.0
 40
13.0
 40
13.0
 40
13.0
 40
14.0
 40
14.0
 40
14.0
 40
15.0
 40
15.0
 40
15.0
 40
15.0
 10
124.0174888011533
 20
96.61813442005882
 30
0.0
 10
123.9969980001192
 20
96.62347503323935
 30
0.0
 10
123.9763232277592
 20
96.62826794771824
 30
0.0
 10
123.9556111090432
 20
96.6324701091672
 30
0.0
 10
123.8800194348951
 20
96.64780646481869
 30
0.0
 10
123.8033602169213
 20
96.65557437436049
 30
0.0
 10
123.7255964189118
 20
96.65557421111097
 30
0.0
 10
123.647832620903
 20
96.65557404786177
 30
0.0
 10
123.5715144575336
 20
96.64780747234138
 30
0.0
 10
123.4965578544105
 20
96.63266673214163
 30
0.0
 10
123.4590795528496
 20
96.62509636204177
 30
0.0
 10
123.4219439558932
 20
96.61566823638441
 30
0.0
 10
123.3851541407793
 20
96.60434741057667
 30
0.0
 10
123.3667592332221
 20
96.59868699767296
 30
0.0
 10
123.3484042345831
 20
96.59253389280571
 30
0.0
 10
123.3303204642952
 20
96.58596675511756
 30
0.0
 10
123.3122366940073
 20
96.5793996174294
 30
0.0
 10
123.2943949330184
 20
96.57241220820802
 30
0.0
 10
123.2767882813703
 20
96.56501371589193
 30
0.0
 10
123.2063616747786
 20
96.5354197466266
 30
0.0
 10
123.139661900884
 20
96.49931316249571
 30
0.0
 10
123.0765404709657
 20
96.45674379593474
 30
0.0
 10
123.0449797560072
 20
96.43545911265523
 30
0.0
 10
123.0141901739698
 20
96.41242318892039
 30
0.0
 10
122.9848651986753
 20
96.38816173781055
 30
0.0
 10
122.9555402233808
 20
96.36390028670039
 30
0.0
 10
122.9275731523512
 20
96.33836267381767
 30
0.0
 10
122.900921182657
 20
96.31156696453102
 30
0.0
 10
122.8742692129634
 20
96.28477125524375
 30
0.0
 10
122.8489323446053
 20
96.25671744955193
 30
0.0
 10
122.8249108444035
 20
96.22738337792037
 30
0.0
 10
122.8008893442018
 20
96.19804930628916
 30
0.0
 10
122.7781604337291
 20
96.16740153306833
 30
0.0
 10
122.7568371718582
 20
96.13547855341883
 30
0.0
 10
122.7141906481164
 20
96.07163259411885
 30
0.0
 10
122.6783408440436
 20
96.0045731107743
 30
0.0
 10
122.6490821866648
 20
95.93432204237364
 30
0.0
 10
122.6344528579751
 20
95.8991965081733
 30
0.0
 10
122.6214842266383
 20
95.86326735258321
 30
0.0
 10
122.6102293818103
 20
95.82650161797372
 30
0.0
 10
122.598974536983
 20
95.78973588336362
 30
0.0
 10
122.5894176892317
 20
95.75197653527981
 30
0.0
 10
122.5818139339333
 20
95.71411651758001
 30
0.0
 10
122.5666064233366
 20
95.63839648217911
 30
0.0
 10
122.5589095416968
 20
95.56168301889412
 30
0.0
 10
122.5589088412541
 20
95.48394788918166
 30
0.0
  0
SPLINE
  5
1EA
330
79
100
AcDbEntity
  8
1
 62
     7
370
    35
100
AcDbSpline
210
0.0
220
0.0
230
1.0
 70
     8
 71
     3
 72
    95
 73
    91
 74
     0
 42
0.0000000001
 43
0.0000000001
 40
0.0
 40
0.0
 40
0.0
 40
0.0
 40
1.0
 40
1.0
 40
1.0
 40
2.0
 40
2.0
 40
2.0
 40
3.0
 40
3.0
 40
3.0
 40
4.0
 40
4.0
 40
4.0
 40
5.0
 40
5.0
 40
5.0
 40
6.0
 40
6.0
 40
6.0
 40
7.0
 40
7.0
 40
7.0
 40
8.0
 40
8.0
 40
8.0
 40
9.0
 40
9.0
 40
9.0
 40
10.0
 40
10.0
 40
10.0
 40
11.0
 40
11.0
 40
11.0
 40
12.0
 40
12.0
 40
12.0
 40
13.0
 40
13.0
 40
13.0
 40
14.0
 40
14.0
 40
14.0
 40
15.0
 40
15.0
 40
15.0
 40
16.0
 40
16.0
 40
16.0
 40
17.0
 40
17.0
 40
17.0
 40
18.0
 40
18.0
 40
18.0
 40
19.0
 40
19.0
 40
19.0
 40
20.0
 40
20.0
 40
20.0
 40
21.0
 40
21.0
 40
21.0
 40
22.0
 40
22.0
 40
22.0
 40
23.0
 40
23.0
 40
23.0
 40
24.0
 40
24.0
 40
24.0
 40
25.0
 40
25.0
 40
25.0
 40
26.0
 40
26.0
 40
26.0
 40
27.0
 40
27.0
 40
27.0
 40
28.0
 40
28.0
 40
28.0
 40
29.0
 40
29.0
 40
29.0
 40
30.0
 40
30.0
 40
30.0
 40
30.0
 10
124.0174777348333
 20
94.50412329280908
 30
0.0
 10
123.996986855304
 20
94.4987828750567
 30
0.0
 10
123.9763120214602
 20
94.49399016244191
 30
0.0
 10
123.9555998600038
 20
94.48978820605814
 30
0.0
 10
123.8800080298735
 20
94.47445259881831
 30
0.0
 10
123.8033483969341
 20
94.46668543459036
 30
0.0
 10
123.7255846949549
 20
94.46668638639238
 30
0.0
 10
123.6478209929757
 20
94.46668733819473
 30
0.0
 10
123.5715029194473
 20
94.4744546690376
 30
0.0
 10
123.4965464074564
 20
94.48959617754713
 30
0.0
 10
123.4590681514594
 20
94.49716693180237
 30
0.0
 10
123.4219326003613
 20
94.50659544469138
 30
0.0
 10
123.3851428323405
 20
94.51791666669633
 30
0.0
 10
123.3667479483304
 20
94.52357727769895
 30
0.0
 10
123.3483929943517
 20
94.52973057750247
 30
0.0
 10
123.3303093118745
 20
94.53629789237785
 30
0.0
 10
123.3122256293974
 20
94.54286520725355
 30
0.0
 10
123.2943839549069
 20
94.54985279194143
 30
0.0
 10
123.2767773888474
 20
94.55725145874064
 30
0.0
 10
123.2063511246098
 20
94.58684612593804
 30
0.0
 10
123.139651678651
 20
94.62295339234485
 30
0.0
 10
123.0765305851666
 20
94.66552346858357
 30
0.0
 10
123.0449700384237
 20
94.68680850670342
 30
0.0
 10
123.0141806642159
 20
94.70984477067316
 30
0.0
 10
122.9848559559908
 20
94.73410650644455
 30
0.0
 10
122.9555312477669
 20
94.75836824221563
 30
0.0
 10
122.9275644387026
 20
94.78390613735577
 30
0.0
 10
122.9009127304661
 20
94.81070213075659
 30
0.0
 10
122.874261022229
 20
94.83749812415675
 30
0.0
 10
122.848924414819
 20
94.86555221581758
 30
0.0
 10
122.8249031795639
 20
94.89488657958517
 30
0.0
 10
122.8008819443082
 20
94.92422094335214
 30
0.0
 10
122.7781532346212
 20
94.95486911836447
 30
0.0
 10
122.7568303264022
 20
94.98679229242439
 30
0.0
 10
122.7141845099641
 20
95.05063864054328
 30
0.0
 10
122.6783353880687
 20
95.11769850549214
 30
0.0
 10
122.64907743312
 20
95.18794996864391
 30
0.0
 10
122.6344484556457
 20
95.22307570021997
 30
0.0
 10
122.6214801804602
 20
95.2590050564302
 30
0.0
 10
122.610225702806
 20
95.29577099772678
 30
0.0
 10
122.5989712251518
 20
95.33253693902398
 30
0.0
 10
122.5894147780614
 20
95.37029643236181
 30
0.0
 10
122.5818114335973
 20
95.40815652966214
 30
0.0
 10
122.5666047446705
 20
95.48387672426313
 30
0.0
 10
122.5589086794593
 20
95.56059062779342
 30
0.0
 10
122.5589088412091
 20
95.63832564099868
 30
0.0
 10
122.5589090029603
 20
95.71606065420363
 30
0.0
 10
122.5666039093151
 20
95.79230290640621
 30
0.0
 10
122.5816191380923
 20
95.86713628964101
 30
0.0
 10
122.5891267524813
 20
95.90455298125808
 30
0.0
 10
122.5984785956529
 20
95.9416150462659
 30
0.0
 10
122.6097114601211
 20
95.97831895043576
 30
0.0
 10
122.6153278923552
 20
95.99667090252102
 30
0.0
 10
122.6214344047315
 20
96.01498127468644
 30
0.0
 10
122.627954110811
 20
96.03302087312235
 30
0.0
 10
122.6344738168905
 20
96.05106047155825
 30
0.0
 10
122.641411656149
 20
96.06885492209386
 30
0.0
 10
122.6487585924314
 20
96.08641100923023
 30
0.0
 10
122.67814633756
 20
96.15663535777507
 30
0.0
 10
122.7140158977476
 20
96.22307998127311
 30
0.0
 10
122.7563183460542
 20
96.28589190468687
 30
0.0
 10
122.7774695702087
 20
96.31729786639391
 30
0.0
 10
122.800367775051
 20
96.34792468277842
 30
0.0
 10
122.8244938536581
 20
96.37708491052002
 30
0.0
 10
122.8486199322652
 20
96.40624513826194
 30
0.0
 10
122.8740154987127
 20
96.434034918451
 30
0.0
 10
122.9006625668774
 20
96.46050123118554
 30
0.0
 10
122.9273096350407
 20
96.48696754391911
 30
0.0
 10
122.9552082049205
 20
96.51211038919814
 30
0.0
 10
122.984381043364
 20
96.5359344347591
 30
0.0
 10
123.0135538818088
 20
96.55975848032037
 30
0.0
 10
123.0440275506978
 20
96.58228187826525
 30
0.0
 10
123.0757861812519
 20
96.60341134336889
 30
0.0
 10
123.1393034423615
 20
96.6456702735765
 30
0.0
 10
123.2060465821438
 20
96.68116394608867
 30
0.0
 10
123.2760250090372
 20
96.71012734066058
 30
0.0
 10
123.311014222484
 20
96.72460903794686
 30
0.0
 10
123.3468181130605
 20
96.73744509044528
 30
0.0
 10
123.3834744012352
 20
96.74858504918367
 30
0.0
 10
123.4201306894106
 20
96.75972500792171
 30
0.0
 10
123.457802259694
 20
96.76918616584469
 30
0.0
 10
123.4955981270068
 20
96.77671440256444
 30
0.0
 10
123.5711898616324
 20
96.79177087600395
 30
0.0
 10
123.6478493962898
 20
96.79939187425155
 30
0.0
 10
123.7256129971385
 20
96.79939094016747
 30
0.0
 10
123.8033765979872
 20
96.79939000608435
 30
0.0
 10
123.8796945741127
 20
96.79176879107693
 30
0.0
 10
123.9546509921987
 20
96.77690293525053
 30
0.0
 10
123.9766132226976
 20
96.77254723949339
 30
0.0
 10
123.9984577700094
 20
96.76756471485123
 30
0.0
 10
124.0201840147208
 20
96.76194788804796
 30
0.0
  0
MTEXT
  5
1EB
330
79
100
AcDbEntity
  8
1
100
AcDbMText
 10
-8.190025497084437
 20
12.92358669381771
 30
0.0
 40
0.2
 41
0.0
 46
0.0
 71
     7
 72
     1
  1
\C7;\FMyriad Pro|b0|i0|c1;\H11.985294;\W1.000000;100
 73
     1
 44
1.0
  0
LINE
  5
1EC
330
79
100
AcDbEntity
  8
1
 62
     7
370
    13
100
AcDbLine
 10
-53.62584039889884
 20
26.6151234501347
 30
0.0
 11
-53.62584039889884
 21
9.160771647382293
 31
0.0
  0
LINE
  5
1ED
330
79
100
AcDbEntity
  8
1
 62
     7
370
    13
100
AcDbLine
 10
63.0431600851525
 20
26.77191357355258
 30
0.0
 11
63.0431600851525
 21
9.160771647382293
 31
0.0
  0
LINE
  5
1EE
330
79
100
AcDbEntity
  8
1
 62
     7
370
    13
100
AcDbLine
 10
-53.62584039889884
 20
11.49415165706257
 30
0.0
 11
63.0431600851525
 21
11.49415165706257
 31
0.0
  0
LWPOLYLINE
  5
1EF
330
79
100
AcDbEntity
  8
1
 62
     7
370
    35
100
AcDbPolyline
 90
        4
 70
     1
 43
0.0
 10
-53.62584039889884
 20
11.49415165706257
 10
-44.29232502693496
 20
12.7229329039607
 10
-44.29231569341538
 20
10.26537041016443
 10
-44.29231569341538
 20
10.26537041016443
  0
HATCH
  5
1F0
330
79
100
AcDbEntity
  8
1
 62
     7
440
 33554687
100
AcDbHatch
 10
0.0
 20
0.0
 30
0.0
210
0.0
220
0.0
230
1.0
  2
SOLID
 70
     1
 71
     1
 91
        1
 92
        1
 93
        3
 72
     1
 10
-53.62584039889884
 20
11.49415165706257
 11
-44.29232502693496
 21
12.7229329039607
 72
     1
 10
-44.29232502693496
 20
12.7229329039607
 11
-44.29231569341538
 21
10.26537041016443
 72
     1
 10
-44.29231569341538
 20
10.26537041016443
 11
-53.62584039889884
 21
11.49415165706257
 97
        1
330
1EF
 75
     2
 76
     1
 98
        1
 10
0.0
 20
0.0
450
        0
451
        0
460
0.0
461
0.0
452
        0
462
0.0
453
        0
470

  0
LWPOLYLINE
  5
1F1
330
79
100
AcDbEntity
  8
1
 62
     7
370
    35
100
AcDbPolyline
 90
        4
 70
     1
 43
0.0
 10
63.0431600851525
 20
11.49415165706257
 10
53.7096447131883
 20
10.26537041016443
 10
53.70963537966872
 20
12.7229329039607
 10
53.70963537966872
 20
12.7229329039607
  0
HATCH
  5
1F2
330
79
100
AcDbEntity
  8
1
 62
     7
440
 33554687
100
AcDbHatch
 10
0.0
 20
0.0
 30
0.0
210
0.0
220
0.0
230
1.0
  2
SOLID
 70
     1
 71
     1
 91
        1
 92
        1
 93
        3
 72
     1
 10
63.0431600851525
 20
11.49415165706257
 11
53.7096447131883
 21
10.26537041016443
 72
     1
 10
53.7096447131883
 20
10.26537041016443
 11
53.70963537966872
 21
12.7229329039607
 72
     1
 10
53.70963537966872
 20
12.7229329039607
 11
63.0431600851525
 21
11.49415165706257
 97
        1
330
1F1
 75
     2
 76
     1
 98
        1
 10
0.0
 20
0.0
450
        0
451
        0
460
0.0
461
0.0
452
        0
462
0.0
453
        0
470

  0
INSERT
  5
1F4
330
79
100
AcDbEntity
  8
1
100
AcDbBlockReference
  2
Block_1
 10
0.0
 20
0.0
 30
0.0
  0
MTEXT
  5
1FF
330
79
100
AcDbEntity
  8
1
100
AcDbMText
 10
184.7666720458222
 20
56.0620388314706
 30
0.0
 40
0.2
 41
0.0
 46
0.0
 71
     7
 72
     1
  1
\C7;\FMyriad Pro|b0|i0|c1;\H11.985294;\W1.000000;59
 11
0.0000000000000001
 21
1.0
 31
0.0
 73
     1
 44
1.0
  0
LINE
  5
200
330
79
100
AcDbEntity
  8
1
 62
     7
370
    13
100
AcDbLine
 10
157.6263374091527
 20
30.75150070957049
 30
0.0
 11
189.4436245682993
 21
30.75150070957049
 31
0.0
  0
LINE
  5
201
330
79
100
AcDbEntity
  8
1
 62
     7
370
    13
100
AcDbLine
 10
164.629629588472
 20
99.62248805417148
 30
0.0
 11
189.4436245682993
 21
99.62248805417148
 31
0.0
  0
LINE
  5
202
330
79
100
AcDbEntity
  8
1
 62
     7
370
    13
100
AcDbLine
 10
187.1102445586183
 20
30.75150070957049
 30
0.0
 11
187.1102445586183
 21
99.62248805417148
 31
0.0
  0
LWPOLYLINE
  5
203
330
79
100
AcDbEntity
  8
1
 62
     7
370
    35
100
AcDbPolyline
 90
        4
 70
     1
 43
0.0
 10
187.1102445586183
 20
30.75150070957049
 10
185.8814633117202
 20
40.08501608153468
 10
188.3390258055165
 20
40.08502541505492
 10
188.3390258055165
 20
40.08502541505492
  0
HATCH
  5
204
330
79
100
AcDbEntity
  8
1
 62
     7
440
 33554687
100
AcDbHatch
 10
0.0
 20
0.0
 30
0.0
210
0.0
220
0.0
230
1.0
  2
SOLID
 70
     1
 71
     1
 91
        1
 92
        1
 93
        3
 72
     1
 10
187.1102445586183
 20
30.75150070957049
 11
185.8814633117202
 21
40.08501608153468
 72
     1
 10
185.8814633117202
 20
40.08501608153468
 11
188.3390258055165
 21
40.08502541505492
 72
     1
 10
188.3390258055165
 20
40.08502541505492
 11
187.1102445586183
 21
30.75150070957049
 97
        1
330
203
 75
     2
 76
     1
 98
        1
 10
0.0
 20
0.0
450
        0
451
        0
460
0.0
461
0.0
452
        0
462
0.0
453
        0
470

  0
LWPOLYLINE
  5
205
330
79
100
AcDbEntity
  8
1
 62
     7
370
    35
100
AcDbPolyline
 90
        4
 70
     1
 43
0.0
 10
187.1102445586183
 20
99.62248805417148
 10
188.3390258055165
 20
90.28897268220729
 10
185.8814633117202
 20
90.28896334868706
 10
185.8814633117202
 20
90.28896334868706
  0
HATCH
  5
206
330
79
100
AcDbEntity
  8
1
 62
     7
440
 33554687
100
AcDbHatch
 10
0.0
 20
0.0
 30
0.0
210
0.0
220
0.0
230
1.0
  2
SOLID
 70
     1
 71
     1
 91
        1
 92
        1
 93
        3
 72
     1
 10
187.1102445586183
 20
99.62248805417148
 11
188.3390258055165
 21
90.28897268220729
 72
     1
 10
188.3390258055165
 20
90.28897268220729
 11
185.8814633117202
 21
90.28896334868706
 72
     1
 10
185.8814633117202
 20
90.28896334868706
 11
187.1102445586183
 21
99.62248805417148
 97
        1
330
205
 75
     2
 76
     1
 98
        1
 10
0.0
 20
0.0
450
        0
451
        0
460
0.0
461
0.0
452
        0
462
0.0
453
        0
470

  0
ENDBLK
  5
7C
330
79
100
AcDbEntity
  8
0
100
AcDbBlockEnd
  0
BLOCK
  5
1F5
330
1F3
100
AcDbEntity
  8
0
100
AcDbBlockBegin
  2
Block_1
 70
     0
 10
0.0
 20
0.0
 30
0.0
  3
Block_1
  1

  0
MTEXT
  5
1F7
330
1F3
100
AcDbEntity
  8
1
100
AcDbMText
 10
128.5747531145577
 20
14.57654350764058
 30
0.0
 40
0.2
 41
0.0
 46
0.0
 71
     7
 72
     1
  1
\C7;\FMyriad Pro|b0|i0|c1;\H11.985614;\W1.000000;31
 73
     1
 44
1.0
  0
LINE
  5
1F8
330
1F3
100
AcDbEntity
  8
1
 62
     7
370
    13
100
AcDbLine
 10
118.6504967736835
 20
32.78220163789537
 30
0.0
 11
118.6504967736835
 21
9.160771647382293
 31
0.0
  0
LINE
  5
1F9
330
1F3
100
AcDbEntity
  8
1
 62
     7
370
    13
100
AcDbLine
 10
155.0446891273004
 20
28.96697530140031
 30
0.0
 11
155.0446891273004
 21
9.160771647382293
 31
0.0
  0
LINE
  5
1FA
330
1F3
100
AcDbEntity
  8
1
 62
     7
370
    13
100
AcDbLine
 10
118.6504967736835
 20
11.49415165706257
 30
0.0
 11
155.0446891273004
 21
11.49415165706257
 31
0.0
  0
LWPOLYLINE
  5
1FB
330
1F3
100
AcDbEntity
  8
1
 62
     7
370
    35
100
AcDbPolyline
 90
        4
 70
     1
 43
0.0
 10
118.6504967736835
 20
11.49415165706257
 10
127.9840133123375
 20
12.7229329039607
 10
127.9840214791673
 20
10.26537041016443
 10
127.9840214791673
 20
10.26537041016443
  0
HATCH
  5
1FC
330
1F3
100
AcDbEntity
  8
1
 62
     7
440
 33554687
100
AcDbHatch
 10
0.0
 20
0.0
 30
0.0
210
0.0
220
0.0
230
1.0
  2
SOLID
 70
     1
 71
     1
 91
        1
 92
        1
 93
        3
 72
     1
 10
118.6504967736835
 20
11.49415165706257
 11
127.9840133123375
 21
12.7229329039607
 72
     1
 10
127.9840133123375
 20
12.7229329039607
 11
127.9840214791673
 21
10.26537041016443
 72
     1
 10
127.9840214791673
 20
10.26537041016443
 11
118.6504967736835
 21
11.49415165706257
 97
        1
330
1FB
 75
     2
 76
     1
 98
        1
 10
0.0
 20
0.0
450
        0
451
        0
460
0.0
461
0.0
452
        0
462
0.0
453
        0
470

  0
LWPOLYLINE
  5
1FD
330
1F3
100
AcDbEntity
  8
1
 62
     7
370
    35
100
AcDbPolyline
 90
        4
 70
     1
 43
0.0
 10
155.0446891273004
 20
11.49415165706257
 10
145.7111737553362
 20
10.26537041016443
 10
145.711164421816
 20
12.7229329039607
 10
145.711164421816
 20
12.7229329039607
  0
HATCH
  5
1FE
330
1F3
100
AcDbEntity
  8
1
 62
     7
440
 33554687
100
AcDbHatch
 10
0.0
 20
0.0
 30
0.0
210
0.0
220
0.0
230
1.0
  2
SOLID
 70
     1
 71
     1
 91
        1
 92
        1
 93
        3
 72
     1
 10
155.0446891273004
 20
11.49415165706257
 11
145.7111737553362
 21
10.26537041016443
 72
     1
 10
145.7111737553362
 20
10.26537041016443
 11
145.711164421816
 21
12.7229329039607
 72
     1
 10
145.711164421816
 20
12.7229329039607
 11
155.0446891273004
 21
11.49415165706257
 97
        1
330
1FD
 75
     2
 76
     1
 98
        1
 10
0.0
 20
0.0
450
        0
451
        0
460
0.0
461
0.0
452
        0
462
0.0
453
        0
470

  0
ENDBLK
  5
1F6
330
1F3
100
AcDbEntity
  8
0
100
AcDbBlockEnd
  0
BLOCK
  5
209
330
207
100
AcDbEntity
  8
0
100
AcDbBlockBegin
  2
Block_2
 70
     0
 10
0.0
 20
0.0
 30
0.0
  3
Block_2
  1

  0
MTEXT
  5
20B
330
207
100
AcDbEntity
  8
1
100
AcDbMText
 10
261.7727113281251
 20
17.59873438732935
 30
0.0
 40
0.2
 41
0.0
 46
0.0
 71
     7
 72
     1
  1
\C253;\FFrutiger LT Pro 55 Roman|b0|i0|c1;\H5.369469;\W1.000000;mm
 73
     1
 44
1.0
  0
INSERT
  5
20D
330
207
100
AcDbEntity
  8
1
100
AcDbBlockReference
  2
Block_3
 10
0.0
 20
0.0
 30
0.0
  0
LINE
  5
212
330
207
100
AcDbEntity
  8
1
 62
   253
370
    30
100
AcDbLine
 10
262.2351821642583
 20
13.54959012084722
 30
0.0
 11
274.5508673764894
 21
13.54959012084722
 31
0.0
  0
LINE
  5
213
330
207
100
AcDbEntity
  8
1
 62
   253
370
    30
100
AcDbLine
 10
262.0884915258591
 20
15.2040746248287
 30
0.0
 11
262.0884915258591
 21
11.89713886677881
 31
0.0
  0
LINE
  5
214
330
207
100
AcDbEntity
  8
1
 62
   253
370
    30
100
AcDbLine
 10
274.7010435861753
 20
15.2040746248287
 30
0.0
 11
274.7010435861753
 21
11.89713886677881
 31
0.0
  0
ENDBLK
  5
20A
330
207
100
AcDbEntity
  8
0
100
AcDbBlockEnd
  0
BLOCK
  5
20E
330
20C
100
AcDbEntity
  8
0
100
AcDbBlockBegin
  2
Block_3
 70
     0
 10
0.0
 20
0.0
 30
0.0
  3
Block_3
  1

  0
SPLINE
  5
210
330
20C
100
AcDbEntity
  8
1
 62
   251
370
    30
100
AcDbSpline
210
0.0
220
0.0
230
1.0
 70
     9
 71
     3
 72
    29
 73
    25
 74
     0
 42
0.0000000001
 43
0.0000000001
 40
0.0
 40
0.0
 40
0.0
 40
0.0
 40
1.0
 40
1.0
 40
1.0
 40
2.0
 40
2.0
 40
2.0
 40
3.0
 40
3.0
 40
3.0
 40
4.0
 40
4.0
 40
4.0
 40
5.0
 40
5.0
 40
5.0
 40
6.0
 40
6.0
 40
6.0
 40
7.0
 40
7.0
 40
7.0
 40
8.0
 40
8.0
 40
8.0
 40
8.0
 10
278.3633795828615
 20
9.50648316505134
 30
0.0
 10
278.3633795828615
 20
8.142199066784709
 30
0.0
 10
277.2256060145398
 20
7.026667736239194
 30
0.0
 10
275.8331396903936
 20
7.026667736239194
 30
0.0
 10
275.8331396903936
 20
7.026667736239194
 30
0.0
 10
260.9624487932635
 20
7.026667736239194
 30
0.0
 10
260.9624487932635
 20
7.026667736239194
 30
0.0
 10
259.5729309922821
 20
7.026667736239194
 30
0.0
 10
258.4341745829032
 20
8.142199066784709
 30
0.0
 10
258.4341745829032
 20
9.50648316505134
 30
0.0
 10
258.4341745829032
 20
9.50648316505134
 30
0.0
 10
258.4341745829032
 20
24.08841279747941
 30
0.0
 10
258.4341745829032
 20
24.08841279747941
 30
0.0
 10
258.4341745829032
 20
25.45077055769605
 30
0.0
 10
259.5729309922821
 20
26.5672650572672
 30
0.0
 10
260.9624487932635
 20
26.5672650572672
 30
0.0
 10
260.9624487932635
 20
26.5672650572672
 30
0.0
 10
275.8331396903936
 20
26.5672650572672
 30
0.0
 10
275.8331396903936
 20
26.5672650572672
 30
0.0
 10
277.2256060145398
 20
26.5672650572672
 30
0.0
 10
278.3633795828615
 20
25.45077055769605
 30
0.0
 10
278.3633795828615
 20
24.08841279747941
 30
0.0
 10
278.3633795828615
 20
24.08841279747941
 30
0.0
 10
278.3633795828615
 20
9.50648316505134
 30
0.0
 10
278.3633795828615
 20
9.50648316505134
 30
0.0
  0
LWPOLYLINE
  5
211
330
20C
100
AcDbEntity
  8
1
100
AcDbPolyline
 90
        4
 70
     1
 43
0.0
 10
258.0281374341246
 20
6.628759624786947
 10
278.8512344981887
 20
6.628759624786947
 10
278.8512344981887
 20
26.96478767123643
 10
258.0281374341246
 20
26.96478767123643
  0
ENDBLK
  5
20F
330
20C
100
AcDbEntity
  8
0
100
AcDbBlockEnd
  0
ENDSEC
  0
SECTION
  2
ENTITIES
  0
INSERT
  5
7A
330
70
100
AcDbEntity
  8
1
100
AcDbBlockReference
  2
Block_0
 10
0.0
 20
0.0
 30
0.0
  0
INSERT
  5
208
330
70
100
AcDbEntity
  8
1
100
AcDbBlockReference
  2
Block_2
 10
0.0
 20
0.0
 30
0.0
  0
ENDSEC
  0
SECTION
  2
OBJECTS
  0
DICTIONARY
  5
C
330
0
100
AcDbDictionary
281
     1
  3
ACAD_COLOR
350
63
  3
ACAD_DETAILVIEWSTYLE
350
6A
  3
ACAD_GROUP
350
D
  3
ACAD_LAYOUT
350
62
  3
ACAD_MATERIAL
350
10
  3
ACAD_MLEADERSTYLE
350
66
  3
ACAD_MLINESTYLE
350
5F
  3
ACAD_PLOTSETTINGS
350
61
  3
ACAD_PLOTSTYLENAME
350
E
  3
ACAD_SCALELIST
350
42
  3
ACAD_SECTIONVIEWSTYLE
350
68
  3
ACAD_TABLESTYLE
350
64
  3
ACAD_VISUALSTYLE
350
29
  3
ACDB_RECOMPOSE_DATA
350
21D
  3
AcDbVariableDictionary
350
215
  0
DICTIONARY
  5
63
102
{ACAD_REACTORS
330
C
102
}
330
C
100
AcDbDictionary
281
     1
  0
DICTIONARY
  5
6A
102
{ACAD_REACTORS
330
C
102
}
330
C
100
AcDbDictionary
281
     1
  3
Imperial24
350
6B
  0
DICTIONARY
  5
D
102
{ACAD_REACTORS
330
C
102
}
330
C
100
AcDbDictionary
281
     1
  0
DICTIONARY
  5
62
102
{ACAD_REACTORS
330
C
102
}
330
C
100
AcDbDictionary
281
     1
  3
Layout1
350
6F
  3
Layout2
350
77
  3
Model
350
73
  0
DICTIONARY
  5
10
102
{ACAD_REACTORS
330
C
102
}
330
C
100
AcDbDictionary
281
     1
  3
ByBlock
350
19
  3
ByLayer
350
11
  3
Global
350
21
  0
DICTIONARY
  5
66
102
{ACAD_REACTORS
330
C
102
}
330
C
100
AcDbDictionary
281
     1
  3
Standard
350
67
  0
DICTIONARY
  5
5F
102
{ACAD_REACTORS
330
C
102
}
330
C
100
AcDbDictionary
281
     1
  3
Standard
350
60
  0
DICTIONARY
  5
61
102
{ACAD_REACTORS
330
C
102
}
330
C
100
AcDbDictionary
281
     1
  0
ACDBDICTIONARYWDFLT
  5
E
102
{ACAD_REACTORS
330
C
102
}
330
C
100
AcDbDictionary
281
     1
  3
Normal
350
F
100
AcDbDictionaryWithDefault
340
F
  0
DICTIONARY
  5
42
102
{ACAD_REACTORS
330
C
102
}
330
C
100
AcDbDictionary
281
     1
  3
A0
350
43
  3
A1
350
44
  3
A2
350
45
  3
A3
350
46
  3
A4
350
47
  3
A5
350
48
  3
A6
350
49
  3
A7
350
4A
  3
A8
350
4B
  3
A9
350
4C
  3
B0
350
4D
  3
B1
350
4E
  3
B2
350
4F
  3
B3
350
50
  3
B4
350
51
  3
B5
350
52
  3
B6
350
53
  0
DICTIONARY
  5
68
102
{ACAD_REACTORS
330
C
102
}
330
C
100
AcDbDictionary
281
     1
  3
Imperial24
350
69
  0
DICTIONARY
  5
64
102
{ACAD_REACTORS
330
C
102
}
330
C
100
AcDbDictionary
281
     1
  3
Standard
350
65
  0
DICTIONARY
  5
29
102
{ACAD_REACTORS
330
C
102
}
330
C
100
AcDbDictionary
281
     1
  3
2dWireframe
350
2F
  3
Basic
350
2E
  3
Brighten
350
35
  3
ColorChange
350
39
  3
Conceptual
350
32
  3
Dim
350
34
  3
EdgeColorOff
350
41
  3
Facepattern
350
38
  3
Flat
350
2A
  3
FlatWithEdges
350
2B
  3
Gouraud
350
2C
  3
GouraudWithEdges
350
2D
  3
Hidden
350
31
  3
JitterOff
350
3F
  3
Linepattern
350
37
  3
OverhangOff
350
40
  3
Realistic
350
33
  3
Shaded
350
3E
  3
Shaded with edges
350
3D
  3
Shades of Gray
350
3A
  3
Sketchy
350
3B
  3
Thicken
350
36
  3
Wireframe
350
30
  3
X-Ray
350
3C
  0
XRECORD
  5
21D
102
{ACAD_REACTORS
330
C
102
}
330
C
100
AcDbXrecord
280
     1
 90
        1
330
65
  0
DICTIONARY
  5
215
102
{ACAD_REACTORS
330
C
102
}
330
C
100
AcDbDictionary
281
     1
  3
CANNOSCALE
350
21A
  3
CMLEADERSTYLE
350
217
  3
CTABLESTYLE
350
216
  3
CVIEWDETAILSTYLE
350
218
  3
CVIEWSECTIONSTYLE
350
219
  0
ACDBDETAILVIEWSTYLE
  5
6B
102
{ACAD_REACTORS
330
6A
102
}
330
6A
100
AcDbModelDocViewStyle
 70
     0
  3
Imperial24
290
     1
300
Imperial24
 90
        0
100
AcDbDetailViewStyle
 70
     0
 71
     0
 90
        3
 71
     1
340
55
 62
   256
 40
0.24
340
0
 62
   256
 40
0.24
300

 40
0.36
280
     3
 71
     2
340
5D
 90
       25
 62
   256
 71
     3
340
55
 62
   256
 40
0.24
 90
        1
 40
0.75
 90
        1
300
%<\AcVar ViewType \f "%tc1">% %<\AcVar ViewDetailId>%\PSCALE %<\AcVar ViewScale \f "%sn">%
 71
     4
340
5D
 90
       25
 62
   256
340
5D
 90
       25
 62
   256
280
     0
  0
LAYOUT
  5
6F
102
{ACAD_REACTORS
330
62
102
}
330
62
100
AcDbPlotSettings
  1

  2

  4

  6

 40
0.0
 41
0.0
 42
0.0
 43
0.0
 44
0.0
 45
0.0
 46
0.0
 47
0.0
 48
0.0
 49
0.0
140
0.0
141
0.0
142
1.0
143
1.0
 70
   688
 72
     0
 73
     0
 74
     5
  7

 75
    16
147
1.0
 76
     0
 77
     2
 78
   300
148
0.0
149
0.0
100
AcDbLayout
  1
Layout1
 70
     1
 71
     1
 10
0.0
 20
0.0
 11
12.0
 21
9.0
 12
0.0
 22
0.0
 32
0.0
 14
0.0
 24
0.0
 34
0.0
 15
0.0
 25
0.0
 35
0.0
146
0.0
 13
0.0
 23
0.0
 33
0.0
 16
1.0
 26
0.0
 36
0.0
 17
0.0
 27
1.0
 37
0.0
 76
     0
330
6C
  0
LAYOUT
  5
77
102
{ACAD_REACTORS
330
62
102
}
330
62
100
AcDbPlotSettings
  1

  2

  4

  6

 40
0.0
 41
0.0
 42
0.0
 43
0.0
 44
0.0
 45
0.0
 46
0.0
 47
0.0
 48
0.0
 49
0.0
140
0.0
141
0.0
142
1.0
143
1.0
 70
   688
 72
     0
 73
     0
 74
     5
  7

 75
    16
147
1.0
 76
     0
 77
     2
 78
   300
148
0.0
149
0.0
100
AcDbLayout
  1
Layout2
 70
     1
 71
     2
 10
0.0
 20
0.0
 11
12.0
 21
9.0
 12
0.0
 22
0.0
 32
0.0
 14
0.0
 24
0.0
 34
0.0
 15
0.0
 25
0.0
 35
0.0
146
0.0
 13
0.0
 23
0.0
 33
0.0
 16
1.0
 26
0.0
 36
0.0
 17
0.0
 27
1.0
 37
0.0
 76
     0
330
74
  0
LAYOUT
  5
73
102
{ACAD_REACTORS
330
62
102
}
330
62
100
AcDbPlotSettings
  1

  2

  4

  6

 40
0.0
 41
0.0
 42
0.0
 43
0.0
 44
0.0
 45
0.0
 46
0.0
 47
0.0
 48
0.0
 49
0.0
140
0.0
141
0.0
142
1.0
143
1.0
 70
  1712
 72
     0
 73
     0
 74
     0
  7

 75
     0
147
1.0
 76
     0
 77
     2
 78
   300
148
0.0
149
0.0
100
AcDbLayout
  1
Model
 70
     1
 71
     0
 10
0.0
 20
0.0
 11
12.0
 21
9.0
 12
0.0
 22
0.0
 32
0.0
 14
0.0
 24
0.0
 34
0.0
 15
0.0
 25
0.0
 35
0.0
146
0.0
 13
0.0
 23
0.0
 33
0.0
 16
1.0
 26
0.0
 36
0.0
 17
0.0
 27
1.0
 37
0.0
 76
     0
330
70
  0
MATERIAL
  5
19
102
{ACAD_XDICTIONARY
360
1A
102
}
102
{ACAD_REACTORS
330
10
102
}
330
10
100
AcDbMaterial
  1
ByBlock
 72
     0
 43
0.0208333333333333
 43
0.0
 43
0.0
 43
0.0
 43
0.0
 43
0.0208333333333333
 43
0.0
 43
0.0
 43
0.0
 43
0.0
 43
1.0
 43
0.0
 43
0.0
 43
0.0
 43
0.0
 43
1.0
 77
     0
 47
0.0208333333333333
 47
0.0
 47
0.0
 47
0.0
 47
0.0
 47
0.0208333333333333
 47
0.0
 47
0.0
 47
0.0
 47
0.0
 47
1.0
 47
0.0
 47
0.0
 47
0.0
 47
0.0
 47
1.0
171
     0
 49
0.0208333333333333
 49
0.0
 49
0.0
 49
0.0
 49
0.0
 49
0.0208333333333333
 49
0.0
 49
0.0
 49
0.0
 49
0.0
 49
1.0
 49
0.0
 49
0.0
 49
0.0
 49
0.0
 49
1.0
175
     0
142
0.0208333333333333
142
0.0
142
0.0
142
0.0
142
0.0
142
0.0208333333333333
142
0.0
142
0.0
142
0.0
142
0.0
142
1.0
142
0.0
142
0.0
142
0.0
142
0.0
142
1.0
179
     0
144
0.0208333333333333
144
0.0
144
0.0
144
0.0
144
0.0
144
0.0208333333333333
144
0.0
144
0.0
144
0.0
144
0.0
144
1.0
144
0.0
144
0.0
144
0.0
144
0.0
144
1.0
147
0.0208333333333333
147
0.0
147
0.0
147
0.0
147
0.0
147
0.0208333333333333
147
0.0
147
0.0
147
0.0
147
0.0
147
1.0
147
0.0
147
0.0
147
0.0
147
0.0
147
1.0
  0
MATERIAL
  5
11
102
{ACAD_XDICTIONARY
360
12
102
}
102
{ACAD_REACTORS
330
10
102
}
330
10
100
AcDbMaterial
  1
ByLayer
 72
     0
 43
0.0208333333333333
 43
0.0
 43
0.0
 43
0.0
 43
0.0
 43
0.0208333333333333
 43
0.0
 43
0.0
 43
0.0
 43
0.0
 43
1.0
 43
0.0
 43
0.0
 43
0.0
 43
0.0
 43
1.0
 77
     0
 47
0.0208333333333333
 47
0.0
 47
0.0
 47
0.0
 47
0.0
 47
0.0208333333333333
 47
0.0
 47
0.0
 47
0.0
 47
0.0
 47
1.0
 47
0.0
 47
0.0
 47
0.0
 47
0.0
 47
1.0
171
     0
 49
0.0208333333333333
 49
0.0
 49
0.0
 49
0.0
 49
0.0
 49
0.0208333333333333
 49
0.0
 49
0.0
 49
0.0
 49
0.0
 49
1.0
 49
0.0
 49
0.0
 49
0.0
 49
0.0
 49
1.0
175
     0
142
0.0208333333333333
142
0.0
142
0.0
142
0.0
142
0.0
142
0.0208333333333333
142
0.0
142
0.0
142
0.0
142
0.0
142
1.0
142
0.0
142
0.0
142
0.0
142
0.0
142
1.0
179
     0
144
0.0208333333333333
144
0.0
144
0.0
144
0.0
144
0.0
144
0.0208333333333333
144
0.0
144
0.0
144
0.0
144
0.0
144
1.0
144
0.0
144
0.0
144
0.0
144
0.0
144
1.0
147
0.0208333333333333
147
0.0
147
0.0
147
0.0
147
0.0
147
0.0208333333333333
147
0.0
147
0.0
147
0.0
147
0.0
147
1.0
147
0.0
147
0.0
147
0.0
147
0.0
147
1.0
  0
MATERIAL
  5
21
102
{ACAD_XDICTIONARY
360
22
102
}
102
{ACAD_REACTORS
330
10
102
}
330
10
100
AcDbMaterial
  1
Global
 72
     0
 43
0.0208333333333333
 43
0.0
 43
0.0
 43
0.0
 43
0.0
 43
0.0208333333333333
 43
0.0
 43
0.0
 43
0.0
 43
0.0
 43
1.0
 43
0.0
 43
0.0
 43
0.0
 43
0.0
 43
1.0
 77
     0
 47
0.0208333333333333
 47
0.0
 47
0.0
 47
0.0
 47
0.0
 47
0.0208333333333333
 47
0.0
 47
0.0
 47
0.0
 47
0.0
 47
1.0
 47
0.0
 47
0.0
 47
0.0
 47
0.0
 47
1.0
171
     0
 49
0.0208333333333333
 49
0.0
 49
0.0
 49
0.0
 49
0.0
 49
0.0208333333333333
 49
0.0
 49
0.0
 49
0.0
 49
0.0
 49
1.0
 49
0.0
 49
0.0
 49
0.0
 49
0.0
 49
1.0
175
     0
142
0.0208333333333333
142
0.0
142
0.0
142
0.0
142
0.0
142
0.0208333333333333
142
0.0
142
0.0
142
0.0
142
0.0
142
1.0
142
0.0
142
0.0
142
0.0
142
0.0
142
1.0
179
     0
144
0.0208333333333333
144
0.0
144
0.0
144
0.0
144
0.0
144
0.0208333333333333
144
0.0
144
0.0
144
0.0
144
0.0
144
1.0
144
0.0
144
0.0
144
0.0
144
0.0
144
1.0
147
0.0208333333333333
147
0.0
147
0.0
147
0.0
147
0.0
147
0.0208333333333333
147
0.0
147
0.0
147
0.0
147
0.0
147
1.0
147
0.0
147
0.0
147
0.0
147
0.0
147
1.0
  0
MLEADERSTYLE
  5
67
102
{ACAD_REACTORS
330
66
102
}
330
66
100
AcDbMLeaderStyle
179
     2
170
     2
171
     1
172
     0
 90
        2
 40
0.0
 41
0.0
173
     1
 91
-1056964608
340
5B
 92
       -2
290
     1
 42
0.09
291
     1
 43
0.36
  3
Standard
 44
0.18
300

342
55
174
     1
178
     6
175
     1
176
     0
 93
-1056964608
 45
0.18
292
     0
297
     0
 46
0.18
 94
-1056964608
 47
1.0
 49
1.0
140
1.0
293
     1
141
0.0
294
     1
177
     0
142
1.0
295
     1
296
     0
143
0.125
271
     0
272
     9
273
     9
298
     1
  0
MLINESTYLE
  5
60
102
{ACAD_REACTORS
330
5F
102
}
330
5F
100
AcDbMlineStyle
  2
STANDARD
 70
     0
  3

 62
   256
 51
90.0
 52
90.0
 71
     2
 49
0.5
 62
   256
  6
BYLAYER
 49
-0.5
 62
   256
  6
BYLAYER
  0
ACDBPLACEHOLDER
  5
F
102
{ACAD_REACTORS
330
E
102
}
330
E
  0
SCALE
  5
43
102
{ACAD_REACTORS
330
42
102
}
330
42
100
AcDbScale
 70
     0
300
1:1
140
1.0
141
1.0
290
     1
  0
SCALE
  5
44
102
{ACAD_REACTORS
330
42
102
}
330
42
100
AcDbScale
 70
     0
300
1/128" = 1'-0"
140
0.0078125
141
12.0
290
     0
  0
SCALE
  5
45
102
{ACAD_REACTORS
330
42
102
}
330
42
100
AcDbScale
 70
     0
300
1/64" = 1'-0"
140
0.015625
141
12.0
290
     0
  0
SCALE
  5
46
102
{ACAD_REACTORS
330
42
102
}
330
42
100
AcDbScale
 70
     0
300
1/32" = 1'-0"
140
0.03125
141
12.0
290
     0
  0
SCALE
  5
47
102
{ACAD_REACTORS
330
42
102
}
330
42
100
AcDbScale
 70
     0
300
1/16" = 1'-0"
140
0.0625
141
12.0
290
     0
  0
SCALE
  5
48
102
{ACAD_REACTORS
330
42
102
}
330
42
100
AcDbScale
 70
     0
300
3/32" = 1'-0"
140
0.09375
141
12.0
290
     0
  0
SCALE
  5
49
102
{ACAD_REACTORS
330
42
102
}
330
42
100
AcDbScale
 70
     0
300
1/8" = 1'-0"
140
0.125
141
12.0
290
     0
  0
SCALE
  5
4A
102
{ACAD_REACTORS
330
42
102
}
330
42
100
AcDbScale
 70
     0
300
3/16" = 1'-0"
140
0.1875
141
12.0
290
     0
  0
SCALE
  5
4B
102
{ACAD_REACTORS
330
42
102
}
330
42
100
AcDbScale
 70
     0
300
1/4" = 1'-0"
140
0.25
141
12.0
290
     0
  0
SCALE
  5
4C
102
{ACAD_REACTORS
330
42
102
}
330
42
100
AcDbScale
 70
     0
300
3/8" = 1'-0"
140
0.375
141
12.0
290
     0
  0
SCALE
  5
4D
102
{ACAD_REACTORS
330
42
102
}
330
42
100
AcDbScale
 70
     0
300
1/2" = 1'-0"
140
0.5
141
12.0
290
     0
  0
SCALE
  5
4E
102
{ACAD_REACTORS
330
42
102
}
330
42
100
AcDbScale
 70
     0
300
3/4" = 1'-0"
140
0.75
141
12.0
290
     0
  0
SCALE
  5
4F
102
{ACAD_REACTORS
330
42
102
}
330
42
100
AcDbScale
 70
     0
300
1" = 1'-0"
140
1.0
141
12.0
290
     0
  0
SCALE
  5
50
102
{ACAD_REACTORS
330
42
102
}
330
42
100
AcDbScale
 70
     0
300
1-1/2" = 1'-0"
140
1.5
141
12.0
290
     0
  0
SCALE
  5
51
102
{ACAD_REACTORS
330
42
102
}
330
42
100
AcDbScale
 70
     0
300
3" = 1'-0"
140
3.0
141
12.0
290
     0
  0
SCALE
  5
52
102
{ACAD_REACTORS
330
42
102
}
330
42
100
AcDbScale
 70
     0
300
6" = 1'-0"
140
6.0
141
12.0
290
     0
  0
SCALE
  5
53
102
{ACAD_REACTORS
330
42
102
}
330
42
100
AcDbScale
 70
     0
300
1'-0" = 1'-0"
140
12.0
141
12.0
290
     0
  0
ACDBSECTIONVIEWSTYLE
  5
69
102
{ACAD_REACTORS
330
68
102
}
330
68
100
AcDbModelDocViewStyle
 70
     0
  3
Imperial24
290
     1
300
Imperial24
 90
        0
100
AcDbSectionViewStyle
 70
     0
 71
     0
 90
       78
 71
     1
340
55
 62
   256
 40
0.24
340
0
340
0
 62
   256
 40
0.24
300
I, O, Q, S, X, Z
 40
0.48
 90
        3
 40
0.18
 90
        1
 71
     2
340
5D
 90
       25
 62
   256
340
5D
 90
       50
 62
   256
 40
0.24
 40
0.0
 40
0.24
 71
     3
340
55
 62
   256
 40
0.24
 90
        1
 40
0.75
 90
        1
300
%<\AcVar ViewType \f "%tc1">% %<\AcVar ViewSectionStartId>%-%<\AcVar ViewSectionEndId>%\PSCALE %<\AcVar ViewScale \f "%sn">%
 71
     4
 62
   256
 62
   257
300
ANSI31
 40
1.0
 90
        0
290
     0
290
     0
 90
        6
 40
0.0
 40
1.570796326794896
 40
0.2617993877991494
 40
1.308996938995747
 40
-0.2617993877991494
 40
1.832595714594046
  0
TABLESTYLE
  5
65
102
{ACAD_XDICTIONARY
360
21B
102
}
102
{ACAD_REACTORS
330
64
102
}
330
64
100
AcDbTableStyle
280
     0
  3
Standard
 70
     0
 71
     0
 40
0.06
 41
0.06
280
     0
281
     0
  7
Standard
140
0.18
170
     2
 62
     0
 63
     7
283
     0
 90
      512
 91
        0
  1

274
    -2
284
     1
 64
     0
275
    -2
285
     1
 65
     0
276
    -2
286
     1
 66
     0
277
    -2
287
     1
 67
     0
278
    -2
288
     1
 68
     0
279
    -2
289
     1
 69
     0
  7
Standard
140
0.25
170
     5
 62
     0
 63
     7
283
     0
 90
      512
 91
        0
  1

274
    -2
284
     1
 64
     0
275
    -2
285
     1
 65
     0
276
    -2
286
     1
 66
     0
277
    -2
287
     1
 67
     0
278
    -2
288
     1
 68
     0
279
    -2
289
     1
 69
     0
  7
Standard
140
0.18
170
     5
 62
     0
 63
     7
283
     0
 90
      512
 91
        0
  1

274
    -2
284
     1
 64
     0
275
    -2
285
     1
 65
     0
276
    -2
286
     1
 66
     0
277
    -2
287
     1
 67
     0
278
    -2
288
     1
 68
     0
279
    -2
289
     1
 69
     0
  0
VISUALSTYLE
  5
2F
102
{ACAD_REACTORS
330
29
102
}
330
29
100
AcDbVisualStyle
  2
2dWireframe
 70
     4
177
     3
291
     0
 70
    58
 90
        0
176
     1
 90
        2
176
     1
 90
        0
176
     1
 90
        0
176
     1
 40
0.6
176
     1
 40
30.0
176
     1
 62
     7
420
 16777215
176
     1
 90
        1
176
     1
 90
        4
176
     1
 62
     7
176
     1
 62
   257
176
     1
 90
        1
176
     1
 90
        1
176
     1
 40
1.0
176
     1
 90
        0
176
     1
 62
   257
176
     1
 40
1.0
176
     1
 90
        1
176
     1
 90
        6
176
     1
 90
        2
176
     1
 62
     7
176
     1
 90
        5
176
     1
 90
        0
176
     1
 90
        0
176
     1
290
     0
176
     1
 90
        1
176
     1
 40
0.0
176
     1
 90
        0
176
     1
290
     1
176
     1
290
     1
176
     1
290
     0
176
     1
290
     0
176
     1
290
     0
176
     1
290
     0
176
     1
290
     0
176
     1
290
     0
176
     1
290
     0
176
     1
 90
       50
176
     1
 40
0.0
176
     1
 40
1.0
176
     1
 90
        0
176
     1
 62
    18
420
        0
176
     1
 90
       50
176
     1
 90
        3
176
     1
 62
     5
420
      255
176
     1
290
     0
176
     1
 90
       50
176
     1
 90
       50
176
     1
 90
       50
176
     1
290
     0
176
     1
 90
       50
176
     1
 62
   256
176
     0
 40
1.0
176
     0
 90
        2
176
     1
  1
strokes_ogs.tif
176
     1
290
     0
176
     1
 40
1.0
176
     1
 40
1.0
176
     1
  0
VISUALSTYLE
  5
2E
102
{ACAD_REACTORS
330
29
102
}
330
29
100
AcDbVisualStyle
  2
Basic
 70
     7
177
     3
291
     1
 70
    58
 90
        1
176
     1
 90
        0
176
     1
 90
        1
176
     1
 90
        0
176
     1
 40
0.6
176
     1
 40
30.0
176
     1
 62
     7
420
 16777215
176
     1
 90
        0
176
     1
 90
        4
176
     1
 62
     7
176
     1
 62
   257
176
     1
 90
        1
176
     1
 90
        1
176
     1
 40
1.0
176
     1
 90
        8
176
     1
 62
     7
176
     1
 40
1.0
176
     1
 90
        1
176
     1
 90
        6
176
     1
 90
        2
176
     1
 62
     7
176
     1
 90
        5
176
     1
 90
        0
176
     1
 90
        0
176
     1
290
     0
176
     1
 90
        1
176
     1
 40
0.0
176
     1
 90
        0
176
     1
290
     0
176
     1
290
     1
176
     1
290
     1
176
     1
290
     0
176
     1
290
     0
176
     1
290
     0
176
     1
290
     0
176
     1
290
     0
176
     1
290
     0
176
     1
 90
       50
176
     1
 40
0.0
176
     1
 40
1.0
176
     1
 90
        0
176
     1
 62
    18
420
        0
176
     1
 90
       50
176
     1
 90
        3
176
     1
 62
     5
420
      255
176
     1
290
     0
176
     1
 90
       50
176
     1
 90
       50
176
     1
 90
       50
176
     1
290
     0
176
     1
 90
       50
176
     1
 62
   256
176
     0
 40
1.0
176
     0
 90
        2
176
     1
  1
strokes_ogs.tif
176
     1
290
     0
176
     1
 40
1.0
176
     1
 40
1.0
176
     1
  0
VISUALSTYLE
  5
35
102
{ACAD_REACTORS
330
29
102
}
330
29
100
AcDbVisualStyle
  2
Brighten
 70
    12
177
     3
291
     1
 70
    58
 90
        2
176
     1
 90
        2
176
     1
 90
        0
176
     1
 90
        0
176
     1
 40
0.6
176
     1
 40
30.0
176
     1
 62
     7
420
 16777215
176
     1
 90
        1
176
     1
 90
        4
176
     1
 62
     7
176
     1
 62
   257
176
     1
 90
        1
176
     1
 90
        1
176
     1
 40
1.0
176
     1
 90
        8
176
     1
 62
     7
176
     1
 40
1.0
176
     1
 90
        1
176
     1
 90
        6
176
     1
 90
        2
176
     1
 62
     7
176
     1
 90
        5
176
     1
 90
        0
176
     1
 90
        0
176
     1
290
     0
176
     1
 90
        1
176
     1
 40
50.0
176
     1
 90
        0
176
     1
290
     0
176
     1
290
     1
176
     1
290
     1
176
     1
290
     0
176
     1
290
     0
176
     1
290
     0
176
     1
290
     0
176
     1
290
     0
176
     1
290
     0
176
     1
 90
       50
176
     1
 40
0.0
176
     1
 40
1.0
176
     1
 90
        0
176
     1
 62
    18
420
        0
176
     1
 90
       50
176
     1
 90
        3
176
     1
 62
     5
420
      255
176
     1
290
     0
176
     1
 90
       50
176
     1
 90
       50
176
     1
 90
       50
176
     1
290
     0
176
     1
 90
       50
176
     1
 62
   256
176
     0
 40
1.0
176
     0
 90
        2
176
     1
  1
strokes_ogs.tif
176
     1
290
     0
176
     1
 40
1.0
176
     1
 40
1.0
176
     1
  0
VISUALSTYLE
  5
39
102
{ACAD_REACTORS
330
29
102
}
330
29
100
AcDbVisualStyle
  2
ColorChange
 70
    16
177
     3
291
     1
 70
    58
 90
        2
176
     1
 90
        2
176
     1
 90
        3
176
     1
 90
        0
176
     1
 40
0.6
176
     1
 40
30.0
176
     1
 62
     8
420
  8421504
176
     1
 90
        1
176
     1
 90
        4
176
     1
 62
     7
176
     1
 62
   257
176
     1
 90
        1
176
     1
 90
        1
176
     1
 40
1.0
176
     1
 90
        8
176
     1
 62
     8
420
  8421504
176
     1
 40
1.0
176
     1
 90
        1
176
     1
 90
        6
176
     1
 90
        2
176
     1
 62
     7
176
     1
 90
        5
176
     1
 90
        0
176
     1
 90
        0
176
     1
290
     0
176
     1
 90
        1
176
     1
 40
0.0
176
     1
 90
        0
176
     1
290
     0
176
     1
290
     1
176
     1
290
     1
176
     1
290
     0
176
     1
290
     0
176
     1
290
     0
176
     1
290
     0
176
     1
290
     0
176
     1
290
     0
176
     1
 90
       50
176
     1
 40
0.0
176
     1
 40
1.0
176
     1
 90
        0
176
     1
 62
    18
420
        0
176
     1
 90
       50
176
     1
 90
        3
176
     1
 62
     5
420
      255
176
     1
290
     0
176
     1
 90
       50
176
     1
 90
       50
176
     1
 90
       50
176
     1
290
     0
176
     1
 90
       50
176
     1
 62
   256
176
     0
 40
1.0
176
     0
 90
        2
176
     1
  1
strokes_ogs.tif
176
     1
290
     0
176
     1
 40
1.0
176
     1
 40
1.0
176
     1
  0
VISUALSTYLE
  5
32
102
{ACAD_REACTORS
330
29
102
}
330
29
100
AcDbVisualStyle
  2
Conceptual
 70
     9
177
     3
291
     0
 70
    58
 90
        3
176
     1
 90
        2
176
     1
 90
        0
176
     1
 90
        0
176
     1
 40
0.6
176
     1
 40
30.0
176
     1
 62
     7
420
 16777215
176
     1
 90
        2
176
     1
 90
        2
176
     1
 62
     7
176
     1
 62
   257
176
     1
 90
        1
176
     1
 90
        1
176
     1
 40
179.0
176
     1
 90
        8
176
     1
 62
     7
176
     1
 40
1.0
176
     1
 90
        1
176
     1
 90
        6
176
     1
 90
        2
176
     1
 62
     7
176
     1
 90
        3
176
     1
 90
        0
176
     1
 90
        0
176
     1
290
     0
176
     1
 90
        1
176
     1
 40
0.0
176
     1
 90
        0
176
     1
290
     0
176
     1
290
     1
176
     1
290
     1
176
     1
290
     0
176
     1
290
     0
176
     1
290
     0
176
     1
290
     0
176
     1
290
     0
176
     1
290
     0
176
     1
 90
       50
176
     1
 40
0.0
176
     1
 40
1.0
176
     1
 90
        0
176
     1
 62
    18
420
        0
176
     1
 90
       50
176
     1
 90
        3
176
     1
 62
     5
420
      255
176
     1
290
     0
176
     1
 90
       50
176
     1
 90
       50
176
     1
 90
       50
176
     1
290
     0
176
     1
 90
       50
176
     1
 62
   256
176
     0
 40
1.0
176
     0
 90
        2
176
     1
  1
strokes_ogs.tif
176
     1
290
     0
176
     1
 40
1.0
176
     1
 40
1.0
176
     1
  0
VISUALSTYLE
  5
34
102
{ACAD_REACTORS
330
29
102
}
330
29
100
AcDbVisualStyle
  2
Dim
 70
    11
177
     3
291
     1
 70
    58
 90
        2
176
     1
 90
        2
176
     1
 90
        0
176
     1
 90
        0
176
     1
 40
0.6
176
     1
 40
30.0
176
     1
 62
     7
420
 16777215
176
     1
 90
        1
176
     1
 90
        4
176
     1
 62
     7
176
     1
 62
   257
176
     1
 90
        1
176
     1
 90
        1
176
     1
 40
1.0
176
     1
 90
        8
176
     1
 62
     7
176
     1
 40
1.0
176
     1
 90
        1
176
     1
 90
        6
176
     1
 90
        2
176
     1
 62
     7
176
     1
 90
        5
176
     1
 90
        0
176
     1
 90
        0
176
     1
290
     0
176
     1
 90
        1
176
     1
 40
-50.0
176
     1
 90
        0
176
     1
290
     0
176
     1
290
     1
176
     1
290
     1
176
     1
290
     0
176
     1
290
     0
176
     1
290
     0
176
     1
290
     0
176
     1
290
     0
176
     1
290
     0
176
     1
 90
       50
176
     1
 40
0.0
176
     1
 40
1.0
176
     1
 90
        0
176
     1
 62
    18
420
        0
176
     1
 90
       50
176
     1
 90
        3
176
     1
 62
     5
420
      255
176
     1
290
     0
176
     1
 90
       50
176
     1
 90
       50
176
     1
 90
       50
176
     1
290
     0
176
     1
 90
       50
176
     1
 62
   256
176
     0
 40
1.0
176
     0
 90
        2
176
     1
  1
strokes_ogs.tif
176
     1
290
     0
176
     1
 40
1.0
176
     1
 40
1.0
176
     1
  0
VISUALSTYLE
  5
41
102
{ACAD_REACTORS
330
29
102
}
330
29
100
AcDbVisualStyle
  2
EdgeColorOff
 70
    22
177
     3
291
     1
 70
    58
 90
        2
176
     0
 90
        2
176
     0
 90
        0
176
     0
 90
        0
176
     0
 40
0.6
176
     0
 40
30.0
176
     0
 62
     7
420
 16777215
176
     0
 90
        1
176
     0
 90
        4
176
     0
 62
     7
176
     0
 62
   257
176
     0
 90
        1
176
     0
 90
        1
176
     0
 40
1.0
176
     0
 90
        8
176
     2
 62
     7
176
     0
 40
1.0
176
     0
 90
        1
176
     0
 90
        6
176
     0
 90
        2
176
     0
 62
     7
176
     0
 90
        5
176
     0
 90
        0
176
     0
 90
        0
176
     0
290
     0
176
     0
 90
        1
176
     0
 40
0.0
176
     0
 90
        0
176
     0
290
     0
176
     0
290
     1
176
     0
290
     1
176
     0
290
     0
176
     0
290
     0
176
     0
290
     0
176
     0
290
     0
176
     0
290
     0
176
     0
290
     0
176
     0
 90
       50
176
     0
 40
0.0
176
     0
 40
1.0
176
     0
 90
        0
176
     0
 62
    18
420
        0
176
     0
 90
       50
176
     0
 90
        3
176
     0
 62
     5
420
      255
176
     0
290
     0
176
     0
 90
       50
176
     0
 90
       50
176
     0
 90
       50
176
     0
290
     0
176
     0
 90
       50
176
     0
 62
   256
176
     0
 40
1.0
176
     0
 90
        2
176
     0
  1
strokes_ogs.tif
176
     0
290
     0
176
     0
 40
1.0
176
     0
 40
1.0
176
     0
  0
VISUALSTYLE
  5
38
102
{ACAD_REACTORS
330
29
102
}
330
29
100
AcDbVisualStyle
  2
Facepattern
 70
    15
177
     3
291
     1
 70
    58
 90
        2
176
     1
 90
        2
176
     1
 90
        0
176
     1
 90
        0
176
     1
 40
0.6
176
     1
 40
30.0
176
     1
 62
     7
420
 16777215
176
     1
 90
        1
176
     1
 90
        4
176
     1
 62
     7
176
     1
 62
   257
176
     1
 90
        1
176
     1
 90
        1
176
     1
 40
1.0
176
     1
 90
        8
176
     1
 62
     7
176
     1
 40
1.0
176
     1
 90
        1
176
     1
 90
        6
176
     1
 90
        2
176
     1
 62
     7
176
     1
 90
        5
176
     1
 90
        0
176
     1
 90
        0
176
     1
290
     0
176
     1
 90
        1
176
     1
 40
0.0
176
     1
 90
        0
176
     1
290
     0
176
     1
290
     1
176
     1
290
     1
176
     1
290
     0
176
     1
290
     0
176
     1
290
     0
176
     1
290
     0
176
     1
290
     0
176
     1
290
     0
176
     1
 90
       50
176
     1
 40
0.0
176
     1
 40
1.0
176
     1
 90
        0
176
     1
 62
    18
420
        0
176
     1
 90
       50
176
     1
 90
        3
176
     1
 62
     5
420
      255
176
     1
290
     0
176
     1
 90
       50
176
     1
 90
       50
176
     1
 90
       50
176
     1
290
     0
176
     1
 90
       50
176
     1
 62
   256
176
     0
 40
1.0
176
     0
 90
        2
176
     1
  1
strokes_ogs.tif
176
     1
290
     0
176
     1
 40
1.0
176
     1
 40
1.0
176
     1
  0
VISUALSTYLE
  5
2A
102
{ACAD_REACTORS
330
29
102
}
330
29
100
AcDbVisualStyle
  2
Flat
 70
     0
177
     3
291
     1
 70
    58
 90
        2
176
     1
 90
        1
176
     1
 90
        1
176
     1
 90
        2
176
     1
 40
0.6
176
     1
 40
30.0
176
     1
 62
     7
420
 16777215
176
     1
 90
        0
176
     1
 90
        0
176
     1
 62
     7
176
     1
 62
   257
176
     1
 90
        1
176
     1
 90
        1
176
     1
 40
1.0
176
     1
 90
        8
176
     1
 62
     7
176
     1
 40
1.0
176
     1
 90
        1
176
     1
 90
        6
176
     1
 90
        2
176
     1
 62
     7
176
     1
 90
        5
176
     1
 90
        0
176
     1
 90
        0
176
     1
290
     0
176
     1
 90
       13
176
     1
 40
0.0
176
     1
 90
        0
176
     1
290
     0
176
     1
290
     1
176
     1
290
     1
176
     1
290
     0
176
     1
290
     0
176
     1
290
     0
176
     1
290
     0
176
     1
290
     0
176
     1
290
     0
176
     1
 90
       50
176
     1
 40
0.0
176
     1
 40
1.0
176
     1
 90
        0
176
     1
 62
    18
420
        0
176
     1
 90
       50
176
     1
 90
        3
176
     1
 62
     5
420
      255
176
     1
290
     0
176
     1
 90
       50
176
     1
 90
       50
176
     1
 90
       50
176
     1
290
     0
176
     1
 90
       50
176
     1
 62
   256
176
     0
 40
1.0
176
     0
 90
        2
176
     1
  1
strokes_ogs.tif
176
     1
290
     0
176
     1
 40
1.0
176
     1
 40
1.0
176
     1
  0
VISUALSTYLE
  5
2B
102
{ACAD_REACTORS
330
29
102
}
330
29
100
AcDbVisualStyle
  2
FlatWithEdges
 70
     1
177
     3
291
     1
 70
    58
 90
        2
176
     1
 90
        1
176
     1
 90
        1
176
     1
 90
        2
176
     1
 40
0.6
176
     1
 40
30.0
176
     1
 62
     7
420
 16777215
176
     1
 90
        1
176
     1
 90
        0
176
     1
 62
     7
176
     1
 62
   257
176
     1
 90
        1
176
     1
 90
        1
176
     1
 40
1.0
176
     1
 90
        0
176
     1
 62
   257
176
     1
 40
1.0
176
     1
 90
        1
176
     1
 90
        6
176
     1
 90
        2
176
     1
 62
     7
176
     1
 90
        5
176
     1
 90
        0
176
     1
 90
        0
176
     1
290
     0
176
     1
 90
       13
176
     1
 40
0.0
176
     1
 90
        0
176
     1
290
     0
176
     1
290
     1
176
     1
290
     1
176
     1
290
     0
176
     1
290
     0
176
     1
290
     0
176
     1
290
     0
176
     1
290
     0
176
     1
290
     0
176
     1
 90
       50
176
     1
 40
0.0
176
     1
 40
1.0
176
     1
 90
        0
176
     1
 62
    18
420
        0
176
     1
 90
       50
176
     1
 90
        3
176
     1
 62
     5
420
      255
176
     1
290
     0
176
     1
 90
       50
176
     1
 90
       50
176
     1
 90
       50
176
     1
290
     0
176
     1
 90
       50
176
     1
 62
   256
176
     0
 40
1.0
176
     0
 90
        2
176
     1
  1
strokes_ogs.tif
176
     1
290
     0
176
     1
 40
1.0
176
     1
 40
1.0
176
     1
  0
VISUALSTYLE
  5
2C
102
{ACAD_REACTORS
330
29
102
}
330
29
100
AcDbVisualStyle
  2
Gouraud
 70
     2
177
     3
291
     1
 70
    58
 90
        2
176
     1
 90
        2
176
     1
 90
        1
176
     1
 90
        2
176
     1
 40
0.6
176
     1
 40
30.0
176
     1
 62
     7
420
 16777215
176
     1
 90
        0
176
     1
 90
        0
176
     1
 62
     7
176
     1
 62
   257
176
     1
 90
        1
176
     1
 90
        1
176
     1
 40
1.0
176
     1
 90
        0
176
     1
 62
     7
176
     1
 40
1.0
176
     1
 90
        1
176
     1
 90
        6
176
     1
 90
        2
176
     1
 62
     7
176
     1
 90
        5
176
     1
 90
        0
176
     1
 90
        0
176
     1
290
     0
176
     1
 90
       13
176
     1
 40
0.0
176
     1
 90
        0
176
     1
290
     0
176
     1
290
     1
176
     1
290
     1
176
     1
290
     0
176
     1
290
     0
176
     1
290
     0
176
     1
290
     0
176
     1
290
     0
176
     1
290
     0
176
     1
 90
       50
176
     1
 40
0.0
176
     1
 40
1.0
176
     1
 90
        0
176
     1
 62
    18
420
        0
176
     1
 90
       50
176
     1
 90
        3
176
     1
 62
     5
420
      255
176
     1
290
     0
176
     1
 90
       50
176
     1
 90
       50
176
     1
 90
       50
176
     1
290
     0
176
     1
 90
       50
176
     1
 62
   256
176
     0
 40
1.0
176
     0
 90
        2
176
     1
  1
strokes_ogs.tif
176
     1
290
     0
176
     1
 40
1.0
176
     1
 40
1.0
176
     1
  0
VISUALSTYLE
  5
2D
102
{ACAD_REACTORS
330
29
102
}
330
29
100
AcDbVisualStyle
  2
GouraudWithEdges
 70
     3
177
     3
291
     1
 70
    58
 90
        2
176
     1
 90
        2
176
     1
 90
        1
176
     1
 90
        2
176
     1
 40
0.6
176
     1
 40
30.0
176
     1
 62
     7
420
 16777215
176
     1
 90
        1
176
     1
 90
        0
176
     1
 62
     7
176
     1
 62
   257
176
     1
 90
        1
176
     1
 90
        1
176
     1
 40
1.0
176
     1
 90
        0
176
     1
 62
   257
176
     1
 40
1.0
176
     1
 90
        1
176
     1
 90
        6
176
     1
 90
        2
176
     1
 62
     7
176
     1
 90
        5
176
     1
 90
        0
176
     1
 90
        0
176
     1
290
     0
176
     1
 90
       13
176
     1
 40
0.0
176
     1
 90
        0
176
     1
290
     0
176
     1
290
     1
176
     1
290
     1
176
     1
290
     0
176
     1
290
     0
176
     1
290
     0
176
     1
290
     0
176
     1
290
     0
176
     1
290
     0
176
     1
 90
       50
176
     1
 40
0.0
176
     1
 40
1.0
176
     1
 90
        0
176
     1
 62
    18
420
        0
176
     1
 90
       50
176
     1
 90
        3
176
     1
 62
     5
420
      255
176
     1
290
     0
176
     1
 90
       50
176
     1
 90
       50
176
     1
 90
       50
176
     1
290
     0
176
     1
 90
       50
176
     1
 62
   256
176
     0
 40
1.0
176
     0
 90
        2
176
     1
  1
strokes_ogs.tif
176
     1
290
     0
176
     1
 40
1.0
176
     1
 40
1.0
176
     1
  0
VISUALSTYLE
  5
31
102
{ACAD_REACTORS
330
29
102
}
330
29
100
AcDbVisualStyle
  2
Hidden
 70
     6
177
     3
291
     0
 70
    58
 90
        1
176
     1
 90
        2
176
     1
 90
        2
176
     1
 90
        0
176
     1
 40
0.6
176
     1
 40
30.0
176
     1
 62
     7
420
 16777215
176
     1
 90
        2
176
     1
 90
        2
176
     1
 62
     7
176
     1
 62
   257
176
     1
 90
        2
176
     1
 90
        1
176
     1
 40
40.0
176
     1
 90
        0
176
     1
 62
   257
176
     1
 40
1.0
176
     1
 90
        1
176
     1
 90
        6
176
     1
 90
        2
176
     1
 62
     7
176
     1
 90
        3
176
     1
 90
        0
176
     1
 90
        0
176
     1
290
     0
176
     1
 90
        1
176
     1
 40
0.0
176
     1
 90
        0
176
     1
290
     0
176
     1
290
     1
176
     1
290
     1
176
     1
290
     0
176
     1
290
     0
176
     1
290
     0
176
     1
290
     0
176
     1
290
     0
176
     1
290
     0
176
     1
 90
       50
176
     1
 40
0.0
176
     1
 40
1.0
176
     1
 90
        0
176
     1
 62
    18
420
        0
176
     1
 90
       50
176
     1
 90
        3
176
     1
 62
     5
420
      255
176
     1
290
     0
176
     1
 90
       50
176
     1
 90
       50
176
     1
 90
       50
176
     1
290
     0
176
     1
 90
       50
176
     1
 62
   256
176
     0
 40
1.0
176
     0
 90
        2
176
     1
  1
strokes_ogs.tif
176
     1
290
     0
176
     1
 40
1.0
176
     1
 40
1.0
176
     1
  0
VISUALSTYLE
  5
3F
102
{ACAD_REACTORS
330
29
102
}
330
29
100
AcDbVisualStyle
  2
JitterOff
 70
    20
177
     3
291
     1
 70
    58
 90
        2
176
     0
 90
        2
176
     0
 90
        0
176
     0
 90
        0
176
     0
 40
0.6
176
     0
 40
30.0
176
     0
 62
     7
420
 16777215
176
     0
 90
        1
176
     0
 90
        4
176
     0
 62
     7
176
     0
 62
   257
176
     0
 90
        1
176
     0
 90
        1
176
     0
 40
1.0
176
     0
 90
       10
176
     2
 62
     7
176
     0
 40
1.0
176
     0
 90
        1
176
     0
 90
        6
176
     0
 90
        2
176
     0
 62
     7
176
     0
 90
        5
176
     0
 90
        0
176
     0
 90
        0
176
     0
290
     0
176
     0
 90
        1
176
     0
 40
0.0
176
     0
 90
        0
176
     0
290
     0
176
     0
290
     1
176
     0
290
     1
176
     0
290
     0
176
     0
290
     0
176
     0
290
     0
176
     0
290
     0
176
     0
290
     0
176
     0
290
     0
176
     0
 90
       50
176
     0
 40
0.0
176
     0
 40
1.0
176
     0
 90
        0
176
     0
 62
    18
420
        0
176
     0
 90
       50
176
     0
 90
        3
176
     0
 62
     5
420
      255
176
     0
290
     0
176
     0
 90
       50
176
     0
 90
       50
176
     0
 90
       50
176
     0
290
     0
176
     0
 90
       50
176
     0
 62
   256
176
     0
 40
1.0
176
     0
 90
        2
176
     0
  1
strokes_ogs.tif
176
     0
290
     0
176
     0
 40
1.0
176
     0
 40
1.0
176
     0
  0
VISUALSTYLE
  5
37
102
{ACAD_REACTORS
330
29
102
}
330
29
100
AcDbVisualStyle
  2
Linepattern
 70
    14
177
     3
291
     1
 70
    58
 90
        2
176
     1
 90
        2
176
     1
 90
        0
176
     1
 90
        0
176
     1
 40
0.6
176
     1
 40
30.0
176
     1
 62
     7
420
 16777215
176
     1
 90
        1
176
     1
 90
        4
176
     1
 62
     7
176
     1
 62
   257
176
     1
 90
        7
176
     1
 90
        7
176
     1
 40
1.0
176
     1
 90
        8
176
     1
 62
     7
176
     1
 40
1.0
176
     1
 90
        1
176
     1
 90
        6
176
     1
 90
        2
176
     1
 62
     7
176
     1
 90
        5
176
     1
 90
        0
176
     1
 90
        0
176
     1
290
     0
176
     1
 90
        1
176
     1
 40
0.0
176
     1
 90
        0
176
     1
290
     0
176
     1
290
     1
176
     1
290
     1
176
     1
290
     0
176
     1
290
     0
176
     1
290
     0
176
     1
290
     0
176
     1
290
     0
176
     1
290
     0
176
     1
 90
       50
176
     1
 40
0.0
176
     1
 40
1.0
176
     1
 90
        0
176
     1
 62
    18
420
        0
176
     1
 90
       50
176
     1
 90
        3
176
     1
 62
     5
420
      255
176
     1
290
     0
176
     1
 90
       50
176
     1
 90
       50
176
     1
 90
       50
176
     1
290
     0
176
     1
 90
       50
176
     1
 62
   256
176
     0
 40
1.0
176
     0
 90
        2
176
     1
  1
strokes_ogs.tif
176
     1
290
     0
176
     1
 40
1.0
176
     1
 40
1.0
176
     1
  0
VISUALSTYLE
  5
40
102
{ACAD_REACTORS
330
29
102
}
330
29
100
AcDbVisualStyle
  2
OverhangOff
 70
    21
177
     3
291
     1
 70
    58
 90
        2
176
     0
 90
        2
176
     0
 90
        0
176
     0
 90
        0
176
     0
 40
0.6
176
     0
 40
30.0
176
     0
 62
     7
420
 16777215
176
     0
 90
        1
176
     0
 90
        4
176
     0
 62
     7
176
     0
 62
   257
176
     0
 90
        1
176
     0
 90
        1
176
     0
 40
1.0
176
     0
 90
        9
176
     2
 62
     7
176
     0
 40
1.0
176
     0
 90
        1
176
     0
 90
        6
176
     0
 90
        2
176
     0
 62
     7
176
     0
 90
        5
176
     0
 90
        0
176
     0
 90
        0
176
     0
290
     0
176
     0
 90
        1
176
     0
 40
0.0
176
     0
 90
        0
176
     0
290
     0
176
     0
290
     1
176
     0
290
     1
176
     0
290
     0
176
     0
290
     0
176
     0
290
     0
176
     0
290
     0
176
     0
290
     0
176
     0
290
     0
176
     0
 90
       50
176
     0
 40
0.0
176
     0
 40
1.0
176
     0
 90
        0
176
     0
 62
    18
420
        0
176
     0
 90
       50
176
     0
 90
        3
176
     0
 62
     5
420
      255
176
     0
290
     0
176
     0
 90
       50
176
     0
 90
       50
176
     0
 90
       50
176
     0
290
     0
176
     0
 90
       50
176
     0
 62
   256
176
     0
 40
1.0
176
     0
 90
        2
176
     0
  1
strokes_ogs.tif
176
     0
290
     0
176
     0
 40
1.0
176
     0
 40
1.0
176
     0
  0
VISUALSTYLE
  5
33
102
{ACAD_REACTORS
330
29
102
}
330
29
100
AcDbVisualStyle
  2
Realistic
 70
     8
177
     3
291
     0
 70
    58
 90
        2
176
     1
 90
        3
176
     1
 90
        0
176
     1
 90
        2
176
     1
 40
0.6
176
     1
 40
30.0
176
     1
 62
     7
420
 16777215
176
     1
 90
        0
176
     1
 90
        0
176
     1
 62
     7
176
     1
 62
   257
176
     1
 90
        1
176
     1
 90
        1
176
     1
 40
1.0
176
     1
 90
        8
176
     1
 62
   257
176
     1
 40
1.0
176
     1
 90
        1
176
     1
 90
        6
176
     1
 90
        2
176
     1
 62
     7
176
     1
 90
        3
176
     1
 90
        0
176
     1
 90
        0
176
     1
290
     0
176
     1
 90
       13
176
     1
 40
0.0
176
     1
 90
        0
176
     1
290
     0
176
     1
290
     1
176
     1
290
     1
176
     1
290
     0
176
     1
290
     0
176
     1
290
     0
176
     1
290
     0
176
     1
290
     0
176
     1
290
     0
176
     1
 90
       50
176
     1
 40
0.0
176
     1
 40
1.0
176
     1
 90
        0
176
     1
 62
    18
420
        0
176
     1
 90
       50
176
     1
 90
        3
176
     1
 62
     5
420
      255
176
     1
290
     0
176
     1
 90
       50
176
     1
 90
       50
176
     1
 90
       50
176
     1
290
     0
176
     1
 90
       50
176
     1
 62
   256
176
     0
 40
1.0
176
     0
 90
        2
176
     1
  1
strokes_ogs.tif
176
     1
290
     0
176
     1
 40
1.0
176
     1
 40
1.0
176
     1
  0
VISUALSTYLE
  5
3E
102
{ACAD_REACTORS
330
29
102
}
330
29
100
AcDbVisualStyle
  2
Shaded
 70
    27
177
     3
291
     0
 70
    58
 90
        2
176
     1
 90
        2
176
     1
 90
        1
176
     1
 90
        2
176
     1
 40
0.6
176
     1
 40
30.0
176
     1
 62
     7
420
 16777215
176
     1
 90
        0
176
     1
 90
        4
176
     1
 62
     7
176
     1
 62
   257
176
     1
 90
        1
176
     1
 90
        1
176
     1
 40
1.0
176
     1
 90
        8
176
     1
 62
   257
176
     1
 40
1.0
176
     1
 90
        1
176
     1
 90
        6
176
     1
 90
        2
176
     1
 62
     8
420
  7895160
176
     1
 90
        3
176
     1
 90
        0
176
     1
 90
        0
176
     1
290
     0
176
     1
 90
        5
176
     1
 40
0.0
176
     1
 90
        0
176
     1
290
     0
176
     1
290
     1
176
     1
290
     1
176
     1
290
     0
176
     1
290
     0
176
     1
290
     0
176
     1
290
     0
176
     1
290
     0
176
     1
290
     0
176
     1
 90
       50
176
     1
 40
0.0
176
     1
 40
1.0
176
     1
 90
        0
176
     1
 62
    18
420
        0
176
     1
 90
       50
176
     1
 90
        3
176
     1
 62
     5
420
      255
176
     1
290
     0
176
     1
 90
       50
176
     1
 90
       50
176
     1
 90
       50
176
     1
290
     0
176
     1
 90
       50
176
     1
 62
   256
176
     0
 40
1.0
176
     0
 90
        2
176
     1
  1
strokes_ogs.tif
176
     1
290
     0
176
     1
 40
1.0
176
     1
 40
1.0
176
     1
  0
VISUALSTYLE
  5
3D
102
{ACAD_REACTORS
330
29
102
}
330
29
100
AcDbVisualStyle
  2
Shaded with edges
 70
    26
177
     3
291
     0
 70
    58
 90
        2
176
     1
 90
        2
176
     1
 90
        1
176
     1
 90
        2
176
     1
 40
0.6
176
     1
 40
30.0
176
     1
 62
     7
420
 16777215
176
     1
 90
        1
176
     1
 90
        2
176
     1
 62
     7
176
     1
 62
   257
176
     1
 90
        2
176
     1
 90
        1
176
     1
 40
1.0
176
     1
 90
        8
176
     1
 62
   257
176
     1
 40
1.0
176
     1
 90
        1
176
     1
 90
        6
176
     1
 90
        2
176
     1
 62
     7
176
     1
 90
        3
176
     1
 90
        0
176
     1
 90
        0
176
     1
290
     0
176
     1
 90
        5
176
     1
 40
0.0
176
     1
 90
        0
176
     1
290
     0
176
     1
290
     1
176
     1
290
     1
176
     1
290
     0
176
     1
290
     0
176
     1
290
     0
176
     1
290
     0
176
     1
290
     0
176
     1
290
     0
176
     1
 90
       50
176
     1
 40
0.0
176
     1
 40
1.0
176
     1
 90
        0
176
     1
 62
    18
420
        0
176
     1
 90
       50
176
     1
 90
        3
176
     1
 62
     5
420
      255
176
     1
290
     0
176
     1
 90
       50
176
     1
 90
       50
176
     1
 90
       50
176
     1
290
     0
176
     1
 90
       50
176
     1
 62
   256
176
     0
 40
1.0
176
     0
 90
        2
176
     1
  1
strokes_ogs.tif
176
     1
290
     0
176
     1
 40
1.0
176
     1
 40
1.0
176
     1
  0
VISUALSTYLE
  5
3A
102
{ACAD_REACTORS
330
29
102
}
330
29
100
AcDbVisualStyle
  2
Shades of Gray
 70
    23
177
     3
291
     0
 70
    58
 90
        2
176
     1
 90
        2
176
     1
 90
        3
176
     1
 90
        0
176
     1
 40
0.6
176
     1
 40
30.0
176
     1
 62
     7
420
 16777215
176
     1
 90
        2
176
     1
 90
        2
176
     1
 62
     7
176
     1
 62
     7
176
     1
 90
        1
176
     1
 90
        1
176
     1
 40
40.0
176
     1
 90
        8
176
     1
 62
     7
176
     1
 40
1.0
176
     1
 90
        1
176
     1
 90
        6
176
     1
 90
        2
176
     1
 62
     7
176
     1
 90
        3
176
     1
 90
        0
176
     1
 90
        0
176
     1
290
     0
176
     1
 90
        1
176
     1
 40
0.0
176
     1
 90
        0
176
     1
290
     0
176
     1
290
     1
176
     1
290
     1
176
     1
290
     0
176
     1
290
     0
176
     1
290
     0
176
     1
290
     0
176
     1
290
     0
176
     1
290
     0
176
     1
 90
       50
176
     1
 40
0.0
176
     1
 40
1.0
176
     1
 90
        0
176
     1
 62
    18
420
        0
176
     1
 90
       50
176
     1
 90
        3
176
     1
 62
     5
420
      255
176
     1
290
     0
176
     1
 90
       50
176
     1
 90
       50
176
     1
 90
       50
176
     1
290
     0
176
     1
 90
       50
176
     1
 62
   256
176
     0
 40
1.0
176
     0
 90
        2
176
     1
  1
strokes_ogs.tif
176
     1
290
     0
176
     1
 40
1.0
176
     1
 40
1.0
176
     1
  0
VISUALSTYLE
  5
3B
102
{ACAD_REACTORS
330
29
102
}
330
29
100
AcDbVisualStyle
  2
Sketchy
 70
    24
177
     3
291
     0
 70
    58
 90
        1
176
     1
 90
        2
176
     1
 90
        2
176
     1
 90
        0
176
     1
 40
0.6
176
     1
 40
30.0
176
     1
 62
     7
420
 16777215
176
     1
 90
        2
176
     1
 90
        2
176
     1
 62
     7
176
     1
 62
     7
176
     1
 90
        1
176
     1
 90
        1
176
     1
 40
40.0
176
     1
 90
       11
176
     1
 62
     7
176
     1
 40
1.0
176
     1
 90
        1
176
     1
 90
        6
176
     1
 90
        2
176
     1
 62
     7
176
     1
 90
        6
176
     1
 90
        0
176
     1
 90
        0
176
     1
290
     0
176
     1
 90
        1
176
     1
 40
0.0
176
     1
 90
        0
176
     1
290
     0
176
     1
290
     1
176
     1
290
     1
176
     1
290
     0
176
     1
290
     0
176
     1
290
     0
176
     1
290
     0
176
     1
290
     0
176
     1
290
     0
176
     1
 90
       50
176
     1
 40
0.0
176
     1
 40
1.0
176
     1
 90
        0
176
     1
 62
    18
420
        0
176
     1
 90
       50
176
     1
 90
        3
176
     1
 62
     5
420
      255
176
     1
290
     0
176
     1
 90
       50
176
     1
 90
       50
176
     1
 90
       50
176
     1
290
     0
176
     1
 90
       50
176
     1
 62
   256
176
     0
 40
1.0
176
     0
 90
        2
176
     1
  1
strokes_ogs.tif
176
     1
290
     0
176
     1
 40
1.0
176
     1
 40
1.0
176
     1
  0
VISUALSTYLE
  5
36
102
{ACAD_REACTORS
330
29
102
}
330
29
100
AcDbVisualStyle
  2
Thicken
 70
    13
177
     3
291
     1
 70
    58
 90
        2
176
     1
 90
        2
176
     1
 90
        0
176
     1
 90
        0
176
     1
 40
0.6
176
     1
 40
30.0
176
     1
 62
     7
420
 16777215
176
     1
 90
        1
176
     1
 90
        4
176
     1
 62
     7
176
     1
 62
   257
176
     1
 90
        1
176
     1
 90
        1
176
     1
 40
1.0
176
     1
 90
       12
176
     1
 62
     7
176
     1
 40
1.0
176
     1
 90
        1
176
     1
 90
        6
176
     1
 90
        2
176
     1
 62
     7
176
     1
 90
        5
176
     1
 90
        0
176
     1
 90
        0
176
     1
290
     0
176
     1
 90
        1
176
     1
 40
0.0
176
     1
 90
        0
176
     1
290
     0
176
     1
290
     1
176
     1
290
     1
176
     1
290
     0
176
     1
290
     0
176
     1
290
     0
176
     1
290
     0
176
     1
290
     0
176
     1
290
     0
176
     1
 90
       50
176
     1
 40
0.0
176
     1
 40
1.0
176
     1
 90
        0
176
     1
 62
    18
420
        0
176
     1
 90
       50
176
     1
 90
        3
176
     1
 62
     5
420
      255
176
     1
290
     0
176
     1
 90
       50
176
     1
 90
       50
176
     1
 90
       50
176
     1
290
     0
176
     1
 90
       50
176
     1
 62
   256
176
     0
 40
1.0
176
     0
 90
        2
176
     1
  1
strokes_ogs.tif
176
     1
290
     0
176
     1
 40
1.0
176
     1
 40
1.0
176
     1
  0
VISUALSTYLE
  5
30
102
{ACAD_REACTORS
330
29
102
}
330
29
100
AcDbVisualStyle
  2
Wireframe
 70
     5
177
     3
291
     0
 70
    58
 90
        0
176
     1
 90
        2
176
     1
 90
        0
176
     1
 90
        0
176
     1
 40
0.6
176
     1
 40
30.0
176
     1
 62
     7
420
 16777215
176
     1
 90
        1
176
     1
 90
        4
176
     1
 62
     7
176
     1
 62
   257
176
     1
 90
        1
176
     1
 90
        1
176
     1
 40
1.0
176
     1
 90
        0
176
     1
 62
   257
176
     1
 40
1.0
176
     1
 90
        1
176
     1
 90
        6
176
     1
 90
        2
176
     1
 62
     7
176
     1
 90
        3
176
     1
 90
        0
176
     1
 90
        0
176
     1
290
     0
176
     1
 90
        1
176
     1
 40
0.0
176
     1
 90
        0
176
     1
290
     0
176
     1
290
     1
176
     1
290
     1
176
     1
290
     0
176
     1
290
     0
176
     1
290
     0
176
     1
290
     0
176
     1
290
     0
176
     1
290
     0
176
     1
 90
       50
176
     1
 40
0.0
176
     1
 40
1.0
176
     1
 90
        0
176
     1
 62
    18
420
        0
176
     1
 90
       50
176
     1
 90
        3
176
     1
 62
     5
420
      255
176
     1
290
     0
176
     1
 90
       50
176
     1
 90
       50
176
     1
 90
       50
176
     1
290
     0
176
     1
 90
       50
176
     1
 62
   256
176
     0
 40
1.0
176
     0
 90
        2
176
     1
  1
strokes_ogs.tif
176
     1
290
     0
176
     1
 40
1.0
176
     1
 40
1.0
176
     1
  0
VISUALSTYLE
  5
3C
102
{ACAD_REACTORS
330
29
102
}
330
29
100
AcDbVisualStyle
  2
X-Ray
 70
    25
177
     3
291
     0
 70
    58
 90
        2
176
     1
 90
        2
176
     1
 90
        1
176
     1
 90
        1
176
     1
 40
0.5
176
     1
 40
30.0
176
     1
 62
     7
420
 16777215
176
     1
 90
        1
176
     1
 90
        0
176
     1
 62
     7
176
     1
 62
   257
176
     1
 90
        1
176
     1
 90
        1
176
     1
 40
1.0
176
     1
 90
        8
176
     1
 62
     7
176
     1
 40
1.0
176
     1
 90
        1
176
     1
 90
        6
176
     1
 90
        2
176
     1
 62
     7
176
     1
 90
        3
176
     1
 90
        0
176
     1
 90
        0
176
     1
290
     0
176
     1
 90
       13
176
     1
 40
0.0
176
     1
 90
        0
176
     1
290
     0
176
     1
290
     1
176
     1
290
     1
176
     1
290
     0
176
     1
290
     0
176
     1
290
     0
176
     1
290
     0
176
     1
290
     0
176
     1
290
     0
176
     1
 90
       50
176
     1
 40
0.0
176
     1
 40
1.0
176
     1
 90
        0
176
     1
 62
    18
420
        0
176
     1
 90
       50
176
     1
 90
        3
176
     1
 62
     5
420
      255
176
     1
290
     0
176
     1
 90
       50
176
     1
 90
       50
176
     1
 90
       50
176
     1
290
     0
176
     1
 90
       50
176
     1
 62
   256
176
     0
 40
1.0
176
     0
 90
        2
176
     1
  1
strokes_ogs.tif
176
     1
290
     0
176
     1
 40
1.0
176
     1
 40
1.0
176
     1
  0
DICTIONARYVAR
  5
21A
102
{ACAD_REACTORS
330
215
102
}
330
215
100
DictionaryVariables
280
     0
  1
1:1
  0
DICTIONARYVAR
  5
217
102
{ACAD_REACTORS
330
215
102
}
330
215
100
DictionaryVariables
280
     0
  1
STANDARD
  0
DICTIONARYVAR
  5
216
102
{ACAD_REACTORS
330
215
102
}
330
215
100
DictionaryVariables
280
     0
  1
STANDARD
  0
DICTIONARYVAR
  5
218
102
{ACAD_REACTORS
330
215
102
}
330
215
100
DictionaryVariables
280
     0
  1
Imperial24
  0
DICTIONARYVAR
  5
219
102
{ACAD_REACTORS
330
215
102
}
330
215
100
DictionaryVariables
280
     0
  1
Imperial24
  0
DICTIONARY
  5
1A
330
19
100
AcDbDictionary
280
     1
281
     1
  3
BUMPTILE
360
1C
  3
DIFFUSETILE
360
1B
  3
OPACITYTILE
360
1F
  3
REFLECTIONTILE
360
1E
  3
REFRACTIONTILE
360
20
  3
SPECULARTILE
360
1D
  0
DICTIONARY
  5
12
330
11
100
AcDbDictionary
280
     1
281
     1
  3
BUMPTILE
360
14
  3
DIFFUSETILE
360
13
  3
OPACITYTILE
360
17
  3
REFLECTIONTILE
360
16
  3
REFRACTIONTILE
360
18
  3
SPECULARTILE
360
15
  0
DICTIONARY
  5
22
330
21
100
AcDbDictionary
280
     1
281
     1
  3
BUMPTILE
360
24
  3
DIFFUSETILE
360
23
  3
OPACITYTILE
360
27
  3
REFLECTIONTILE
360
26
  3
REFRACTIONTILE
360
28
  3
SPECULARTILE
360
25
  0
DICTIONARY
  5
21B
330
65
100
AcDbDictionary
280
     1
281
     1
  3
ACAD_ROUNDTRIP_2008_TABLESTYLE_CELLSTYLEMAP
360
21C
  0
XRECORD
  5
1C
102
{ACAD_REACTORS
330
1A
102
}
330
1A
100
AcDbXrecord
280
     1
270
     1
271
     1
  0
XRECORD
  5
1B
102
{ACAD_REACTORS
330
1A
102
}
330
1A
100
AcDbXrecord
280
     1
270
     1
271
     1
  0
XRECORD
  5
1F
102
{ACAD_REACTORS
330
1A
102
}
330
1A
100
AcDbXrecord
280
     1
270
     1
271
     1
  0
XRECORD
  5
1E
102
{ACAD_REACTORS
330
1A
102
}
330
1A
100
AcDbXrecord
280
     1
270
     1
271
     1
  0
XRECORD
  5
20
102
{ACAD_REACTORS
330
1A
102
}
330
1A
100
AcDbXrecord
280
     1
270
     1
271
     1
  0
XRECORD
  5
1D
102
{ACAD_REACTORS
330
1A
102
}
330
1A
100
AcDbXrecord
280
     1
270
     1
271
     1
  0
XRECORD
  5
14
102
{ACAD_REACTORS
330
12
102
}
330
12
100
AcDbXrecord
280
     1
270
     1
271
     1
  0
XRECORD
  5
13
102
{ACAD_REACTORS
330
12
102
}
330
12
100
AcDbXrecord
280
     1
270
     1
271
     1
  0
XRECORD
  5
17
102
{ACAD_REACTORS
330
12
102
}
330
12
100
AcDbXrecord
280
     1
270
     1
271
     1
  0
XRECORD
  5
16
102
{ACAD_REACTORS
330
12
102
}
330
12
100
AcDbXrecord
280
     1
270
     1
271
     1
  0
XRECORD
  5
18
102
{ACAD_REACTORS
330
12
102
}
330
12
100
AcDbXrecord
280
     1
270
     1
271
     1
  0
XRECORD
  5
15
102
{ACAD_REACTORS
330
12
102
}
330
12
100
AcDbXrecord
280
     1
270
     1
271
     1
  0
XRECORD
  5
24
102
{ACAD_REACTORS
330
22
102
}
330
22
100
AcDbXrecord
280
     1
270
     1
271
     1
  0
XRECORD
  5
23
102
{ACAD_REACTORS
330
22
102
}
330
22
100
AcDbXrecord
280
     1
270
     1
271
     1
  0
XRECORD
  5
27
102
{ACAD_REACTORS
330
22
102
}
330
22
100
AcDbXrecord
280
     1
270
     1
271
     1
  0
XRECORD
  5
26
102
{ACAD_REACTORS
330
22
102
}
330
22
100
AcDbXrecord
280
     1
270
     1
271
     1
  0
XRECORD
  5
28
102
{ACAD_REACTORS
330
22
102
}
330
22
100
AcDbXrecord
280
     1
270
     1
271
     1
  0
XRECORD
  5
25
102
{ACAD_REACTORS
330
22
102
}
330
22
100
AcDbXrecord
280
     1
270
     1
271
     1
  0
CELLSTYLEMAP
  5
21C
102
{ACAD_REACTORS
330
21B
102
}
330
21B
100
AcDbCellStyleMap
 90
        3
300
CELLSTYLE
  1
TABLEFORMAT_BEGIN
 90
        5
170
     1
 91
        0
 92
    32768
 62
   257
 93
        1
300
CONTENTFORMAT
  1
CONTENTFORMAT_BEGIN
 90
        0
 91
        0
 92
      512
 93
        0
300

 40
0.0
140
1.0
 94
        5
 62
     0
340
55
144
0.25
309
CONTENTFORMAT_END
171
     0
 94
        0
309
TABLEFORMAT_END
  1
CELLSTYLE_BEGIN
 90
        1
 91
        1
300
_TITLE
309
CELLSTYLE_END
300
CELLSTYLE
  1
TABLEFORMAT_BEGIN
 90
        5
170
     1
 91
        0
 92
        0
 62
   257
 93
        1
300
CONTENTFORMAT
  1
CONTENTFORMAT_BEGIN
 90
        0
 91
        0
 92
      512
 93
        0
300

 40
0.0
140
1.0
 94
        5
 62
     0
340
55
144
0.18
309
CONTENTFORMAT_END
171
     0
 94
        0
309
TABLEFORMAT_END
  1
CELLSTYLE_BEGIN
 90
        2
 91
        1
300
_HEADER
309
CELLSTYLE_END
300
CELLSTYLE
  1
TABLEFORMAT_BEGIN
 90
        5
170
     1
 91
        0
 92
        0
 62
   257
 93
        1
300
CONTENTFORMAT
  1
CONTENTFORMAT_BEGIN
 90
        0
 91
        0
 92
      512
 93
        0
300

 40
0.0
140
1.0
 94
        2
 62
     0
340
55
144
0.18
309
CONTENTFORMAT_END
171
     0
 94
        0
309
TABLEFORMAT_END
  1
CELLSTYLE_BEGIN
 90
        3
 91
        2
300
_DATA
309
CELLSTYLE_END
  0
ENDSEC
  0
EOF
