  0
SECTION
  2
HEADER
  9
$ACADVER
  1
AC1015
  9
$ACADMAINTVER
 70
     6
  9
$DWGCODEPAGE
  3
ANSI_1252
  9
$INSBASE
 10
0.0
 20
0.0
 30
0.0
  9
$EXTMIN
 10
-8.4000128372
 20
-5.8033868673
 30
0.0
  9
$EXTMAX
 10
8.3380640016
 20
6.1588041375
 30
0.0
  9
$LIMMIN
 10
0.0
 20
0.0
  9
$LIMMAX
 10
12.0
 20
9.0
  9
$ORTHOMODE
 70
     0
  9
$REGENMODE
 70
     1
  9
$FILLMODE
 70
     1
  9
$QTEXTMODE
 70
     0
  9
$MIRRTEXT
 70
     1
  9
$LTSCALE
 40
1.0
  9
$ATTMODE
 70
     1
  9
$TEXTSIZE
 40
0.1377952756
  9
$TRACEWID
 40
0.05
  9
$TEXTSTYLE
  7
Standard
  9
$CLAYER
  8
0
  9
$CELTYPE
  6
ByLayer
  9
$CECOLOR
 62
   256
  9
$CELTSCALE
 40
1.0
  9
$DISPSILH
 70
     0
  9
$DIMSCALE
 40
1.0
  9
$DIMASZ
 40
0.13
  9
$DIMEXO
 40
0.0
  9
$DIMDLI
 40
0.38
  9
$DIMRND
 40
0.0
  9
$DIMDLE
 40
0.0
  9
$DIMEXE
 40
0.125
  9
$DIMTP
 40
0.0
  9
$DIMTM
 40
0.0
  9
$DIMTXT
 40
0.1377952756
  9
$DIMCEN
 40
0.09
  9
$DIMTSZ
 40
0.0
  9
$DIMTOL
 70
     0
  9
$DIMLIM
 70
     0
  9
$DIMTIH
 70
     1
  9
$DIMTOH
 70
     1
  9
$DIMSE1
 70
     0
  9
$DIMSE2
 70
     0
  9
$DIMTAD
 70
     1
  9
$DIMZIN
 70
     1
  9
$DIMBLK
  1

  9
$DIMASO
 70
     1
  9
$DIMSHO
 70
     1
  9
$DIMPOST
  1

  9
$DIMAPOST
  1

  9
$DIMALT
 70
     0
  9
$DIMALTD
 70
     2
  9
$DIMALTF
 40
25.4
  9
$DIMLFAC
 40
1.0
  9
$DIMTOFL
 70
     0
  9
$DIMTVP
 40
0.0
  9
$DIMTIX
 70
     0
  9
$DIMSOXD
 70
     0
  9
$DIMSAH
 70
     0
  9
$DIMBLK1
  1

  9
$DIMBLK2
  1

  9
$DIMSTYLE
  2
Standard
  9
$DIMCLRD
 70
     0
  9
$DIMCLRE
 70
     0
  9
$DIMCLRT
 70
     0
  9
$DIMTFAC
 40
1.0
  9
$DIMGAP
 40
0.06
  9
$DIMJUST
 70
     0
  9
$DIMSD1
 70
     0
  9
$DIMSD2
 70
     0
  9
$DIMTOLJ
 70
     1
  9
$DIMTZIN
 70
     1
  9
$DIMALTZ
 70
     0
  9
$DIMALTTZ
 70
     0
  9
$DIMUPT
 70
     0
  9
$DIMDEC
 70
     2
  9
$DIMTDEC
 70
     2
  9
$DIMALTU
 70
     2
  9
$DIMALTTD
 70
     2
  9
$DIMTXSTY
  7
Standard
  9
$DIMAUNIT
 70
     0
  9
$DIMADEC
 70
     2
  9
$DIMALTRND
 40
0.0
  9
$DIMAZIN
 70
     0
  9
$DIMDSEP
 70
    46
  9
$DIMATFIT
 70
     3
  9
$DIMFRAC
 70
     0
  9
$DIMLDRBLK
  1

  9
$DIMLUNIT
 70
     2
  9
$DIMLWD
 70
    -2
  9
$DIMLWE
 70
    -2
  9
$DIMTMOVE
 70
     0
  9
$LUNITS
 70
     2
  9
$LUPREC
 70
     2
  9
$SKETCHINC
 40
0.1
  9
$FILLETRAD
 40
0.5
  9
$AUNITS
 70
     0
  9
$AUPREC
 70
     2
  9
$MENU
  1
.
  9
$ELEVATION
 40
0.0
  9
$PELEVATION
 40
0.0
  9
$THICKNESS
 40
0.0
  9
$LIMCHECK
 70
     0
  9
$CHAMFERA
 40
0.0
  9
$CHAMFERB
 40
0.0
  9
$CHAMFERC
 40
0.0
  9
$CHAMFERD
 40
0.0
  9
$SKPOLY
 70
     0
  9
$TDCREATE
 40
2460959.636957153
  9
$TDUCREATE
 40
2460959.803623819
  9
$TDUPDATE
 40
2460959.636990347
  9
$TDUUPDATE
 40
2460959.803657014
  9
$TDINDWG
 40
0.0000000116
  9
$TDUSRTIMER
 40
0.0000000116
  9
$USRTIMER
 70
     1
  9
$ANGBASE
 50
0.0
  9
$ANGDIR
 70
     0
  9
$PDMODE
 70
     0
  9
$PDSIZE
 40
-1.0
  9
$PLINEWID
 40
0.0
  9
$SPLFRAME
 70
     0
  9
$SPLINETYPE
 70
     6
  9
$SPLINESEGS
 70
     8
  9
$HANDSEED
  5
668
  9
$SURFTAB1
 70
     6
  9
$SURFTAB2
 70
     6
  9
$SURFTYPE
 70
     6
  9
$SURFU
 70
     6
  9
$SURFV
 70
     6
  9
$UCSBASE
  2

  9
$UCSNAME
  2

  9
$UCSORG
 10
0.0
 20
0.0
 30
0.0
  9
$UCSXDIR
 10
1.0
 20
0.0
 30
0.0
  9
$UCSYDIR
 10
0.0
 20
1.0
 30
0.0
  9
$UCSORTHOREF
  2

  9
$UCSORTHOVIEW
 70
     0
  9
$UCSORGTOP
 10
0.0
 20
0.0
 30
0.0
  9
$UCSORGBOTTOM
 10
0.0
 20
0.0
 30
0.0
  9
$UCSORGLEFT
 10
0.0
 20
0.0
 30
0.0
  9
$UCSORGRIGHT
 10
0.0
 20
0.0
 30
0.0
  9
$UCSORGFRONT
 10
0.0
 20
0.0
 30
0.0
  9
$UCSORGBACK
 10
0.0
 20
0.0
 30
0.0
  9
$PUCSBASE
  2

  9
$PUCSNAME
  2

  9
$PUCSORG
 10
0.0
 20
0.0
 30
0.0
  9
$PUCSXDIR
 10
1.0
 20
0.0
 30
0.0
  9
$PUCSYDIR
 10
0.0
 20
1.0
 30
0.0
  9
$PUCSORTHOREF
  2

  9
$PUCSORTHOVIEW
 70
     0
  9
$PUCSORGTOP
 10
0.0
 20
0.0
 30
0.0
  9
$PUCSORGBOTTOM
 10
0.0
 20
0.0
 30
0.0
  9
$PUCSORGLEFT
 10
0.0
 20
0.0
 30
0.0
  9
$PUCSORGRIGHT
 10
0.0
 20
0.0
 30
0.0
  9
$PUCSORGFRONT
 10
0.0
 20
0.0
 30
0.0
  9
$PUCSORGBACK
 10
0.0
 20
0.0
 30
0.0
  9
$USERI1
 70
     0
  9
$USERI2
 70
     0
  9
$USERI3
 70
     0
  9
$USERI4
 70
     0
  9
$USERI5
 70
     0
  9
$USERR1
 40
0.0
  9
$USERR2
 40
0.0
  9
$USERR3
 40
0.0
  9
$USERR4
 40
0.0
  9
$USERR5
 40
0.0
  9
$WORLDVIEW
 70
     1
  9
$SHADEDGE
 70
     3
  9
$SHADEDIF
 70
    70
  9
$TILEMODE
 70
     1
  9
$MAXACTVP
 70
    64
  9
$PINSBASE
 10
0.0
 20
0.0
 30
0.0
  9
$PLIMCHECK
 70
     0
  9
$PEXTMIN
 10
-5.5
 20
-1.0
 30
0.0
  9
$PEXTMAX
 10
6.0755929704
 20
1.85
 30
0.0
  9
$PLIMMIN
 10
-5.7756098008
 20
-1.2756093668
  9
$PLIMMAX
 10
6.3512023371
 20
8.0951091035
  9
$UNITMODE
 70
     0
  9
$VISRETAIN
 70
     1
  9
$PLINEGEN
 70
     0
  9
$PSLTSCALE
 70
     1
  9
$TREEDEPTH
 70
  3020
  9
$CMLSTYLE
  2
Standard
  9
$CMLJUST
 70
     0
  9
$CMLSCALE
 40
1.0
  9
$PROXYGRAPHICS
 70
     1
  9
$MEASUREMENT
 70
     0
  9
$CELWEIGHT
370
    -1
  9
$ENDCAPS
280
     0
  9
$JOINSTYLE
280
     0
  9
$LWDISPLAY
290
     1
  9
$INSUNITS
 70
     1
  9
$HYPERLINKBASE
  1

  9
$STYLESHEET
  1

  9
$XEDIT
290
     1
  9
$CEPSNTYPE
380
     0
  9
$PSTYLEMODE
290
     1
  9
$FINGERPRINTGUID
  2
{48cf4848-4fb9-4f92-b105-f42b73da4a30}
  9
$VERSIONGUID
  2
{FAEB1C32-E019-11D5-929B-00C0DF256EC4}
  9
$EXTNAMES
290
     1
  9
$PSVPSCALE
 40
0.0
  9
$OLESTARTUP
290
     0
  0
ENDSEC
  0
SECTION
  2
CLASSES
  0
CLASS
  1
ACDBDICTIONARYWDFLT
  2
AcDbDictionaryWithDefault
  3
ObjectDBX Classes
 90
        0
280
     0
281
     0
  0
CLASS
  1
VISUALSTYLE
  2
AcDbVisualStyle
  3
ObjectDBX Classes
 90
     4095
280
     0
281
     0
  0
CLASS
  1
MATERIAL
  2
AcDbMaterial
  3
ObjectDBX Classes
 90
     1153
280
     0
281
     0
  0
CLASS
  1
SCALE
  2
AcDbScale
  3
ObjectDBX Classes
 90
     1153
280
     0
281
     0
  0
CLASS
  1
TABLESTYLE
  2
AcDbTableStyle
  3
ObjectDBX Classes
 90
     4095
280
     0
281
     0
  0
CLASS
  1
MLEADERSTYLE
  2
AcDbMLeaderStyle
  3
ACDB_MLEADERSTYLE_CLASS
 90
     4095
280
     0
281
     0
  0
CLASS
  1
SUN
  2
AcDbSun
  3
SCENEOE
 90
     1153
280
     0
281
     0
  0
CLASS
  1
ACDBPLACEHOLDER
  2
AcDbPlaceHolder
  3
ObjectDBX Classes
 90
        0
280
     0
281
     0
  0
CLASS
  1
LAYOUT
  2
AcDbLayout
  3
ObjectDBX Classes
 90
        0
280
     0
281
     0
  0
ENDSEC
  0
SECTION
  2
TABLES
  0
TABLE
  2
VPORT
  5
8
330
0
100
AcDbSymbolTable
 70
     1
  0
VPORT
  5
29
330
8
100
AcDbSymbolTableRecord
100
AcDbViewportTableRecord
  2
*Active
 70
     0
 10
0.0
 20
0.0
 11
1.0
 21
1.0
 12
-0.0309744178
 22
0.1777086351
 13
0.0
 23
0.0
 14
0.5
 24
0.5
 15
0.5
 25
0.5
 16
0.0
 26
0.0
 36
1.0
 17
0.0
 27
0.0
 37
0.0
 40
12.201434825
 41
1.399248418
 42
50.0
 43
0.0
 44
0.0
 50
0.0
 51
0.0
 71
     0
 72
   100
 73
     1
 74
     3
 75
     0
 76
     0
 77
     0
 78
     0
281
     0
 65
     1
110
0.0
120
0.0
130
0.0
111
1.0
121
0.0
131
0.0
112
0.0
122
1.0
132
0.0
 79
     0
146
0.0
  0
ENDTAB
  0
TABLE
  2
LTYPE
  5
5
330
0
100
AcDbSymbolTable
 70
     6
  0
LTYPE
  5
14
330
5
100
AcDbSymbolTableRecord
100
AcDbLinetypeTableRecord
  2
ByBlock
 70
     0
  3

 72
    65
 73
     0
 40
0.0
  0
LTYPE
  5
15
330
5
100
AcDbSymbolTableRecord
100
AcDbLinetypeTableRecord
  2
ByLayer
 70
     0
  3

 72
    65
 73
     0
 40
0.0
  0
LTYPE
  5
16
330
5
100
AcDbSymbolTableRecord
100
AcDbLinetypeTableRecord
  2
Continuous
 70
     0
  3
Solid line
 72
    65
 73
     0
 40
0.0
  0
LTYPE
  5
6E
330
5
100
AcDbSymbolTableRecord
100
AcDbLinetypeTableRecord
  2
HIDDEN
 70
     0
  3
Hidden __ __ __ __ __ __ __ __ __ __ __ __ __ __
 72
    65
 73
     2
 40
0.075
 49
0.05
 74
     0
 49
-0.025
 74
     0
  0
LTYPE
  5
6F
330
5
100
AcDbSymbolTableRecord
100
AcDbLinetypeTableRecord
  2
PHANTOM
 70
     0
  3
Phantom ______  __  __  ______  __  __  ______
 72
    65
 73
     6
 40
0.5
 49
0.25
 74
     0
 49
-0.05
 74
     0
 49
0.05
 74
     0
 49
-0.05
 74
     0
 49
0.05
 74
     0
 49
-0.05
 74
     0
  0
LTYPE
  5
70
330
5
100
AcDbSymbolTableRecord
100
AcDbLinetypeTableRecord
  2
CENTER
 70
     0
  3
Center ____ _ ____ _ ____ _ ____ _ ____ _ ____
 72
    65
 73
     4
 40
0.4
 49
0.25
 74
     0
 49
-0.05
 74
     0
 49
0.05
 74
     0
 49
-0.05
 74
     0
  0
LTYPE
  5
71
330
5
100
AcDbSymbolTableRecord
100
AcDbLinetypeTableRecord
  2
CENTERX2
 70
     0
  3
Center (2x) ________  __  ________  __  _____
 72
    65
 73
     4
 40
0.8
 49
0.5
 74
     0
 49
-0.1
 74
     0
 49
0.1
 74
     0
 49
-0.1
 74
     0
  0
LTYPE
  5
72
330
5
100
AcDbSymbolTableRecord
100
AcDbLinetypeTableRecord
  2
DOT2
 70
     0
  3
Dot (.5x) ........................................
 72
    65
 73
     2
 40
0.025
 49
0.0
 74
     0
 49
-0.025
 74
     0
  0
ENDTAB
  0
TABLE
  2
LAYER
  5
2
330
0
100
AcDbSymbolTable
 70
     1
  0
LAYER
  5
10
330
2
100
AcDbSymbolTableRecord
100
AcDbLayerTableRecord
  2
0
 70
     0
 62
     7
  6
Continuous
370
    -3
390
F
  0
ENDTAB
  0
TABLE
  2
STYLE
  5
3
330
0
100
AcDbSymbolTable
 70
     1
  0
STYLE
  5
11
330
3
100
AcDbSymbolTableRecord
100
AcDbTextStyleTableRecord
  2
Standard
 70
     0
 40
0.0
 41
1.0
 50
0.0
 71
     0
 42
0.1377952756
  3
txt
  4

  0
ENDTAB
  0
TABLE
  2
VIEW
  5
6
330
0
100
AcDbSymbolTable
 70
     0
  0
ENDTAB
  0
TABLE
  2
UCS
  5
7
330
0
100
AcDbSymbolTable
 70
     0
  0
ENDTAB
  0
TABLE
  2
APPID
  5
9
330
0
100
AcDbSymbolTable
 70
     1
  0
APPID
  5
12
330
9
100
AcDbSymbolTableRecord
100
AcDbRegAppTableRecord
  2
ACAD
 70
     0
  0
ENDTAB
  0
TABLE
  2
DIMSTYLE
  5
A
330
0
100
AcDbSymbolTable
 70
     1
100
AcDbDimStyleTable
  0
DIMSTYLE
105
27
330
A
100
AcDbSymbolTableRecord
100
AcDbDimStyleTableRecord
  2
Standard
 70
     0
178
     0
340
11
  0
ENDTAB
  0
TABLE
  2
BLOCK_RECORD
  5
1
330
0
100
AcDbSymbolTable
 70
     8
  0
BLOCK_RECORD
  5
1F
330
1
100
AcDbSymbolTableRecord
100
AcDbBlockTableRecord
  2
*Model_Space
340
22
  0
BLOCK_RECORD
  5
1B
330
1
100
AcDbSymbolTableRecord
100
AcDbBlockTableRecord
  2
*Paper_Space
340
1E
  0
BLOCK_RECORD
  5
23
330
1
100
AcDbSymbolTableRecord
100
AcDbBlockTableRecord
  2
*Paper_Space0
340
26
  0
BLOCK_RECORD
  5
249
330
1
100
AcDbSymbolTableRecord
100
AcDbBlockTableRecord
  2
*Paper_Space1
340
24A
  0
BLOCK_RECORD
  5
278
330
1
100
AcDbSymbolTableRecord
100
AcDbBlockTableRecord
  2
*Paper_Space2
340
279
  0
BLOCK_RECORD
  5
2A1
330
1
100
AcDbSymbolTableRecord
100
AcDbBlockTableRecord
  2
*Paper_Space3
340
2A2
  0
BLOCK_RECORD
  5
309
330
1
100
AcDbSymbolTableRecord
100
AcDbBlockTableRecord
  2
*Paper_Space4
340
30A
  0
BLOCK_RECORD
  5
377
330
1
100
AcDbSymbolTableRecord
100
AcDbBlockTableRecord
  2
*Paper_Space5
340
378
  0
BLOCK_RECORD
  5
488
330
1
100
AcDbSymbolTableRecord
100
AcDbBlockTableRecord
  2
*Paper_Space6
340
489
  0
BLOCK_RECORD
  5
573
330
1
100
AcDbSymbolTableRecord
100
AcDbBlockTableRecord
  2
*Paper_Space7
340
574
  0
ENDTAB
  0
ENDSEC
  0
SECTION
  2
BLOCKS
  0
BLOCK
  5
20
330
1F
100
AcDbEntity
  8
0
100
AcDbBlockBegin
  2
*Model_Space
 70
     0
 10
0.0
 20
0.0
 30
0.0
  3
*Model_Space
  1

  0
ENDBLK
  5
21
330
1F
100
AcDbEntity
  8
0
100
AcDbBlockEnd
  0
BLOCK
  5
1C
330
1B
100
AcDbEntity
 67
     1
  8
0
100
AcDbBlockBegin
  2
*Paper_Space
 70
     0
 10
0.0
 20
0.0
 30
0.0
  3
*Paper_Space
  1

  0
ENDBLK
  5
1D
330
1B
100
AcDbEntity
 67
     1
  8
0
100
AcDbBlockEnd
  0
BLOCK
  5
24
330
23
100
AcDbEntity
  8
0
100
AcDbBlockBegin
  2
*Paper_Space0
 70
     0
 10
0.0
 20
0.0
 30
0.0
  3
*Paper_Space0
  1

  0
CIRCLE
  5
1FA
330
23
100
AcDbEntity
  8
0
  6
Continuous
 62
     7
370
    25
100
AcDbCircle
 10
4.0
 20
-0.7
 30
0.0
 40
0.1181102362204736
  0
CIRCLE
  5
1FB
330
23
100
AcDbEntity
  8
0
  6
Continuous
 62
     7
370
    25
100
AcDbCircle
 10
0.0
 20
-0.7
 30
0.0
 40
0.1181102362204723
  0
CIRCLE
  5
1FC
330
23
100
AcDbEntity
  8
0
  6
Continuous
 62
     7
370
    25
100
AcDbCircle
 10
-4.0
 20
-0.7
 30
0.0
 40
0.1181102362204722
  0
CIRCLE
  5
200
330
23
100
AcDbEntity
  8
0
  6
Continuous
 62
     7
370
    25
100
AcDbCircle
 10
-4.0
 20
-0.7
 30
0.0
 40
0.098425196850394
  0
CIRCLE
  5
201
330
23
100
AcDbEntity
  8
0
  6
Continuous
 62
     7
370
    25
100
AcDbCircle
 10
0.0
 20
-0.7
 30
0.0
 40
0.0984251968503936
  0
CIRCLE
  5
202
330
23
100
AcDbEntity
  8
0
  6
Continuous
 62
     7
370
    25
100
AcDbCircle
 10
4.0
 20
-0.7
 30
0.0
 40
0.0984251968503949
  0
LINE
  5
20F
330
23
100
AcDbEntity
  8
0
  6
Continuous
 62
     7
370
    25
100
AcDbLine
 10
-5.5
 20
-0.337595618
 30
0.0
 11
-5.5870707253
 21
-0.337595618
 31
0.0
  0
LINE
  5
210
330
23
100
AcDbEntity
  8
0
  6
Continuous
 62
     7
370
    25
100
AcDbLine
 10
-5.5870707253
 20
-0.762404382
 30
0.0
 11
-5.5
 21
-0.762404382
 31
0.0
  0
LINE
  5
211
330
23
100
AcDbEntity
  8
0
  6
Continuous
 62
     7
370
    25
100
AcDbLine
 10
-5.9598455047
 20
-0.4187576891
 30
0.0
 11
-6.0755929704
 21
-0.4597725453
 31
0.0
  0
LINE
  5
212
330
23
100
AcDbEntity
  8
0
  6
Continuous
 62
     7
370
    25
100
AcDbLine
 10
-6.0755929704
 20
-0.6402274547
 30
0.0
 11
-5.9598455047
 21
-0.6812423109
 31
0.0
  0
LINE
  5
213
330
23
100
AcDbEntity
  8
0
  6
Continuous
 62
     7
370
    25
100
AcDbLine
 10
-5.8484810218
 20
-0.4187576891
 30
0.0
 11
-5.9598455047
 21
-0.4187576891
 31
0.0
  0
LINE
  5
214
330
23
100
AcDbEntity
  8
0
  6
Continuous
 62
     7
370
    25
100
AcDbLine
 10
-5.9598455047
 20
-0.6812423109
 30
0.0
 11
-5.8484810218
 21
-0.6812423109
 31
0.0
  0
LINE
  5
215
330
23
100
AcDbEntity
  8
0
  6
Continuous
 62
     7
370
    25
100
AcDbLine
 10
-5.8484810218
 20
-0.6812423109
 30
0.0
 11
-5.8349894402
 21
-0.6677507294
 31
0.0
  0
LINE
  5
216
330
23
100
AcDbEntity
  8
0
  6
Continuous
 62
     7
370
    25
100
AcDbLine
 10
-5.8349894402
 20
-0.4322492706
 30
0.0
 11
-5.8484810218
 21
-0.4187576891
 31
0.0
  0
LINE
  5
217
330
23
100
AcDbEntity
  8
0
  6
Continuous
 62
     7
370
    25
100
AcDbLine
 10
-5.5870707253
 20
-0.4322492706
 30
0.0
 11
-5.8349894402
 21
-0.4322492706
 31
0.0
  0
LINE
  5
218
330
23
100
AcDbEntity
  8
0
  6
Continuous
 62
     7
370
    25
100
AcDbLine
 10
-5.8349894402
 20
-0.6677507294
 30
0.0
 11
-5.5870707253
 21
-0.6677507294
 31
0.0
  0
LINE
  5
219
330
23
100
AcDbEntity
  8
0
  6
Continuous
 62
     7
370
    25
100
AcDbLine
 10
4.1527559098
 20
0.1975993724
 30
0.0
 11
2.9527559098
 21
1.3975993724
 31
0.0
  0
LINE
  5
21A
330
23
100
AcDbEntity
  8
0
  6
Continuous
 62
     7
370
    25
100
AcDbLine
 10
4.1527559098
 20
0.05
 30
0.0
 11
4.1527559098
 21
0.1982993724
 31
0.0
  0
LINE
  5
21B
330
23
100
AcDbEntity
  8
0
  6
Continuous
 62
     7
370
    25
100
AcDbLine
 10
4.1527559098
 20
0.05
 30
0.0
 11
-4.1527559098
 21
0.05
 31
0.0
  0
LINE
  5
21C
330
23
100
AcDbEntity
  8
0
  6
Continuous
 62
     7
370
    25
100
AcDbLine
 10
-2.9527559098
 20
1.3975993724
 30
0.0
 11
-4.1527559098
 21
0.1975993724
 31
0.0
  0
LINE
  5
21D
330
23
100
AcDbEntity
  8
0
  6
Continuous
 62
     7
370
    25
100
AcDbLine
 10
-2.9527559098
 20
1.85
 30
0.0
 11
-2.9527559098
 21
1.3975993724
 31
0.0
  0
LINE
  5
21E
330
23
100
AcDbEntity
  8
0
  6
Continuous
 62
     7
370
    25
100
AcDbLine
 10
2.9527559098
 20
1.8493
 30
0.0
 11
-2.9527559098
 21
1.8493
 31
0.0
  0
LINE
  5
21F
330
23
100
AcDbEntity
  8
0
  6
Continuous
 62
     7
370
    25
100
AcDbLine
 10
2.9527559098
 20
1.3975993724
 30
0.0
 11
2.9527559098
 21
1.85
 31
0.0
  0
LINE
  5
220
330
23
100
AcDbEntity
  8
0
  6
Continuous
 62
     7
370
    25
100
AcDbLine
 10
-4.1527559098
 20
0.1982993724
 30
0.0
 11
-4.1527559098
 21
0.05
 31
0.0
  0
LINE
  5
221
330
23
100
AcDbEntity
  8
0
  6
Continuous
 62
     7
370
    25
100
AcDbLine
 10
4.1527559098
 20
0.1982993724
 30
0.0
 11
2.9527559098
 21
1.3982993724
 31
0.0
  0
LINE
  5
222
330
23
100
AcDbEntity
  8
0
  6
Continuous
 62
     7
370
    25
100
AcDbLine
 10
-2.9527559098
 20
1.3982993724
 30
0.0
 11
-4.1527559098
 21
0.1982993724
 31
0.0
  0
LINE
  5
223
330
23
100
AcDbEntity
  8
0
  6
Continuous
 62
     7
370
    25
100
AcDbLine
 10
2.9527559098
 20
1.85
 30
0.0
 11
-2.9527559098
 21
1.85
 31
0.0
  0
LINE
  5
224
330
23
100
AcDbEntity
  8
0
  6
Continuous
 62
     7
370
    25
100
AcDbLine
 10
4.4228346457
 20
-0.1
 30
0.0
 11
5.5
 21
-0.1
 31
0.0
  0
LINE
  5
225
330
23
100
AcDbEntity
  8
0
  6
Continuous
 62
     7
370
    25
100
AcDbLine
 10
4.4228346457
 20
-0.1
 30
0.0
 11
4.4228346457
 21
0.0
 31
0.0
  0
LINE
  5
226
330
23
100
AcDbEntity
  8
0
  6
Continuous
 62
     7
370
    25
100
AcDbLine
 10
4.1727559098
 20
0.25
 30
0.0
 11
4.1727559098
 21
0.0
 31
0.0
  0
LINE
  5
227
330
23
100
AcDbEntity
  8
0
  6
Continuous
 62
     7
370
    25
100
AcDbLine
 10
2.9727559098
 20
1.7
 30
0.0
 11
2.9727559098
 21
1.45
 31
0.0
  0
LINE
  5
228
330
23
100
AcDbEntity
  8
0
  6
Continuous
 62
     7
370
    25
100
AcDbLine
 10
4.5
 20
1.7
 30
0.0
 11
2.9727559098
 21
1.7
 31
0.0
  0
LINE
  5
229
330
23
100
AcDbEntity
  8
0
  6
Continuous
 62
     7
370
    25
100
AcDbLine
 10
5.5
 20
0.7
 30
0.0
 11
4.5
 21
1.7
 31
0.0
  0
LINE
  5
22A
330
23
100
AcDbEntity
  8
0
  6
Continuous
 62
     7
370
    25
100
AcDbLine
 10
5.5
 20
0.7
 30
0.0
 11
5.5
 21
-1.0
 31
0.0
  0
LINE
  5
22B
330
23
100
AcDbEntity
  8
0
  6
Continuous
 62
     7
370
    25
100
AcDbLine
 10
2.9727559098
 20
1.45
 30
0.0
 11
4.1727559098
 21
0.25
 31
0.0
  0
LINE
  5
22C
330
23
100
AcDbEntity
  8
0
  6
Continuous
 62
     7
370
    25
100
AcDbLine
 10
3.1141772661
 20
1.2378679656
 30
0.0
 11
3.1495326051
 21
1.2732233047
 31
0.0
  0
LINE
  5
22D
330
23
100
AcDbEntity
  8
0
  6
Continuous
 62
     7
370
    25
100
AcDbLine
 10
3.2909539614
 20
1.0610912703
 30
0.0
 11
3.3263093004
 21
1.0964466094
 31
0.0
  0
LINE
  5
22E
330
23
100
AcDbEntity
  8
0
  6
Continuous
 62
     7
370
    25
100
AcDbLine
 10
3.1141772661
 20
1.2378679656
 30
0.0
 11
4.1020452317
 21
0.25
 31
0.0
  0
LINE
  5
22F
330
23
100
AcDbEntity
  8
0
  6
Continuous
 62
     7
370
    25
100
AcDbLine
 10
3.9252685364
 20
0.4267766953
 30
0.0
 11
3.9606238755
 21
0.4621320344
 31
0.0
  0
LINE
  5
230
330
23
100
AcDbEntity
  8
0
  6
Continuous
 62
     7
370
    25
100
AcDbLine
 10
4.1020452317
 20
0.25
 30
0.0
 11
4.1374005708
 21
0.2853553391
 31
0.0
  0
LINE
  5
231
330
23
100
AcDbEntity
  8
0
  6
Continuous
 62
     7
370
    25
100
AcDbLine
 10
-4.5
 20
1.7
 30
0.0
 11
-2.9727559098
 21
1.7
 31
0.0
  0
LINE
  5
232
330
23
100
AcDbEntity
  8
0
  6
Continuous
 62
     7
370
    25
100
AcDbLine
 10
-2.9727559098
 20
1.7
 30
0.0
 11
-2.9727559098
 21
1.45
 31
0.0
  0
LINE
  5
233
330
23
100
AcDbEntity
  8
0
  6
Continuous
 62
     7
370
    25
100
AcDbLine
 10
-2.9727559098
 20
1.45
 30
0.0
 11
-4.1727559098
 21
0.25
 31
0.0
  0
LINE
  5
234
330
23
100
AcDbEntity
  8
0
  6
Continuous
 62
     7
370
    25
100
AcDbLine
 10
-4.1727559098
 20
0.25
 30
0.0
 11
-4.1727559098
 21
0.0
 31
0.0
  0
LINE
  5
235
330
23
100
AcDbEntity
  8
0
  6
Continuous
 62
     7
370
    25
100
AcDbLine
 10
-4.4228346457
 20
0.0
 30
0.0
 11
4.4228346457
 21
0.0
 31
0.0
  0
LINE
  5
236
330
23
100
AcDbEntity
  8
0
  6
Continuous
 62
     7
370
    25
100
AcDbLine
 10
-4.4228346457
 20
-0.1
 30
0.0
 11
-4.4228346457
 21
0.0
 31
0.0
  0
LINE
  5
237
330
23
100
AcDbEntity
  8
0
  6
Continuous
 62
     7
370
    25
100
AcDbLine
 10
-5.5
 20
-0.1
 30
0.0
 11
-4.4228346457
 21
-0.1
 31
0.0
  0
LINE
  5
238
330
23
100
AcDbEntity
  8
0
  6
Continuous
 62
     7
370
    25
100
AcDbLine
 10
-5.5
 20
0.7
 30
0.0
 11
-4.5
 21
1.7
 31
0.0
  0
LINE
  5
239
330
23
100
AcDbEntity
  8
0
  6
Continuous
 62
     7
370
    25
100
AcDbLine
 10
-5.5
 20
-1.0
 30
0.0
 11
-5.5
 21
0.7
 31
0.0
  0
LINE
  5
23A
330
23
100
AcDbEntity
  8
0
  6
Continuous
 62
     7
370
    25
100
AcDbLine
 10
-4.1020452317
 20
0.25
 30
0.0
 11
-3.1141772661
 21
1.2378679656
 31
0.0
  0
LINE
  5
23B
330
23
100
AcDbEntity
  8
0
  6
Continuous
 62
     7
370
    25
100
AcDbLine
 10
-4.1020452317
 20
0.25
 30
0.0
 11
-4.1374005708
 21
0.2853553391
 31
0.0
  0
LINE
  5
23C
330
23
100
AcDbEntity
  8
0
  6
Continuous
 62
     7
370
    25
100
AcDbLine
 10
-3.9252685364
 20
0.4267766953
 30
0.0
 11
-3.9606238755
 21
0.4621320344
 31
0.0
  0
LINE
  5
23D
330
23
100
AcDbEntity
  8
0
  6
Continuous
 62
     7
370
    25
100
AcDbLine
 10
-3.2909539614
 20
1.0610912703
 30
0.0
 11
-3.3263093004
 21
1.0964466094
 31
0.0
  0
LINE
  5
23E
330
23
100
AcDbEntity
  8
0
  6
Continuous
 62
     7
370
    25
100
AcDbLine
 10
-3.1141772661
 20
1.2378679656
 30
0.0
 11
-3.1495326051
 21
1.2732233047
 31
0.0
  0
LINE
  5
23F
330
23
100
AcDbEntity
  8
0
  6
Continuous
 62
     7
370
    25
100
AcDbLine
 10
5.5
 20
-1.0
 30
0.0
 11
-5.5
 21
-1.0
 31
0.0
  0
LINE
  5
240
330
23
100
AcDbEntity
  8
0
  6
Continuous
 62
     7
370
    25
100
AcDbLine
 10
-3.8227559098
 20
0.05
 30
0.0
 11
-3.8227559098
 21
0.0
 31
0.0
  0
LINE
  5
241
330
23
100
AcDbEntity
  8
0
  6
Continuous
 62
     7
370
    25
100
AcDbLine
 10
-4.0727559098
 20
0.05
 30
0.0
 11
-4.0727559098
 21
0.0
 31
0.0
  0
LINE
  5
242
330
23
100
AcDbEntity
  8
0
  6
Continuous
 62
     7
370
    25
100
AcDbLine
 10
3.8227559098
 20
0.05
 30
0.0
 11
3.8227559098
 21
0.0
 31
0.0
  0
LINE
  5
243
330
23
100
AcDbEntity
  8
0
  6
Continuous
 62
     7
370
    25
100
AcDbLine
 10
4.0727559098
 20
0.05
 30
0.0
 11
4.0727559098
 21
0.0
 31
0.0
  0
LINE
  5
244
330
23
100
AcDbEntity
  8
0
  6
Continuous
 62
     7
370
    25
100
AcDbLine
 10
-5.5870707253
 20
-0.337595618
 30
0.0
 11
-5.5870707253
 21
-0.762404382
 31
0.0
  0
LINE
  5
245
330
23
100
AcDbEntity
  8
0
  6
Continuous
 62
     7
370
    25
100
AcDbLine
 10
-6.0755929704
 20
-0.4597725453
 30
0.0
 11
-6.0755929704
 21
-0.6402274547
 31
0.0
  0
LINE
  5
246
330
23
100
AcDbEntity
  8
0
  6
Continuous
 62
     7
370
    25
100
AcDbLine
 10
-5.9598455047
 20
-0.4187576891
 30
0.0
 11
-5.9598455047
 21
-0.6812423109
 31
0.0
  0
LINE
  5
247
330
23
100
AcDbEntity
  8
0
  6
Continuous
 62
     7
370
    25
100
AcDbLine
 10
-5.8484810218
 20
-0.4187576891
 30
0.0
 11
-5.8484810218
 21
-0.6812423109
 31
0.0
  0
LINE
  5
248
330
23
100
AcDbEntity
  8
0
  6
Continuous
 62
     7
370
    25
100
AcDbLine
 10
-5.8349894402
 20
-0.4322492706
 30
0.0
 11
-5.8349894402
 21
-0.6677507294
 31
0.0
  0
VIEWPORT
  5
657
330
23
100
AcDbEntity
  8
0
100
AcDbViewport
 10
0.0
 20
0.0
 30
0.0
 40
8.4
 41
6.4
 68
     1
 69
     1
 12
-0.0309744178
 22
0.1777086351
 13
0.0
 23
0.0
 14
0.5
 24
0.5
 15
0.5
 25
0.5
 16
0.0
 26
0.0
 36
1.0
 17
0.0
 27
0.0
 37
0.0
 42
50.0
 43
0.0
 44
0.0
 45
13.0078768576
 50
0.0
 51
0.0
 72
   100
 90
   557152
  1

281
     0
 71
     1
 74
     0
110
0.0
120
0.0
130
0.0
111
1.0
121
0.0
131
0.0
112
0.0
122
1.0
132
0.0
 79
     0
146
0.0
  0
ENDBLK
  5
25
330
23
100
AcDbEntity
  8
0
100
AcDbBlockEnd
  0
BLOCK
  5
24B
330
249
100
AcDbEntity
  8
0
100
AcDbBlockBegin
  2
*Paper_Space1
 70
     0
 10
0.0
 20
0.0
 30
0.0
  3
*Paper_Space1
  1

  0
CIRCLE
  5
25D
330
249
100
AcDbEntity
  8
0
  6
Continuous
 62
     7
370
    25
100
AcDbCircle
 10
-8.3188976378
 20
-0.55
 30
0.0
 40
0.0984251968503926
  0
CIRCLE
  5
25E
330
249
100
AcDbEntity
  8
0
  6
Continuous
 62
     7
370
    25
100
AcDbCircle
 10
0.0
 20
-0.55
 30
0.0
 40
0.0984251968503938
  0
CIRCLE
  5
25F
330
249
100
AcDbEntity
  8
0
  6
Continuous
 62
     7
370
    25
100
AcDbCircle
 10
8.3188976378
 20
-0.55
 30
0.0
 40
0.0984251968503926
  0
CIRCLE
  5
264
330
249
100
AcDbEntity
  8
0
  6
Continuous
 62
     7
370
    25
100
AcDbCircle
 10
-8.3188976378
 20
-0.55
 30
0.0
 40
0.0826771653543314
  0
CIRCLE
  5
265
330
249
100
AcDbEntity
  8
0
  6
Continuous
 62
     7
370
    25
100
AcDbCircle
 10
0.0
 20
-0.55
 30
0.0
 40
0.0826771653543306
  0
SPLINE
  5
267
330
249
100
AcDbEntity
  8
0
  6
Continuous
 62
     7
370
    25
100
AcDbSpline
210
0.0
220
0.0
230
1.0
 70
     8
 71
     3
 72
    24
 73
    20
 74
     0
 42
0.00000001
 43
0.00000001
 40
0.0
 40
0.0
 40
0.0
 40
0.0
 40
0.2500000000000113
 40
0.2500000000000113
 40
0.3750000000000244
 40
0.3750000000000244
 40
0.4375000000000216
 40
0.4375000000000216
 40
0.5000000000000189
 40
0.5000000000000189
 40
0.5625000000000161
 40
0.5625000000000161
 40
0.6250000000000134
 40
0.6250000000000134
 40
0.6875000000000107
 40
0.6875000000000107
 40
0.7500000000000079
 40
0.7500000000000079
 40
1.0
 40
1.0
 40
1.0
 40
1.0
 10
8.394833509615207
 20
-0.5200000000000002
 30
0.0
 10
8.383499411824111
 20
-0.5136711316990641
 30
0.0
 10
8.371854819436209
 20
-0.5075759701633715
 30
0.0
 10
8.353593913966648
 20
-0.4984391283801902
 30
0.0
 10
8.347331388925253
 20
-0.4953475162959474
 30
0.0
 10
8.337850916927268
 20
-0.4907774693866398
 30
0.0
 10
8.334700035689368
 20
-0.4892768628358712
 30
0.0
 10
8.32835763320123
 20
-0.4864258334891698
 30
0.0
 10
8.325157746898938
 20
-0.4850566246948878
 30
0.0
 10
8.318585109834812
 20
-0.4828870197129703
 30
0.0
 10
8.31514146072517
 20
-0.4821117465485351
 30
0.0
 10
8.308144290704512
 20
-0.4821362256663415
 30
0.0
 10
8.304741106309526
 20
-0.4829064609715747
 30
0.0
 10
8.298062216644885
 20
-0.4850641651909355
 30
0.0
 10
8.294841689371552
 20
-0.4864045459266068
 30
0.0
 10
8.28847283388069
 20
-0.4892106954695533
 30
0.0
 10
8.285330292221914
 20
-0.4906902352607442
 30
0.0
 10
8.269724088962706
 20
-0.4982264066700148
 30
0.0
 10
8.25756117535871
 20
-0.5046575746277984
 30
0.0
 10
8.245922352232052
 20
-0.5111397199187511
 30
0.0
  0
LINE
  5
268
330
249
100
AcDbEntity
  8
0
  6
Continuous
 62
     7
370
    25
100
AcDbLine
 10
-2.2033082439
 20
1.8493
 30
0.0
 11
-8.1088200549
 21
1.8493
 31
0.0
  0
LINE
  5
269
330
249
100
AcDbEntity
  8
0
  6
Continuous
 62
     7
370
    25
100
AcDbLine
 10
-2.2033082439
 20
1.7
 30
0.0
 11
-2.2033082439
 21
1.8493
 31
0.0
  0
LINE
  5
26A
330
249
100
AcDbEntity
  8
0
  6
Continuous
 62
     7
370
    25
100
AcDbLine
 10
-8.1088200549
 20
1.7
 30
0.0
 11
-8.1088200549
 21
1.8493
 31
0.0
  0
LINE
  5
26B
330
249
100
AcDbEntity
  8
0
  6
Continuous
 62
     7
370
    25
100
AcDbLine
 10
5.905511811
 20
1.85
 30
0.0
 11
0.0
 21
1.85
 31
0.0
  0
LINE
  5
26C
330
249
100
AcDbEntity
  8
0
  6
Continuous
 62
     7
370
    25
100
AcDbLine
 10
5.905511811
 20
1.7
 30
0.0
 11
5.905511811
 21
1.85
 31
0.0
  0
LINE
  5
26D
330
249
100
AcDbEntity
  8
0
  6
Continuous
 62
     7
370
    25
100
AcDbLine
 10
0.0
 20
1.7
 30
0.0
 11
0.0
 21
1.85
 31
0.0
  0
LINE
  5
26E
330
249
100
AcDbEntity
  8
0
  6
Continuous
 62
     7
370
    25
100
AcDbLine
 10
-11.3188976378
 20
-1.0
 30
0.0
 11
-11.3188976378
 21
1.7
 31
0.0
  0
LINE
  5
26F
330
249
100
AcDbEntity
  8
0
  6
Continuous
 62
     7
370
    25
100
AcDbLine
 10
-11.3188976378
 20
0.7
 30
0.0
 11
11.3188976378
 21
0.7
 31
0.0
  0
LINE
  5
270
330
249
100
AcDbEntity
  8
0
  6
Continuous
 62
     7
370
    25
100
AcDbLine
 10
11.3188976378
 20
-1.0
 30
0.0
 11
11.3188976378
 21
1.7
 31
0.0
  0
LINE
  5
271
330
249
100
AcDbEntity
  8
0
  6
Continuous
 62
     7
370
    25
100
AcDbLine
 10
-11.3188976378
 20
-0.1
 30
0.0
 11
11.3188976378
 21
-0.1
 31
0.0
  0
LINE
  5
272
330
249
100
AcDbEntity
  8
0
  6
Continuous
 62
     7
370
    25
100
AcDbLine
 10
-11.3188976378
 20
1.7
 30
0.0
 11
11.3188976378
 21
1.7
 31
0.0
  0
LINE
  5
273
330
249
100
AcDbEntity
  8
0
  6
Continuous
 62
     7
370
    25
100
AcDbLine
 10
11.3188976378
 20
-1.0
 30
0.0
 11
-11.3188976378
 21
-1.0
 31
0.0
  0
LINE
  5
274
330
249
100
AcDbEntity
  8
0
  6
Continuous
 62
     7
370
    25
100
AcDbLine
 10
8.3371387838
 20
-0.6467201115
 30
0.0
 11
8.3371387838
 21
-0.6306397809
 31
0.0
  0
LINE
  5
275
330
249
100
AcDbEntity
  8
0
  6
Continuous
 62
     7
370
    25
100
AcDbLine
 10
8.2887964982
 20
-0.6270028251
 30
0.0
 11
8.2887964982
 21
-0.643709342
 31
0.0
  0
LINE
  5
276
330
249
100
AcDbEntity
  8
0
  6
Continuous
 62
     7
370
    25
100
AcDbLine
 10
8.2418553528
 20
-0.52
 30
0.0
 11
8.3948335096
 21
-0.52
 31
0.0
  0
ARC
  5
277
330
249
100
AcDbEntity
  8
0
  6
Continuous
 62
     7
370
    25
100
AcDbCircle
 10
8.3188976378
 20
-0.55
 30
0.0
 40
0.0826771653543309
100
AcDbArc
 50
282.7460976086
 51
248.6489970227
  0
VIEWPORT
  5
659
330
249
100
AcDbEntity
  8
0
100
AcDbViewport
 10
0.0
 20
0.0
 30
0.0
 40
8.4
 41
6.4
 68
     1
 69
     1
 12
-0.0309744178
 22
0.1777086351
 13
0.0
 23
0.0
 14
0.5
 24
0.5
 15
0.5
 25
0.5
 16
0.0
 26
0.0
 36
1.0
 17
0.0
 27
0.0
 37
0.0
 42
50.0
 43
0.0
 44
0.0
 45
13.0078768576
 50
0.0
 51
0.0
 72
   100
 90
   557152
  1

281
     0
 71
     1
 74
     0
110
0.0
120
0.0
130
0.0
111
1.0
121
0.0
131
0.0
112
0.0
122
1.0
132
0.0
 79
     0
146
0.0
  0
ENDBLK
  5
24C
330
249
100
AcDbEntity
  8
0
100
AcDbBlockEnd
  0
BLOCK
  5
27A
330
278
100
AcDbEntity
  8
0
100
AcDbBlockBegin
  2
*Paper_Space2
 70
     0
 10
0.0
 20
0.0
 30
0.0
  3
*Paper_Space2
  1

  0
CIRCLE
  5
28D
330
278
100
AcDbEntity
  8
0
  6
Continuous
 62
     7
370
    25
100
AcDbCircle
 10
8.3188976378
 20
-0.55
 30
0.0
 40
0.0984251968503926
  0
CIRCLE
  5
28E
330
278
100
AcDbEntity
  8
0
  6
Continuous
 62
     7
370
    25
100
AcDbCircle
 10
0.0
 20
-0.55
 30
0.0
 40
0.0984251968503938
  0
CIRCLE
  5
28F
330
278
100
AcDbEntity
  8
0
  6
Continuous
 62
     7
370
    25
100
AcDbCircle
 10
8.3188976378
 20
-0.55
 30
0.0
 40
0.0826771653543314
  0
CIRCLE
  5
290
330
278
100
AcDbEntity
  8
0
  6
Continuous
 62
     7
370
    25
100
AcDbCircle
 10
0.0
 20
-0.55
 30
0.0
 40
0.0826771653543306
  0
CIRCLE
  5
291
330
278
100
AcDbEntity
  8
0
  6
Continuous
 62
     7
370
    25
100
AcDbCircle
 10
-8.3188976378
 20
-0.55
 30
0.0
 40
0.0902274546697939
  0
CIRCLE
  5
292
330
278
100
AcDbEntity
  8
0
  6
Continuous
 62
     7
370
    25
100
AcDbCircle
 10
-8.3188976378
 20
-0.55
 30
0.0
 40
0.1312423109143896
  0
CIRCLE
  5
293
330
278
100
AcDbEntity
  8
0
  6
Continuous
 62
     7
370
    25
100
AcDbCircle
 10
-8.3188976378
 20
-0.55
 30
0.0
 40
0.0492125984251963
  0
CIRCLE
  5
294
330
278
100
AcDbEntity
  8
0
  6
Continuous
 62
     7
370
    25
100
AcDbCircle
 10
-8.3188976378
 20
-0.55
 30
0.0
 40
0.2124043820077652
  0
LINE
  5
295
330
278
100
AcDbEntity
  8
0
  6
Continuous
 62
     7
370
    25
100
AcDbLine
 10
2.2033082439
 20
1.8493
 30
0.0
 11
8.1088200549
 21
1.8493
 31
0.0
  0
LINE
  5
296
330
278
100
AcDbEntity
  8
0
  6
Continuous
 62
     7
370
    25
100
AcDbLine
 10
2.2033082439
 20
1.8493
 30
0.0
 11
2.2033082439
 21
1.7
 31
0.0
  0
LINE
  5
297
330
278
100
AcDbEntity
  8
0
  6
Continuous
 62
     7
370
    25
100
AcDbLine
 10
8.1088200549
 20
1.8493
 30
0.0
 11
8.1088200549
 21
1.7
 31
0.0
  0
LINE
  5
298
330
278
100
AcDbEntity
  8
0
  6
Continuous
 62
     7
370
    25
100
AcDbLine
 10
-5.905511811
 20
1.85
 30
0.0
 11
0.0
 21
1.85
 31
0.0
  0
LINE
  5
299
330
278
100
AcDbEntity
  8
0
  6
Continuous
 62
     7
370
    25
100
AcDbLine
 10
-5.905511811
 20
1.85
 30
0.0
 11
-5.905511811
 21
1.7
 31
0.0
  0
LINE
  5
29A
330
278
100
AcDbEntity
  8
0
  6
Continuous
 62
     7
370
    25
100
AcDbLine
 10
0.0
 20
1.85
 30
0.0
 11
0.0
 21
1.7
 31
0.0
  0
LINE
  5
29B
330
278
100
AcDbEntity
  8
0
  6
Continuous
 62
     7
370
    25
100
AcDbLine
 10
-11.3188976378
 20
-1.0
 30
0.0
 11
-11.3188976378
 21
1.7
 31
0.0
  0
LINE
  5
29C
330
278
100
AcDbEntity
  8
0
  6
Continuous
 62
     7
370
    25
100
AcDbLine
 10
-11.3188976378
 20
0.7
 30
0.0
 11
11.3188976378
 21
0.7
 31
0.0
  0
LINE
  5
29D
330
278
100
AcDbEntity
  8
0
  6
Continuous
 62
     7
370
    25
100
AcDbLine
 10
11.3188976378
 20
-1.0
 30
0.0
 11
11.3188976378
 21
1.7
 31
0.0
  0
LINE
  5
29E
330
278
100
AcDbEntity
  8
0
  6
Continuous
 62
     7
370
    25
100
AcDbLine
 10
-11.3188976378
 20
-0.1
 30
0.0
 11
11.3188976378
 21
-0.1
 31
0.0
  0
LINE
  5
29F
330
278
100
AcDbEntity
  8
0
  6
Continuous
 62
     7
370
    25
100
AcDbLine
 10
-11.3188976378
 20
1.7
 30
0.0
 11
11.3188976378
 21
1.7
 31
0.0
  0
LINE
  5
2A0
330
278
100
AcDbEntity
  8
0
  6
Continuous
 62
     7
370
    25
100
AcDbLine
 10
-11.3188976378
 20
-1.0
 30
0.0
 11
11.3188976378
 21
-1.0
 31
0.0
  0
VIEWPORT
  5
65B
330
278
100
AcDbEntity
  8
0
100
AcDbViewport
 10
0.0
 20
0.0
 30
0.0
 40
8.4
 41
6.4
 68
     1
 69
     1
 12
-0.0309744178
 22
0.1777086351
 13
0.0
 23
0.0
 14
0.5
 24
0.5
 15
0.5
 25
0.5
 16
0.0
 26
0.0
 36
1.0
 17
0.0
 27
0.0
 37
0.0
 42
50.0
 43
0.0
 44
0.0
 45
13.0078768576
 50
0.0
 51
0.0
 72
   100
 90
   557152
  1

281
     0
 71
     1
 74
     0
110
0.0
120
0.0
130
0.0
111
1.0
121
0.0
131
0.0
112
0.0
122
1.0
132
0.0
 79
     0
146
0.0
  0
ENDBLK
  5
27B
330
278
100
AcDbEntity
  8
0
100
AcDbBlockEnd
  0
BLOCK
  5
2A3
330
2A1
100
AcDbEntity
  8
0
100
AcDbBlockBegin
  2
*Paper_Space3
 70
     0
 10
0.0
 20
0.0
 30
0.0
  3
*Paper_Space3
  1

  0
CIRCLE
  5
2B1
330
2A1
100
AcDbEntity
  8
0
  6
Continuous
 62
     7
370
    25
100
AcDbCircle
 10
2.0
 20
3.1560641537
 30
0.0
 40
0.0794999999999999
  0
CIRCLE
  5
2B2
330
2A1
100
AcDbEntity
  8
0
  6
Continuous
 62
     7
370
    25
100
AcDbCircle
 10
2.0
 20
7.1560641451
 30
0.0
 40
0.0795000000000003
  0
CIRCLE
  5
2B3
330
2A1
100
AcDbEntity
  8
0
  6
Continuous
 62
     7
370
    25
100
AcDbCircle
 10
0.0
 20
5.1560641494
 30
0.0
 40
0.0795000000000003
  0
CIRCLE
  5
2B4
330
2A1
100
AcDbEntity
  8
0
  6
Continuous
 62
     7
370
    25
100
AcDbCircle
 10
-2.0
 20
3.1560641537
 30
0.0
 40
0.0794999999999999
  0
CIRCLE
  5
2B5
330
2A1
100
AcDbEntity
  8
0
  6
Continuous
 62
     7
370
    25
100
AcDbCircle
 10
-2.0
 20
7.1560641451
 30
0.0
 40
0.0795000000000003
  0
CIRCLE
  5
2B6
330
2A1
100
AcDbEntity
  8
0
  6
Continuous
 62
     7
370
    25
100
AcDbCircle
 10
0.0
 20
7.1560641451
 30
0.0
 40
0.0492125984251972
  0
CIRCLE
  5
2B7
330
2A1
100
AcDbEntity
  8
0
  6
Continuous
 62
     7
370
    25
100
AcDbCircle
 10
-2.0
 20
5.1560641494
 30
0.0
 40
0.0492125984251972
  0
CIRCLE
  5
2B8
330
2A1
100
AcDbEntity
  8
0
  6
Continuous
 62
     7
370
    25
100
AcDbCircle
 10
0.0
 20
3.1560641537
 30
0.0
 40
0.0492125984251959
  0
CIRCLE
  5
2B9
330
2A1
100
AcDbEntity
  8
0
  6
Continuous
 62
     7
370
    25
100
AcDbCircle
 10
2.0
 20
5.1560641494
 30
0.0
 40
0.0492125984251972
  0
CIRCLE
  5
2C3
330
2A1
100
AcDbEntity
  8
0
  6
Continuous
 62
     7
370
    25
100
AcDbCircle
 10
2.0
 20
-4.9527559012
 30
0.0
 40
0.0794999999999995
  0
CIRCLE
  5
2C4
330
2A1
100
AcDbEntity
  8
0
  6
Continuous
 62
     7
370
    25
100
AcDbCircle
 10
2.0
 20
-0.9527559098
 30
0.0
 40
0.0795
  0
CIRCLE
  5
2C5
330
2A1
100
AcDbEntity
  8
0
  6
Continuous
 62
     7
370
    25
100
AcDbCircle
 10
0.0
 20
-2.9527559055
 30
0.0
 40
0.0794999999999999
  0
CIRCLE
  5
2C6
330
2A1
100
AcDbEntity
  8
0
  6
Continuous
 62
     7
370
    25
100
AcDbCircle
 10
-2.0
 20
-4.9527559012
 30
0.0
 40
0.0794999999999995
  0
CIRCLE
  5
2C7
330
2A1
100
AcDbEntity
  8
0
  6
Continuous
 62
     7
370
    25
100
AcDbCircle
 10
-2.0
 20
-0.9527559098
 30
0.0
 40
0.0794999999999999
  0
CIRCLE
  5
2C8
330
2A1
100
AcDbEntity
  8
0
  6
Continuous
 62
     7
370
    25
100
AcDbCircle
 10
0.0
 20
-0.9527559098
 30
0.0
 40
0.0492125984251969
  0
CIRCLE
  5
2C9
330
2A1
100
AcDbEntity
  8
0
  6
Continuous
 62
     7
370
    25
100
AcDbCircle
 10
-2.0
 20
-2.9527559055
 30
0.0
 40
0.0492125984251972
  0
CIRCLE
  5
2CA
330
2A1
100
AcDbEntity
  8
0
  6
Continuous
 62
     7
370
    25
100
AcDbCircle
 10
0.0
 20
-4.9527559012
 30
0.0
 40
0.0492125984251963
  0
CIRCLE
  5
2CB
330
2A1
100
AcDbEntity
  8
0
  6
Continuous
 62
     7
370
    25
100
AcDbCircle
 10
2.0
 20
-2.9527559055
 30
0.0
 40
0.0492125984251968
  0
LINE
  5
2E8
330
2A1
100
AcDbEntity
  8
0
  6
Continuous
 62
     7
370
    25
100
AcDbLine
 10
5.5
 20
-8.5313020198
 30
0.0
 11
5.5870707253
 21
-8.5313020198
 31
0.0
  0
LINE
  5
2E9
330
2A1
100
AcDbEntity
  8
0
  6
Continuous
 62
     7
370
    25
100
AcDbLine
 10
5.5870707253
 20
-8.1064932558
 30
0.0
 11
5.5
 21
-8.1064932558
 31
0.0
  0
LINE
  5
2EA
330
2A1
100
AcDbEntity
  8
0
  6
Continuous
 62
     7
370
    25
100
AcDbLine
 10
5.8484810218
 20
-8.4501399487
 30
0.0
 11
5.9598455047
 21
-8.4501399487
 31
0.0
  0
LINE
  5
2EB
330
2A1
100
AcDbEntity
  8
0
  6
Continuous
 62
     7
370
    25
100
AcDbLine
 10
5.9598455047
 20
-8.1876553269
 30
0.0
 11
5.8484810218
 21
-8.1876553269
 31
0.0
  0
LINE
  5
2EC
330
2A1
100
AcDbEntity
  8
0
  6
Continuous
 62
     7
370
    25
100
AcDbLine
 10
5.9598455047
 20
-8.4501399487
 30
0.0
 11
6.0755929704
 21
-8.4091250925
 31
0.0
  0
LINE
  5
2ED
330
2A1
100
AcDbEntity
  8
0
  6
Continuous
 62
     7
370
    25
100
AcDbLine
 10
6.0755929704
 20
-8.2286701831
 30
0.0
 11
5.9598455047
 21
-8.1876553269
 31
0.0
  0
LINE
  5
2EE
330
2A1
100
AcDbEntity
  8
0
  6
Continuous
 62
     7
370
    25
100
AcDbLine
 10
5.8484810218
 20
-8.1876553269
 30
0.0
 11
5.8349894402
 21
-8.2011469084
 31
0.0
  0
LINE
  5
2EF
330
2A1
100
AcDbEntity
  8
0
  6
Continuous
 62
     7
370
    25
100
AcDbLine
 10
5.8349894402
 20
-8.4366483672
 30
0.0
 11
5.8484810218
 21
-8.4501399487
 31
0.0
  0
LINE
  5
2F0
330
2A1
100
AcDbEntity
  8
0
  6
Continuous
 62
     7
370
    25
100
AcDbLine
 10
5.5870707253
 20
-8.4366483672
 30
0.0
 11
5.8349894402
 21
-8.4366483672
 31
0.0
  0
LINE
  5
2F1
330
2A1
100
AcDbEntity
  8
0
  6
Continuous
 62
     7
370
    25
100
AcDbLine
 10
5.8349894402
 20
-8.2011469084
 30
0.0
 11
5.5870707253
 21
-8.2011469084
 31
0.0
  0
LINE
  5
2F2
330
2A1
100
AcDbEntity
  8
0
  6
Continuous
 62
     7
370
    25
100
AcDbLine
 10
-2.9727559098
 20
2.2033082439
 30
0.0
 11
2.9727559098
 21
2.2033082439
 31
0.0
  0
LINE
  5
2F3
330
2A1
100
AcDbEntity
  8
0
  6
Continuous
 62
     7
370
    25
100
AcDbLine
 10
-2.9527559098
 20
2.2033082439
 30
0.0
 11
-2.9527559098
 21
8.1088200549
 31
0.0
  0
LINE
  5
2F4
330
2A1
100
AcDbEntity
  8
0
  6
Continuous
 62
     7
370
    25
100
AcDbLine
 10
-2.9727559098
 20
8.1088200549
 30
0.0
 11
2.9727559098
 21
8.1088200549
 31
0.0
  0
LINE
  5
2F5
330
2A1
100
AcDbEntity
  8
0
  6
Continuous
 62
     7
370
    25
100
AcDbLine
 10
2.9527559098
 20
2.2033082439
 30
0.0
 11
2.9527559098
 21
8.1088200549
 31
0.0
  0
LINE
  5
2F6
330
2A1
100
AcDbEntity
  8
0
  6
Continuous
 62
     7
370
    25
100
AcDbLine
 10
-2.9727559098
 20
-5.905511811
 30
0.0
 11
2.9727559098
 21
-5.905511811
 31
0.0
  0
LINE
  5
2F7
330
2A1
100
AcDbEntity
  8
0
  6
Continuous
 62
     7
370
    25
100
AcDbLine
 10
-2.9527559098
 20
-5.905511811
 30
0.0
 11
-2.9527559098
 21
0.0
 31
0.0
  0
LINE
  5
2F8
330
2A1
100
AcDbEntity
  8
0
  6
Continuous
 62
     7
370
    25
100
AcDbLine
 10
-2.9727559098
 20
0.0
 30
0.0
 11
2.9727559098
 21
0.0
 31
0.0
  0
LINE
  5
2F9
330
2A1
100
AcDbEntity
  8
0
  6
Continuous
 62
     7
370
    25
100
AcDbLine
 10
2.9527559098
 20
-5.905511811
 30
0.0
 11
2.9527559098
 21
0.0
 31
0.0
  0
LINE
  5
2FA
330
2A1
100
AcDbEntity
  8
0
  6
Continuous
 62
     7
370
    25
100
AcDbLine
 10
-4.5
 20
11.3188976378
 30
0.0
 11
-4.5
 21
-11.3188976378
 31
0.0
  0
LINE
  5
2FB
330
2A1
100
AcDbEntity
  8
0
  6
Continuous
 62
     7
370
    25
100
AcDbLine
 10
-2.9727559098
 20
11.3188976378
 30
0.0
 11
-2.9727559098
 21
-11.3188976378
 31
0.0
  0
LINE
  5
2FC
330
2A1
100
AcDbEntity
  8
0
  6
Continuous
 62
     7
370
    25
100
AcDbLine
 10
-5.5
 20
11.3188976378
 30
0.0
 11
-5.5
 21
-11.3188976378
 31
0.0
  0
LINE
  5
2FD
330
2A1
100
AcDbEntity
  8
0
  6
Continuous
 62
     7
370
    25
100
AcDbLine
 10
5.5
 20
-11.3188976378
 30
0.0
 11
-5.5
 21
-11.3188976378
 31
0.0
  0
LINE
  5
2FE
330
2A1
100
AcDbEntity
  8
0
  6
Continuous
 62
     7
370
    25
100
AcDbLine
 10
2.9727559098
 20
-11.3188976378
 30
0.0
 11
2.9727559098
 21
11.3188976378
 31
0.0
  0
LINE
  5
2FF
330
2A1
100
AcDbEntity
  8
0
  6
Continuous
 62
     7
370
    25
100
AcDbLine
 10
5.5
 20
11.3188976378
 30
0.0
 11
-5.5
 21
11.3188976378
 31
0.0
  0
LINE
  5
300
330
2A1
100
AcDbEntity
  8
0
  6
Continuous
 62
     7
370
    25
100
AcDbLine
 10
4.5
 20
-11.3188976378
 30
0.0
 11
4.5
 21
11.3188976378
 31
0.0
  0
LINE
  5
301
330
2A1
100
AcDbEntity
  8
0
  6
Continuous
 62
     7
370
    25
100
AcDbLine
 10
5.5
 20
-11.3188976378
 30
0.0
 11
5.5
 21
11.3188976378
 31
0.0
  0
LINE
  5
302
330
2A1
100
AcDbEntity
  8
0
  6
Continuous
 62
     7
370
    25
100
AcDbLine
 10
-2.9727559098
 20
10.0688976378
 30
0.0
 11
2.9727559098
 21
10.0688976378
 31
0.0
  0
LINE
  5
303
330
2A1
100
AcDbEntity
  8
0
  6
Continuous
 62
     7
370
    25
100
AcDbLine
 10
2.9727559098
 20
-10.0688976378
 30
0.0
 11
-2.9727559098
 21
-10.0688976378
 31
0.0
  0
LINE
  5
304
330
2A1
100
AcDbEntity
  8
0
  6
Continuous
 62
     7
370
    25
100
AcDbLine
 10
5.5870707253
 20
-8.5313020198
 30
0.0
 11
5.5870707253
 21
-8.1064932558
 31
0.0
  0
LINE
  5
305
330
2A1
100
AcDbEntity
  8
0
  6
Continuous
 62
     7
370
    25
100
AcDbLine
 10
5.9598455047
 20
-8.4501399487
 30
0.0
 11
5.9598455047
 21
-8.1876553269
 31
0.0
  0
LINE
  5
306
330
2A1
100
AcDbEntity
  8
0
  6
Continuous
 62
     7
370
    25
100
AcDbLine
 10
5.8484810218
 20
-8.4501399487
 30
0.0
 11
5.8484810218
 21
-8.1876553269
 31
0.0
  0
LINE
  5
307
330
2A1
100
AcDbEntity
  8
0
  6
Continuous
 62
     7
370
    25
100
AcDbLine
 10
6.0755929704
 20
-8.4091250925
 30
0.0
 11
6.0755929704
 21
-8.2286701831
 31
0.0
  0
LINE
  5
308
330
2A1
100
AcDbEntity
  8
0
  6
Continuous
 62
     7
370
    25
100
AcDbLine
 10
5.8349894402
 20
-8.4366483672
 30
0.0
 11
5.8349894402
 21
-8.2011469084
 31
0.0
  0
VIEWPORT
  5
65D
330
2A1
100
AcDbEntity
  8
0
100
AcDbViewport
 10
0.0
 20
0.0
 30
0.0
 40
8.4
 41
6.4
 68
     1
 69
     1
 12
-0.0309744178
 22
0.1777086351
 13
0.0
 23
0.0
 14
0.5
 24
0.5
 15
0.5
 25
0.5
 16
0.0
 26
0.0
 36
1.0
 17
0.0
 27
0.0
 37
0.0
 42
50.0
 43
0.0
 44
0.0
 45
13.0078768576
 50
0.0
 51
0.0
 72
   100
 90
   557152
  1

281
     0
 71
     1
 74
     0
110
0.0
120
0.0
130
0.0
111
1.0
121
0.0
131
0.0
112
0.0
122
1.0
132
0.0
 79
     0
146
0.0
  0
ENDBLK
  5
2A4
330
2A1
100
AcDbEntity
  8
0
100
AcDbBlockEnd
  0
BLOCK
  5
30B
330
309
100
AcDbEntity
  8
0
100
AcDbBlockBegin
  2
*Paper_Space4
 70
     0
 10
0.0
 20
0.0
 30
0.0
  3
*Paper_Space4
  1

  0
CIRCLE
  5
317
330
309
100
AcDbEntity
  8
0
  6
Continuous
 62
     7
370
    25
100
AcDbCircle
 10
-5.0258749578
 20
1.4763779528
 30
0.0
 40
0.0826771653543303
  0
CIRCLE
  5
318
330
309
100
AcDbEntity
  8
0
  6
Continuous
 62
     7
370
    25
100
AcDbCircle
 10
-5.0258749578
 20
4.4291338583
 30
0.0
 40
0.0826771653543306
  0
CIRCLE
  5
319
330
309
100
AcDbEntity
  8
0
  6
Continuous
 62
     7
370
    25
100
AcDbCircle
 10
-5.0258749578
 20
7.3818897638
 30
0.0
 40
0.0826771653543323
  0
CIRCLE
  5
31A
330
309
100
AcDbEntity
  8
0
  6
Continuous
 62
     7
370
    25
100
AcDbCircle
 10
-5.0258749578
 20
10.3346456693
 30
0.0
 40
0.0826771653543297
  0
CIRCLE
  5
31B
330
309
100
AcDbEntity
  8
0
  6
Continuous
 62
     7
370
    25
100
AcDbCircle
 10
5.0258749578
 20
10.3346456693
 30
0.0
 40
0.0826771653543297
  0
CIRCLE
  5
31C
330
309
100
AcDbEntity
  8
0
  6
Continuous
 62
     7
370
    25
100
AcDbCircle
 10
5.0258749578
 20
7.3818897638
 30
0.0
 40
0.0826771653543306
  0
CIRCLE
  5
31D
330
309
100
AcDbEntity
  8
0
  6
Continuous
 62
     7
370
    25
100
AcDbCircle
 10
5.0258749578
 20
4.4291338583
 30
0.0
 40
0.0826771653543306
  0
CIRCLE
  5
31E
330
309
100
AcDbEntity
  8
0
  6
Continuous
 62
     7
370
    25
100
AcDbCircle
 10
5.0258749578
 20
1.4763779528
 30
0.0
 40
0.0826771653543301
  0
CIRCLE
  5
31F
330
309
100
AcDbEntity
  8
0
  6
Continuous
 62
     7
370
    25
100
AcDbCircle
 10
5.0258749578
 20
-1.4763779528
 30
0.0
 40
0.0826771653543303
  0
CIRCLE
  5
320
330
309
100
AcDbEntity
  8
0
  6
Continuous
 62
     7
370
    25
100
AcDbCircle
 10
5.0258749578
 20
-4.4291338583
 30
0.0
 40
0.0826771653543306
  0
CIRCLE
  5
321
330
309
100
AcDbEntity
  8
0
  6
Continuous
 62
     7
370
    25
100
AcDbCircle
 10
5.0258749578
 20
-7.3818897638
 30
0.0
 40
0.0826771653543323
  0
CIRCLE
  5
322
330
309
100
AcDbEntity
  8
0
  6
Continuous
 62
     7
370
    25
100
AcDbCircle
 10
5.0258749578
 20
-10.3346456693
 30
0.0
 40
0.0826771653543297
  0
CIRCLE
  5
325
330
309
100
AcDbEntity
  8
0
  6
Continuous
 62
     7
370
    25
100
AcDbCircle
 10
5.0258749578
 20
-9.5688976378
 30
0.0
 40
0.0492125984251963
  0
CIRCLE
  5
326
330
309
100
AcDbEntity
  8
0
  6
Continuous
 62
     7
370
    25
100
AcDbCircle
 10
5.0258749578
 20
9.5688976378
 30
0.0
 40
0.0492125984251963
  0
CIRCLE
  5
327
330
309
100
AcDbEntity
  8
0
  6
Continuous
 62
     7
370
    25
100
AcDbCircle
 10
-5.0309350297
 20
2.3418331406
 30
0.0
 40
0.0826771653543306
  0
CIRCLE
  5
328
330
309
100
AcDbEntity
  8
0
  6
Continuous
 62
     7
370
    25
100
AcDbCircle
 10
-5.0309350297
 20
5.3569604626
 30
0.0
 40
0.0826771653543314
  0
CIRCLE
  5
329
330
309
100
AcDbEntity
  8
0
  6
Continuous
 62
     7
370
    25
100
AcDbCircle
 10
-5.0309350297
 20
8.312967641
 30
0.0
 40
0.0826771653543332
  0
CIRCLE
  5
32A
330
309
100
AcDbEntity
  8
0
  6
Continuous
 62
     7
370
    25
100
AcDbCircle
 10
5.0194893769
 20
11.1211744605
 30
0.0
 40
0.0826771653543314
  0
CIRCLE
  5
32B
330
309
100
AcDbEntity
  8
0
  6
Continuous
 62
     7
370
    25
100
AcDbCircle
 10
5.0194893769
 20
8.1356072103
 30
0.0
 40
0.0826771653543314
  0
CIRCLE
  5
32C
330
309
100
AcDbEntity
  8
0
  6
Continuous
 62
     7
370
    25
100
AcDbCircle
 10
5.0194893769
 20
5.3569604626
 30
0.0
 40
0.0826771653543314
  0
CIRCLE
  5
32D
330
309
100
AcDbEntity
  8
0
  6
Continuous
 62
     7
370
    25
100
AcDbCircle
 10
5.0194893769
 20
2.3418331406
 30
0.0
 40
0.0826771653543314
  0
CIRCLE
  5
32E
330
309
100
AcDbEntity
  8
0
  6
Continuous
 62
     7
370
    25
100
AcDbCircle
 10
-5.0258749578
 20
0.9842519685
 30
0.0
 40
0.240944881889762
  0
CIRCLE
  5
32F
330
309
100
AcDbEntity
  8
0
  6
Continuous
 62
     7
370
    25
100
AcDbCircle
 10
-5.0258749578
 20
3.937007874
 30
0.0
 40
0.2409448818897624
  0
CIRCLE
  5
330
330
309
100
AcDbEntity
  8
0
  6
Continuous
 62
     7
370
    25
100
AcDbCircle
 10
-5.0258749578
 20
6.8897637795
 30
0.0
 40
0.2409448818897637
  0
CIRCLE
  5
331
330
309
100
AcDbEntity
  8
0
  6
Continuous
 62
     7
370
    25
100
AcDbCircle
 10
5.0258749578
 20
-10.3346456693
 30
0.0
 40
0.2409448818897655
  0
CIRCLE
  5
332
330
309
100
AcDbEntity
  8
0
  6
Continuous
 62
     7
370
    25
100
AcDbCircle
 10
5.0258749578
 20
-7.3818897638
 30
0.0
 40
0.2409448818897619
  0
CIRCLE
  5
333
330
309
100
AcDbEntity
  8
0
  6
Continuous
 62
     7
370
    25
100
AcDbCircle
 10
5.0258749578
 20
-4.4291338583
 30
0.0
 40
0.2409448818897619
  0
CIRCLE
  5
334
330
309
100
AcDbEntity
  8
0
  6
Continuous
 62
     7
370
    25
100
AcDbCircle
 10
5.0258749578
 20
-1.4763779528
 30
0.0
 40
0.240944881889763
  0
CIRCLE
  5
335
330
309
100
AcDbEntity
  8
0
  6
Continuous
 62
     7
370
    25
100
AcDbCircle
 10
5.0258749578
 20
1.4763779528
 30
0.0
 40
0.240944881889763
  0
CIRCLE
  5
336
330
309
100
AcDbEntity
  8
0
  6
Continuous
 62
     7
370
    25
100
AcDbCircle
 10
-5.0258749578
 20
1.4770072771
 30
0.0
 40
0.2409448818897622
  0
CIRCLE
  5
337
330
309
100
AcDbEntity
  8
0
  6
Continuous
 62
     7
370
    25
100
AcDbCircle
 10
-5.0258749578
 20
4.4297631826
 30
0.0
 40
0.2409448818897619
  0
CIRCLE
  5
338
330
309
100
AcDbEntity
  8
0
  6
Continuous
 62
     7
370
    25
100
AcDbCircle
 10
-5.0258749578
 20
7.3825190881
 30
0.0
 40
0.2409448818897646
  0
CIRCLE
  5
339
330
309
100
AcDbEntity
  8
0
  6
Continuous
 62
     7
370
    25
100
AcDbCircle
 10
-5.0258749578
 20
10.3352749936
 30
0.0
 40
0.2409448818897655
  0
CIRCLE
  5
33A
330
309
100
AcDbEntity
  8
0
  6
Continuous
 62
     7
370
    25
100
AcDbCircle
 10
5.0258749578
 20
10.3346456693
 30
0.0
 40
0.2409448818897637
  0
CIRCLE
  5
33B
330
309
100
AcDbEntity
  8
0
  6
Continuous
 62
     7
370
    25
100
AcDbCircle
 10
5.0258749578
 20
7.3818897638
 30
0.0
 40
0.2409448818897628
  0
CIRCLE
  5
33C
330
309
100
AcDbEntity
  8
0
  6
Continuous
 62
     7
370
    25
100
AcDbCircle
 10
5.0258749578
 20
4.4291338583
 30
0.0
 40
0.2409448818897637
  0
CIRCLE
  5
343
330
309
100
AcDbEntity
  8
0
  6
Continuous
 62
     7
370
    25
100
AcDbCircle
 10
-5.0258749578
 20
-9.5688976378
 30
0.0
 40
0.0492125984251963
  0
CIRCLE
  5
344
330
309
100
AcDbEntity
  8
0
  6
Continuous
 62
     7
370
    25
100
AcDbCircle
 10
5.0258749578
 20
-10.3346456693
 30
0.0
 40
0.1043307086614149
  0
CIRCLE
  5
345
330
309
100
AcDbEntity
  8
0
  6
Continuous
 62
     7
370
    25
100
AcDbCircle
 10
5.0258749578
 20
-7.3818897638
 30
0.0
 40
0.1043307086614158
  0
CIRCLE
  5
346
330
309
100
AcDbEntity
  8
0
  6
Continuous
 62
     7
370
    25
100
AcDbCircle
 10
5.0258749578
 20
-4.4291338583
 30
0.0
 40
0.1043307086614158
  0
CIRCLE
  5
347
330
309
100
AcDbEntity
  8
0
  6
Continuous
 62
     7
370
    25
100
AcDbCircle
 10
5.0258749578
 20
-1.4763779528
 30
0.0
 40
0.1043307086614169
  0
CIRCLE
  5
348
330
309
100
AcDbEntity
  8
0
  6
Continuous
 62
     7
370
    25
100
AcDbCircle
 10
-5.0258749578
 20
0.9842519685
 30
0.0
 40
0.104330708661417
  0
CIRCLE
  5
349
330
309
100
AcDbEntity
  8
0
  6
Continuous
 62
     7
370
    25
100
AcDbCircle
 10
5.0258749578
 20
1.4763779528
 30
0.0
 40
0.1043307086614169
  0
CIRCLE
  5
34A
330
309
100
AcDbEntity
  8
0
  6
Continuous
 62
     7
370
    25
100
AcDbCircle
 10
-5.0258749578
 20
1.4770072771
 30
0.0
 40
0.1043307086614169
  0
CIRCLE
  5
34B
330
309
100
AcDbEntity
  8
0
  6
Continuous
 62
     7
370
    25
100
AcDbCircle
 10
-5.0258749578
 20
3.937007874
 30
0.0
 40
0.1043307086614171
  0
CIRCLE
  5
34C
330
309
100
AcDbEntity
  8
0
  6
Continuous
 62
     7
370
    25
100
AcDbCircle
 10
-5.0258749578
 20
4.4297631826
 30
0.0
 40
0.1043307086614158
  0
CIRCLE
  5
34D
330
309
100
AcDbEntity
  8
0
  6
Continuous
 62
     7
370
    25
100
AcDbCircle
 10
5.0258749578
 20
4.4291338583
 30
0.0
 40
0.1043307086614158
  0
CIRCLE
  5
34E
330
309
100
AcDbEntity
  8
0
  6
Continuous
 62
     7
370
    25
100
AcDbCircle
 10
-5.0258749578
 20
6.8897637795
 30
0.0
 40
0.1043307086614158
  0
CIRCLE
  5
34F
330
309
100
AcDbEntity
  8
0
  6
Continuous
 62
     7
370
    25
100
AcDbCircle
 10
-5.0258749578
 20
7.3825190881
 30
0.0
 40
0.1043307086614176
  0
CIRCLE
  5
350
330
309
100
AcDbEntity
  8
0
  6
Continuous
 62
     7
370
    25
100
AcDbCircle
 10
5.0258749578
 20
7.3818897638
 30
0.0
 40
0.1043307086614158
  0
CIRCLE
  5
351
330
309
100
AcDbEntity
  8
0
  6
Continuous
 62
     7
370
    25
100
AcDbCircle
 10
-5.0258749578
 20
9.842519685
 30
0.0
 40
0.1043307086614185
  0
CIRCLE
  5
353
330
309
100
AcDbEntity
  8
0
  6
Continuous
 62
     7
370
    25
100
AcDbCircle
 10
5.0258749578
 20
10.3346456693
 30
0.0
 40
0.1043307086614167
  0
CIRCLE
  5
354
330
309
100
AcDbEntity
  8
0
  6
Continuous
 62
     7
370
    25
100
AcDbCircle
 10
-5.0258749578
 20
10.3352749936
 30
0.0
 40
0.1043307086614185
  0
SPLINE
  5
355
330
309
100
AcDbEntity
  8
0
  6
Continuous
 62
     7
370
    25
100
AcDbSpline
210
0.0
220
0.0
230
1.0
 70
     8
 71
     3
 72
    12
 73
     8
 74
     0
 42
0.00000001
 43
0.00000001
 40
0.0
 40
0.0
 40
0.0
 40
0.0
 40
0.2500000000000002
 40
0.2500000000000002
 40
0.5000000000000003
 40
0.5000000000000003
 40
1.0
 40
1.0
 40
1.0
 40
1.0
 10
-5.02
 20
8.245922352232052
 30
0.0
 10
-5.024488866543199
 20
8.246260264565619
 30
0.0
 10
-5.029017788354492
 20
8.246410330661242
 30
0.0
 10
-5.038171740484832
 20
8.246232350562794
 30
0.0
 10
-5.042759086882421
 20
8.245903556983594
 30
0.0
 10
-5.056083573316673
 20
8.244516624189261
 30
0.0
 10
-5.064644606134374
 20
8.243119923119792
 30
0.0
 10
-5.073107961069472
 20
8.241855352840664
 30
0.0
  0
SPLINE
  5
358
330
309
100
AcDbEntity
  8
0
  6
Continuous
 62
     7
370
    25
100
AcDbSpline
210
0.0
220
0.0
230
1.0
 70
     8
 71
     3
 72
    24
 73
    20
 74
     0
 42
0.00000001
 43
0.00000001
 40
0.0
 40
0.0
 40
0.0
 40
0.0
 40
0.2500000000000113
 40
0.2500000000000113
 40
0.3750000000000244
 40
0.3750000000000244
 40
0.4375000000000216
 40
0.4375000000000216
 40
0.5000000000000189
 40
0.5000000000000189
 40
0.5625000000000161
 40
0.5625000000000161
 40
0.6250000000000134
 40
0.6250000000000134
 40
0.6875000000000107
 40
0.6875000000000107
 40
0.7500000000000079
 40
0.7500000000000079
 40
1.0
 40
1.0
 40
1.0
 40
1.0
 10
-5.019381102592194
 20
8.394833509615207
 30
0.0
 10
-5.014444537811374
 20
8.383499411824111
 30
0.0
 10
-5.010310300450074
 20
8.371854819436209
 30
0.0
 10
-5.007452339484119
 20
8.353593913966648
 30
0.0
 10
-5.007100338764938
 20
8.347331388925253
 30
0.0
 10
-5.007625844011218
 20
8.337850916927268
 30
0.0
 10
-5.007968813792761
 20
8.334700035689368
 30
0.0
 10
-5.008888547748149
 20
8.32835763320123
 30
0.0
 10
-5.009474184769029
 20
8.325157746898938
 30
0.0
 10
-5.010598808300335
 20
8.318585109834812
 30
0.0
 10
-5.011122766015661
 20
8.31514146072517
 30
0.0
 10
-5.011554964694732
 20
8.308144290704512
 30
0.0
 10
-5.011470181039102
 20
8.304741106309526
 30
0.0
 10
-5.011245066960009
 20
8.298062216644885
 30
0.0
 10
-5.011123422451774
 20
8.294841689371552
 30
0.0
 10
-5.011114297590572
 20
8.28847283388069
 30
0.0
 10
-5.011218875418124
 20
8.285330292221914
 30
0.0
 10
-5.012420892594949
 20
8.269724088962706
 30
0.0
 10
-5.015658012102542
 20
8.25756117535871
 30
0.0
 10
-5.02
 20
8.245922352232052
 30
0.0
  0
LINE
  5
35E
330
309
100
AcDbEntity
  8
0
  6
Continuous
 62
     7
370
    25
100
AcDbLine
 10
5.5
 20
8.1064932558
 30
0.0
 11
5.5870707253
 21
8.1064932558
 31
0.0
  0
LINE
  5
35F
330
309
100
AcDbEntity
  8
0
  6
Continuous
 62
     7
370
    25
100
AcDbLine
 10
5.5870707253
 20
8.5313020198
 30
0.0
 11
5.5
 21
8.5313020198
 31
0.0
  0
LINE
  5
360
330
309
100
AcDbEntity
  8
0
  6
Continuous
 62
     7
370
    25
100
AcDbLine
 10
5.9598455047
 20
8.1876553269
 30
0.0
 11
6.0755929704
 21
8.2286701831
 31
0.0
  0
LINE
  5
361
330
309
100
AcDbEntity
  8
0
  6
Continuous
 62
     7
370
    25
100
AcDbLine
 10
6.0755929704
 20
8.4091250925
 30
0.0
 11
5.9598455047
 21
8.4501399487
 31
0.0
  0
LINE
  5
362
330
309
100
AcDbEntity
  8
0
  6
Continuous
 62
     7
370
    25
100
AcDbLine
 10
5.8484810218
 20
8.1876553269
 30
0.0
 11
5.9598455047
 21
8.1876553269
 31
0.0
  0
LINE
  5
363
330
309
100
AcDbEntity
  8
0
  6
Continuous
 62
     7
370
    25
100
AcDbLine
 10
5.9598455047
 20
8.4501399487
 30
0.0
 11
5.8484810218
 21
8.4501399487
 31
0.0
  0
LINE
  5
364
330
309
100
AcDbEntity
  8
0
  6
Continuous
 62
     7
370
    25
100
AcDbLine
 10
5.8484810218
 20
8.4501399487
 30
0.0
 11
5.8349894402
 21
8.4366483672
 31
0.0
  0
LINE
  5
365
330
309
100
AcDbEntity
  8
0
  6
Continuous
 62
     7
370
    25
100
AcDbLine
 10
5.8349894402
 20
8.2011469084
 30
0.0
 11
5.8484810218
 21
8.1876553269
 31
0.0
  0
LINE
  5
366
330
309
100
AcDbEntity
  8
0
  6
Continuous
 62
     7
370
    25
100
AcDbLine
 10
5.5870707253
 20
8.2011469084
 30
0.0
 11
5.8349894402
 21
8.2011469084
 31
0.0
  0
LINE
  5
367
330
309
100
AcDbEntity
  8
0
  6
Continuous
 62
     7
370
    25
100
AcDbLine
 10
5.8349894402
 20
8.4366483672
 30
0.0
 11
5.5870707253
 21
8.4366483672
 31
0.0
  0
LINE
  5
368
330
309
100
AcDbEntity
  8
0
  6
Continuous
 62
     7
370
    25
100
AcDbLine
 10
5.5
 20
11.3188976378
 30
0.0
 11
5.5
 21
-11.3188976378
 31
0.0
  0
LINE
  5
369
330
309
100
AcDbEntity
  8
0
  6
Continuous
 62
     7
370
    25
100
AcDbLine
 10
-5.5
 20
-11.3188976378
 30
0.0
 11
5.5
 21
-11.3188976378
 31
0.0
  0
LINE
  5
36A
330
309
100
AcDbEntity
  8
0
  6
Continuous
 62
     7
370
    25
100
AcDbLine
 10
-5.5
 20
11.3188976378
 30
0.0
 11
-5.5
 21
-11.3188976378
 31
0.0
  0
LINE
  5
36B
330
309
100
AcDbEntity
  8
0
  6
Continuous
 62
     7
370
    25
100
AcDbLine
 10
-5.5
 20
11.3188976378
 30
0.0
 11
-5.0774993629
 21
11.3188976378
 31
0.0
  0
LINE
  5
36C
330
309
100
AcDbEntity
  8
0
  6
Continuous
 62
     7
370
    25
100
AcDbLine
 10
-4.9843706965
 20
11.3188976378
 30
0.0
 11
5.5
 21
11.3188976378
 31
0.0
  0
LINE
  5
36D
330
309
100
AcDbEntity
  8
0
  6
Continuous
 62
     7
370
    25
100
AcDbLine
 10
-5.02
 20
8.3949184726
 30
0.0
 11
-5.02
 21
8.2459223522
 31
0.0
  0
LINE
  5
36E
330
309
100
AcDbEntity
  8
0
  6
Continuous
 62
     7
370
    25
100
AcDbLine
 10
-5.11
 20
8.3371387838
 30
0.0
 11
-5.11
 21
8.2887964982
 31
0.0
  0
LINE
  5
36F
330
309
100
AcDbEntity
  8
0
  6
Continuous
 62
     7
370
    25
100
AcDbLine
 10
5.5870707253
 20
8.1064932558
 30
0.0
 11
5.5870707253
 21
8.5313020198
 31
0.0
  0
LINE
  5
370
330
309
100
AcDbEntity
  8
0
  6
Continuous
 62
     7
370
    25
100
AcDbLine
 10
6.0755929704
 20
8.2286701831
 30
0.0
 11
6.0755929704
 21
8.4091250925
 31
0.0
  0
LINE
  5
371
330
309
100
AcDbEntity
  8
0
  6
Continuous
 62
     7
370
    25
100
AcDbLine
 10
5.9598455047
 20
8.1876553269
 30
0.0
 11
5.9598455047
 21
8.4501399487
 31
0.0
  0
LINE
  5
372
330
309
100
AcDbEntity
  8
0
  6
Continuous
 62
     7
370
    25
100
AcDbLine
 10
5.8484810218
 20
8.1876553269
 30
0.0
 11
5.8484810218
 21
8.4501399487
 31
0.0
  0
LINE
  5
373
330
309
100
AcDbEntity
  8
0
  6
Continuous
 62
     7
370
    25
100
AcDbLine
 10
5.8349894402
 20
8.2011469084
 30
0.0
 11
5.8349894402
 21
8.4366483672
 31
0.0
  0
ARC
  5
374
330
309
100
AcDbEntity
  8
0
  6
Continuous
 62
     7
370
    25
100
AcDbCircle
 10
-5.0258749578
 20
9.842519685
 30
0.0
 40
0.240944881889765
100
AcDbArc
 50
278.2183228199
 51
261.7816771801
  0
ARC
  5
375
330
309
100
AcDbEntity
  8
0
  6
Continuous
 62
     7
370
    25
100
AcDbCircle
 10
-5.0258749578
 20
9.5688976378
 30
0.0
 40
0.0492125984251984
100
AcDbArc
 50
134.4158470903
 51
45.5841529097
  0
ARC
  5
376
330
309
100
AcDbEntity
  8
0
  6
Continuous
 62
     7
370
    25
100
AcDbCircle
 10
-5.0309350297
 20
11.3872151066
 30
0.0
 40
0.0826771653543196
100
AcDbArc
 50
235.7221463859
 51
304.2778536141
  0
VIEWPORT
  5
65F
330
309
100
AcDbEntity
  8
0
100
AcDbViewport
 10
0.0
 20
0.0
 30
0.0
 40
8.4
 41
6.4
 68
     1
 69
     1
 12
-0.0309744178
 22
0.1777086351
 13
0.0
 23
0.0
 14
0.5
 24
0.5
 15
0.5
 25
0.5
 16
0.0
 26
0.0
 36
1.0
 17
0.0
 27
0.0
 37
0.0
 42
50.0
 43
0.0
 44
0.0
 45
13.0078768576
 50
0.0
 51
0.0
 72
   100
 90
   557152
  1

281
     0
 71
     1
 74
     0
110
0.0
120
0.0
130
0.0
111
1.0
121
0.0
131
0.0
112
0.0
122
1.0
132
0.0
 79
     0
146
0.0
  0
ENDBLK
  5
30C
330
309
100
AcDbEntity
  8
0
100
AcDbBlockEnd
  0
BLOCK
  5
379
330
377
100
AcDbEntity
  8
0
100
AcDbBlockBegin
  2
*Paper_Space5
 70
     0
 10
0.0
 20
0.0
 30
0.0
  3
*Paper_Space5
  1

  0
LWPOLYLINE
  5
391
330
377
100
AcDbEntity
  8
0
  6
Continuous
 62
     7
370
    25
100
AcDbPolyline
 90
       17
 70
   128
 43
0.0
 10
3.5896729382
 20
1.9494867774
 10
3.6154645945
 20
1.9395381279
 10
3.6458879273
 20
1.9360446268
 10
3.6763112602
 20
1.9395381279
 10
3.7021029164
 20
1.9494867774
 10
3.7193363502
 20
1.9643759836
 10
3.7253879273
 20
1.9819389999
 10
3.7193363502
 20
1.9995020161
 10
3.7021029164
 20
2.0143912223
 10
3.6763112602
 20
2.0243398718
 10
3.6458879273
 20
2.027833373
 10
3.6154645945
 20
2.0243398718
 10
3.5896729382
 20
2.0143912223
 10
3.5724395045
 20
1.9995020161
 10
3.5663879273
 20
1.9819389999
 10
3.5724395045
 20
1.9643759836
 10
3.5896729382
 20
1.9494867774
  0
LWPOLYLINE
  5
392
330
377
100
AcDbEntity
  8
0
  6
Continuous
 62
     7
370
    25
100
AcDbPolyline
 90
       17
 70
   128
 43
0.0
 10
6.4181000568
 20
3.5823029975
 10
6.4438917131
 20
3.572354348
 10
6.474315046
 20
3.5688608469
 10
6.5047383788
 20
3.572354348
 10
6.5305300351
 20
3.5823029975
 10
6.5477634688
 20
3.5971922037
 10
6.553815046
 20
3.61475522
 10
6.5477634688
 20
3.6323182362
 10
6.5305300351
 20
3.6472074424
 10
6.5047383788
 20
3.6571560919
 10
6.474315046
 20
3.6606495931
 10
6.4438917131
 20
3.6571560919
 10
6.4181000568
 20
3.6472074424
 10
6.4008666231
 20
3.6323182362
 10
6.394815046
 20
3.61475522
 10
6.4008666231
 20
3.5971922037
 10
6.4181000568
 20
3.5823029975
  0
LWPOLYLINE
  5
393
330
377
100
AcDbEntity
  8
0
  6
Continuous
 62
     7
370
    25
100
AcDbPolyline
 90
       17
 70
   128
 43
0.0
 10
3.5896729352
 20
3.5823029993
 10
3.6154645914
 20
3.5723543498
 10
3.6458879243
 20
3.5688608486
 10
3.6763112571
 20
3.5723543498
 10
3.7021029134
 20
3.5823029993
 10
3.7193363471
 20
3.5971922055
 10
3.7253879243
 20
3.6147552217
 10
3.7193363471
 20
3.632318238
 10
3.7021029134
 20
3.6472074442
 10
3.6763112571
 20
3.6571560937
 10
3.6458879243
 20
3.6606495949
 10
3.6154645914
 20
3.6571560937
 10
3.5896729352
 20
3.6472074442
 10
3.5724395014
 20
3.632318238
 10
3.5663879243
 20
3.6147552217
 10
3.5724395014
 20
3.5971922055
 10
3.5896729352
 20
3.5823029993
  0
LWPOLYLINE
  5
394
330
377
100
AcDbEntity
  8
0
  6
Continuous
 62
     7
370
    25
100
AcDbPolyline
 90
       17
 70
   128
 43
0.0
 10
0.7612458135
 20
3.5823030011
 10
0.7870374697
 20
3.5723543515
 10
0.8174608026
 20
3.5688608504
 10
0.8478841355
 20
3.5723543515
 10
0.8736757917
 20
3.5823030011
 10
0.8909092254
 20
3.5971922073
 10
0.8969608026
 20
3.6147552235
 10
0.8909092254
 20
3.6323182397
 10
0.8736757917
 20
3.647207446
 10
0.8478841355
 20
3.6571560955
 10
0.8174608026
 20
3.6606495966
 10
0.7870374697
 20
3.6571560955
 10
0.7612458135
 20
3.647207446
 10
0.7440123797
 20
3.6323182397
 10
0.7379608026
 20
3.6147552235
 10
0.7440123797
 20
3.5971922073
 10
0.7612458135
 20
3.5823030011
  0
LWPOLYLINE
  5
395
330
377
100
AcDbEntity
  8
0
  6
Continuous
 62
     7
370
    25
100
AcDbPolyline
 90
       17
 70
   128
 43
0.0
 10
3.5896729321
 20
5.2151192212
 10
3.6154645883
 20
5.2051705716
 10
3.6458879212
 20
5.2016770705
 10
3.6763112541
 20
5.2051705716
 10
3.7021029103
 20
5.2151192212
 10
3.719336344
 20
5.2300084274
 10
3.7253879212
 20
5.2475714436
 10
3.719336344
 20
5.2651344598
 10
3.7021029103
 20
5.2800236661
 10
3.6763112541
 20
5.2899723156
 10
3.6458879212
 20
5.2934658167
 10
3.6154645883
 20
5.2899723156
 10
3.5896729321
 20
5.2800236661
 10
3.5724394984
 20
5.2651344598
 10
3.5663879212
 20
5.2475714436
 10
3.5724394984
 20
5.2300084274
 10
3.5896729321
 20
5.2151192212
  0
LWPOLYLINE
  5
396
330
377
100
AcDbEntity
  8
0
  6
Continuous
 62
     7
370
    25
100
AcDbPolyline
 90
       17
 70
   128
 43
0.0
 10
5.0253029215
 20
4.4110745495
 10
5.0412686375
 20
4.4049160729
 10
5.0601014836
 20
4.4027535034
 10
5.0789343297
 20
4.4049160729
 10
5.0949000456
 20
4.4110745495
 10
5.105567996
 20
4.4202913612
 10
5.109314082
 20
4.4311633318
 10
5.105567996
 20
4.4420353024
 10
5.0949000456
 20
4.4512521141
 10
5.0789343297
 20
4.4574105907
 10
5.0601014836
 20
4.4595731601
 10
5.0412686375
 20
4.4574105907
 10
5.0253029215
 20
4.4512521141
 10
5.0146349712
 20
4.4420353024
 10
5.0108888852
 20
4.4311633318
 10
5.0146349712
 20
4.4202913612
 10
5.0253029215
 20
4.4110745495
  0
LWPOLYLINE
  5
397
330
377
100
AcDbEntity
  8
0
  6
Continuous
 62
     7
370
    25
100
AcDbPolyline
 90
       17
 70
   128
 43
0.0
 10
2.1968757998
 20
4.4110745513
 10
2.2128415158
 20
4.4049160746
 10
2.2316743619
 20
4.4027535052
 10
2.250507208
 20
4.4049160746
 10
2.266472924
 20
4.4110745513
 10
2.2771408743
 20
4.4202913629
 10
2.2808869603
 20
4.4311633336
 10
2.2771408743
 20
4.4420353042
 10
2.266472924
 20
4.4512521158
 10
2.250507208
 20
4.4574105925
 10
2.2316743619
 20
4.4595731619
 10
2.2128415158
 20
4.4574105925
 10
2.1968757998
 20
4.4512521158
 10
2.1862078495
 20
4.4420353042
 10
2.1824617635
 20
4.4311633336
 10
2.1862078495
 20
4.4202913629
 10
2.1968757998
 20
4.4110745513
  0
LWPOLYLINE
  5
398
330
377
100
AcDbEntity
  8
0
  6
Continuous
 62
     7
370
    25
100
AcDbPolyline
 90
       17
 70
   128
 43
0.0
 10
2.1968758029
 20
2.7782583294
 10
2.2128415189
 20
2.7720998528
 10
2.231674365
 20
2.7699372833
 10
2.250507211
 20
2.7720998528
 10
2.266472927
 20
2.7782583294
 10
2.2771408774
 20
2.7874751411
 10
2.2808869634
 20
2.7983471117
 10
2.2771408774
 20
2.8092190823
 10
2.266472927
 20
2.818435894
 10
2.250507211
 20
2.8245943706
 10
2.231674365
 20
2.82675694
 10
2.2128415189
 20
2.8245943706
 10
2.1968758029
 20
2.818435894
 10
2.1862078525
 20
2.8092190823
 10
2.1824617665
 20
2.7983471117
 10
2.1862078525
 20
2.7874751411
 10
2.1968758029
 20
2.7782583294
  0
LWPOLYLINE
  5
399
330
377
100
AcDbEntity
  8
0
  6
Continuous
 62
     7
370
    25
100
AcDbPolyline
 90
       17
 70
   128
 43
0.0
 10
5.0253029246
 20
2.7782583276
 10
5.0412686406
 20
2.772099851
 10
5.0601014866
 20
2.7699372816
 10
5.0789343327
 20
2.772099851
 10
5.0949000487
 20
2.7782583276
 10
5.1055679991
 20
2.7874751393
 10
5.1093140851
 20
2.7983471099
 10
5.1055679991
 20
2.8092190805
 10
5.0949000487
 20
2.8184358922
 10
5.0789343327
 20
2.8245943689
 10
5.0601014866
 20
2.8267569383
 10
5.0412686406
 20
2.8245943689
 10
5.0253029246
 20
2.8184358922
 10
5.0146349742
 20
2.8092190805
 10
5.0108888882
 20
2.7983471099
 10
5.0146349742
 20
2.7874751393
 10
5.0253029246
 20
2.7782583276
  0
LWPOLYLINE
  5
3A5
330
377
100
AcDbEntity
  8
0
  6
Continuous
 62
     7
370
    25
100
AcDbPolyline
 90
       17
 70
   128
 43
0.0
 10
-2.14412871
 20
-1.3599948791
 10
-2.1183370538
 20
-1.3699435286
 10
-2.0879137209
 20
-1.3734370297
 10
-2.057490388
 20
-1.3699435286
 10
-2.0316987318
 20
-1.3599948791
 10
-2.0144652981
 20
-1.3451056729
 10
-2.0084137209
 20
-1.3275426566
 10
-2.0144652981
 20
-1.3099796404
 10
-2.0316987318
 20
-1.2950904342
 10
-2.057490388
 20
-1.2851417847
 10
-2.0879137209
 20
-1.2816482835
 10
-2.1183370538
 20
-1.2851417847
 10
-2.14412871
 20
-1.2950904342
 10
-2.1613621437
 20
-1.3099796404
 10
-2.1674137209
 20
-1.3275426566
 10
-2.1613621437
 20
-1.3451056729
 10
-2.14412871
 20
-1.3599948791
  0
LWPOLYLINE
  5
3A6
330
377
100
AcDbEntity
  8
0
  6
Continuous
 62
     7
370
    25
100
AcDbPolyline
 90
       17
 70
   128
 43
0.0
 10
0.6842984086
 20
0.272821341
 10
0.7100900648
 20
0.2628726915
 10
0.7405133977
 20
0.2593791904
 10
0.7709367306
 20
0.2628726915
 10
0.7967283868
 20
0.272821341
 10
0.8139618205
 20
0.2877105472
 10
0.8200133977
 20
0.3052735635
 10
0.8139618205
 20
0.3228365797
 10
0.7967283868
 20
0.3377257859
 10
0.7709367306
 20
0.3476744354
 10
0.7405133977
 20
0.3511679366
 10
0.7100900648
 20
0.3476744354
 10
0.6842984086
 20
0.3377257859
 10
0.6670649749
 20
0.3228365797
 10
0.6610133977
 20
0.3052735635
 10
0.6670649749
 20
0.2877105472
 10
0.6842984086
 20
0.272821341
  0
LWPOLYLINE
  5
3A7
330
377
100
AcDbEntity
  8
0
  6
Continuous
 62
     7
370
    25
100
AcDbPolyline
 90
       17
 70
   128
 43
0.0
 10
-2.1441287131
 20
0.2728213428
 10
-2.1183370568
 20
0.2628726933
 10
-2.087913724
 20
0.2593791921
 10
-2.0574903911
 20
0.2628726933
 10
-2.0316987349
 20
0.2728213428
 10
-2.0144653011
 20
0.287710549
 10
-2.008413724
 20
0.3052735652
 10
-2.0144653011
 20
0.3228365815
 10
-2.0316987349
 20
0.3377257877
 10
-2.0574903911
 20
0.3476744372
 10
-2.087913724
 20
0.3511679384
 10
-2.1183370568
 20
0.3476744372
 10
-2.1441287131
 20
0.3377257877
 10
-2.1613621468
 20
0.3228365815
 10
-2.167413724
 20
0.3052735652
 10
-2.1613621468
 20
0.287710549
 10
-2.1441287131
 20
0.2728213428
  0
LWPOLYLINE
  5
3A8
330
377
100
AcDbEntity
  8
0
  6
Continuous
 62
     7
370
    25
100
AcDbPolyline
 90
       17
 70
   128
 43
0.0
 10
-4.9725558348
 20
0.2728213446
 10
-4.9467641785
 20
0.262872695
 10
-4.9163408457
 20
0.2593791939
 10
-4.8859175128
 20
0.262872695
 10
-4.8601258566
 20
0.2728213446
 10
-4.8428924228
 20
0.2877105508
 10
-4.8368408457
 20
0.305273567
 10
-4.8428924228
 20
0.3228365832
 10
-4.8601258566
 20
0.3377257895
 10
-4.8859175128
 20
0.347674439
 10
-4.9163408457
 20
0.3511679401
 10
-4.9467641785
 20
0.347674439
 10
-4.9725558348
 20
0.3377257895
 10
-4.9897892685
 20
0.3228365832
 10
-4.9958408457
 20
0.305273567
 10
-4.9897892685
 20
0.2877105508
 10
-4.9725558348
 20
0.2728213446
  0
LWPOLYLINE
  5
3A9
330
377
100
AcDbEntity
  8
0
  6
Continuous
 62
     7
370
    25
100
AcDbPolyline
 90
       17
 70
   128
 43
0.0
 10
-2.1441287161
 20
1.9056375647
 10
-2.1183370599
 20
1.8956889151
 10
-2.087913727
 20
1.892195414
 10
-2.0574903942
 20
1.8956889151
 10
-2.0316987379
 20
1.9056375647
 10
-2.0144653042
 20
1.9205267709
 10
-2.008413727
 20
1.9380897871
 10
-2.0144653042
 20
1.9556528033
 10
-2.0316987379
 20
1.9705420096
 10
-2.0574903942
 20
1.9804906591
 10
-2.087913727
 20
1.9839841602
 10
-2.1183370599
 20
1.9804906591
 10
-2.1441287161
 20
1.9705420096
 10
-2.1613621499
 20
1.9556528033
 10
-2.167413727
 20
1.9380897871
 10
-2.1613621499
 20
1.9205267709
 10
-2.1441287161
 20
1.9056375647
  0
LWPOLYLINE
  5
3AA
330
377
100
AcDbEntity
  8
0
  6
Continuous
 62
     7
370
    25
100
AcDbPolyline
 90
       17
 70
   128
 43
0.0
 10
-0.7084987267
 20
1.101592893
 10
-0.6925330107
 20
1.0954344164
 10
-0.6737001647
 20
1.0932718469
 10
-0.6548673186
 20
1.0954344164
 10
-0.6389016026
 20
1.101592893
 10
-0.6282336522
 20
1.1108097047
 10
-0.6244875662
 20
1.1216816753
 10
-0.6282336522
 20
1.1325536459
 10
-0.6389016026
 20
1.1417704576
 10
-0.6548673186
 20
1.1479289342
 10
-0.6737001647
 20
1.1500915036
 10
-0.6925330107
 20
1.1479289342
 10
-0.7084987267
 20
1.1417704576
 10
-0.7191666771
 20
1.1325536459
 10
-0.7229127631
 20
1.1216816753
 10
-0.7191666771
 20
1.1108097047
 10
-0.7084987267
 20
1.101592893
  0
LWPOLYLINE
  5
3AB
330
377
100
AcDbEntity
  8
0
  6
Continuous
 62
     7
370
    25
100
AcDbPolyline
 90
       17
 70
   128
 43
0.0
 10
-3.5369258484
 20
1.1015928948
 10
-3.5209601324
 20
1.0954344181
 10
-3.5021272863
 20
1.0932718487
 10
-3.4832944403
 20
1.0954344181
 10
-3.4673287243
 20
1.1015928948
 10
-3.4566607739
 20
1.1108097064
 10
-3.4529146879
 20
1.1216816771
 10
-3.4566607739
 20
1.1325536477
 10
-3.4673287243
 20
1.1417704593
 10
-3.4832944403
 20
1.147928936
 10
-3.5021272863
 20
1.1500915054
 10
-3.5209601324
 20
1.147928936
 10
-3.5369258484
 20
1.1417704593
 10
-3.5475937988
 20
1.1325536477
 10
-3.5513398848
 20
1.1216816771
 10
-3.5475937988
 20
1.1108097064
 10
-3.5369258484
 20
1.1015928948
  0
LWPOLYLINE
  5
3AC
330
377
100
AcDbEntity
  8
0
  6
Continuous
 62
     7
370
    25
100
AcDbPolyline
 90
       17
 70
   128
 43
0.0
 10
-3.5369258454
 20
-0.5312233271
 10
-3.5209601294
 20
-0.5373818037
 10
-3.5021272833
 20
-0.5395443732
 10
-3.4832944372
 20
-0.5373818037
 10
-3.4673287212
 20
-0.5312233271
 10
-3.4566607709
 20
-0.5220065154
 10
-3.4529146849
 20
-0.5111345448
 10
-3.4566607709
 20
-0.5002625742
 10
-3.4673287212
 20
-0.4910457625
 10
-3.4832944372
 20
-0.4848872859
 10
-3.5021272833
 20
-0.4827247165
 10
-3.5209601294
 20
-0.4848872859
 10
-3.5369258454
 20
-0.4910457625
 10
-3.5475937957
 20
-0.5002625742
 10
-3.5513398817
 20
-0.5111345448
 10
-3.5475937957
 20
-0.5220065154
 10
-3.5369258454
 20
-0.5312233271
  0
LWPOLYLINE
  5
3AD
330
377
100
AcDbEntity
  8
0
  6
Continuous
 62
     7
370
    25
100
AcDbPolyline
 90
       17
 70
   128
 43
0.0
 10
-0.7084987237
 20
-0.5312233289
 10
-0.6925330077
 20
-0.5373818055
 10
-0.6737001616
 20
-0.5395443749
 10
-0.6548673155
 20
-0.5373818055
 10
-0.6389015995
 20
-0.5312233289
 10
-0.6282336492
 20
-0.5220065172
 10
-0.6244875632
 20
-0.5111345466
 10
-0.6282336492
 20
-0.500262576
 10
-0.6389015995
 20
-0.4910457643
 10
-0.6548673155
 20
-0.4848872876
 10
-0.6737001616
 20
-0.4827247182
 10
-0.6925330077
 20
-0.4848872876
 10
-0.7084987237
 20
-0.4910457643
 10
-0.719166674
 20
-0.500262576
 10
-0.72291276
 20
-0.5111345466
 10
-0.719166674
 20
-0.5220065172
 10
-0.7084987237
 20
-0.5312233289
  0
LWPOLYLINE
  5
3C2
330
377
100
AcDbEntity
  8
0
  6
Continuous
 62
     7
370
    25
100
AcDbPolyline
 90
        9
 70
   128
 43
0.0
 10
-9.8771717473
 20
-2.0910271217
 10
-9.9140610097
 20
-2.1123232903
 10
-9.9543363183
 20
-2.1355750659
 10
-9.9964499156
 20
-2.159888896
 10
-10.0387833997
 20
-2.1843304135
 10
-10.0797099185
 20
-2.2079603447
 10
-10.1176566889
 20
-2.2298706046
 10
-10.1511654377
 20
-2.2492191941
 10
-10.1789484426
 20
-2.2652625579
  0
LWPOLYLINE
  5
3C4
330
377
100
AcDbEntity
  8
0
  6
Continuous
 62
     7
370
    25
100
AcDbPolyline
 90
        5
 70
   128
 43
0.0
 10
-10.62747658
 20
-2.5242765138
 10
-10.6484661557
 20
-2.5363981143
 10
-10.6618556844
 20
-2.5441321254
 10
-10.6671306142
 20
-2.5471813331
 10
-10.6672062355
 20
-2.5472255001
  0
LWPOLYLINE
  5
3C5
330
377
100
AcDbEntity
  8
0
  6
Continuous
 62
     7
370
    25
100
AcDbPolyline
 90
        6
 70
   128
 43
0.0
 10
5.5145663728
 20
6.7944242488
 10
5.5114483696
 20
6.792627307
 10
5.5002055933
 20
6.7861399078
 10
5.4811944761
 20
6.7751671912
 10
5.4551456044
 20
6.7601308326
 10
5.423060022
 20
6.7416086708
  0
LWPOLYLINE
  5
3C9
330
377
100
AcDbEntity
  8
0
  6
Continuous
 62
     7
370
    25
100
AcDbPolyline
 90
        9
 70
   128
 43
0.0
 10
-10.1539484426
 20
-2.308563828
 10
-10.1261654377
 20
-2.2925204642
 10
-10.0926566889
 20
-2.2731718746
 10
-10.0547099185
 20
-2.2512616147
 10
-10.0137833997
 20
-2.2276316835
 10
-9.9714499156
 20
-2.203190166
 10
-9.9293363183
 20
-2.178876336
 10
-9.8890610097
 20
-2.1556245603
 10
-9.8521717473
 20
-2.1343283917
  0
LWPOLYLINE
  5
3CC
330
377
100
AcDbEntity
  8
0
  6
Continuous
 62
     7
370
    25
100
AcDbPolyline
 90
        9
 70
   128
 43
0.0
 10
5.448060022
 20
6.6983074008
 10
5.4801456044
 20
6.7168295625
 10
5.5061944761
 20
6.7318659211
 10
5.5252055933
 20
6.7428386377
 10
5.5364483696
 20
6.749326037
 10
5.5394907514
 20
6.7510788118
 10
5.5342158216
 20
6.748029604
 10
5.5208262929
 20
6.740295593
 10
5.4998367173
 20
6.7281739924
  0
LWPOLYLINE
  5
3CE
330
377
100
AcDbEntity
  8
0
  6
Continuous
 62
     7
370
    25
100
AcDbPolyline
 90
        9
 70
   128
 43
0.0
 10
5.0513085799
 20
6.4691600366
 10
5.023525575
 20
6.4531166728
 10
4.9900168261
 20
6.4337680832
 10
4.9520700557
 20
6.4118578233
 10
4.9111435369
 20
6.3882278921
 10
4.8688100528
 20
6.3637863746
 10
4.8266964555
 20
6.3394725446
 10
4.7864211469
 20
6.3162207689
 10
4.7495318846
 20
6.2949246003
  0
LWPOLYLINE
  5
3D2
330
377
100
AcDbEntity
  8
0
  6
Continuous
 62
     7
370
    25
100
AcDbPolyline
 90
        9
 70
   128
 43
0.0
 10
-10.5506998847
 20
-2.5377111921
 10
-10.5827854672
 20
-2.5562333539
 10
-10.6088343388
 20
-2.5712697125
 10
-10.6278454561
 20
-2.5822424291
 10
-10.6390882324
 20
-2.5887298284
 10
-10.6421306142
 20
-2.5904826032
 10
-10.6368556844
 20
-2.5874333954
 10
-10.6234661557
 20
-2.5796993844
 10
-10.60247658
 20
-2.5675777838
  0
SPLINE
  5
3F7
330
377
100
AcDbEntity
  8
0
  6
Continuous
 62
     7
370
    25
100
AcDbSpline
210
0.0
220
0.0
230
1.0
 70
     8
 71
     3
 72
    12
 73
     8
 74
     0
 42
0.00000001
 43
0.00000001
 40
0.0
 40
0.0
 40
0.0
 40
0.0
 40
0.25
 40
0.25
 40
0.5
 40
0.5
 40
1.0
 40
1.0
 40
1.0
 40
1.0
 10
-11.5940035062522
 20
-2.97236531253145
 30
0.0
 10
-11.58865739735712
 20
-2.973362392886657
 30
0.0
 10
-11.58325619390296
 20
-2.974711871964854
 30
0.0
 10
-11.57227350603136
 20
-2.97856395272143
 30
0.0
 10
-11.56664430899658
 20
-2.981107447419963
 30
0.0
 10
-11.54969319630011
 20
-2.990913473679537
 30
0.0
 10
-11.53882335799513
 20
-3.000049802068913
 30
0.0
 10
-11.52815159466378
 20
-3.01038081190879
 30
0.0
  0
LWPOLYLINE
  5
3F9
330
377
100
AcDbEntity
  8
0
  6
Continuous
 62
     7
370
    25
100
AcDbPolyline
 90
       19
 70
   128
 43
0.0
 10
-10.748579851
 20
-3.6073953463
 10
-10.7536165152
 20
-3.5715026941
 10
-10.7681190117
 20
-3.5341240167
 10
-10.7903381255
 20
-3.4997677344
 10
-10.8175939035
 20
-3.4725777218
 10
-10.8465988965
 20
-3.4558334957
 10
-10.8738546745
 20
-3.4515546569
 10
-10.8960737882
 20
-3.4602572966
 10
-10.9105762848
 20
-3.4808917478
 10
-10.9156129489
 20
-3.5109691914
 10
-10.9105762848
 20
-3.5468618436
 10
-10.8960737882
 20
-3.584240521
 10
-10.8738546745
 20
-3.6185968033
 10
-10.8465988965
 20
-3.6457868159
 10
-10.8175939035
 20
-3.662531042
 10
-10.7903381255
 20
-3.6668098808
 10
-10.7681190117
 20
-3.6581072412
 10
-10.7536165152
 20
-3.6374727899
 10
-10.748579851
 20
-3.6073953463
  0
LWPOLYLINE
  5
3FA
330
377
100
AcDbEntity
  8
0
  6
Continuous
 62
     7
370
    25
100
AcDbPolyline
 90
       19
 70
   128
 43
0.0
 10
-7.9201527263
 20
-5.24021157
 10
-7.9251893905
 20
-5.2043189177
 10
-7.939691887
 20
-5.1669402404
 10
-7.9619110008
 20
-5.1325839581
 10
-7.9891667787
 20
-5.1053939455
 10
-8.0181717718
 20
-5.0886497194
 10
-8.0454275497
 20
-5.0843708806
 10
-8.0676466635
 20
-5.0930735202
 10
-8.08214916
 20
-5.1137079715
 10
-8.0871858242
 20
-5.143785415
 10
-8.08214916
 20
-5.1796780673
 10
-8.0676466635
 20
-5.2170567446
 10
-8.0454275497
 20
-5.251413027
 10
-8.0181717718
 20
-5.2786030396
 10
-7.9891667787
 20
-5.2953472657
 10
-7.9619110008
 20
-5.2996261044
 10
-7.939691887
 20
-5.2909234648
 10
-7.9251893905
 20
-5.2702890135
 10
-7.9201527263
 20
-5.24021157
  0
LWPOLYLINE
  5
3FB
330
377
100
AcDbEntity
  8
0
  6
Continuous
 62
     7
370
    25
100
AcDbPolyline
 90
       19
 70
   128
 43
0.0
 10
-5.0917256015
 20
-6.8730277936
 10
-5.0967622657
 20
-6.8371351414
 10
-5.1112647623
 20
-6.799756464
 10
-5.133483876
 20
-6.7654001817
 10
-5.160739654
 20
-6.7382101691
 10
-5.189744647
 20
-6.721465943
 10
-5.217000425
 20
-6.7171871042
 10
-5.2392195387
 20
-6.7258897439
 10
-5.2537220353
 20
-6.7465241951
 10
-5.2587586995
 20
-6.7766016387
 10
-5.2537220353
 20
-6.8124942909
 10
-5.2392195387
 20
-6.8498729683
 10
-5.217000425
 20
-6.8842292506
 10
-5.189744647
 20
-6.9114192632
 10
-5.160739654
 20
-6.9281634893
 10
-5.133483876
 20
-6.9324423281
 10
-5.1112647623
 20
-6.9237396884
 10
-5.0967622657
 20
-6.9031052372
 10
-5.0917256015
 20
-6.8730277936
  0
LWPOLYLINE
  5
400
330
377
100
AcDbEntity
  8
0
  6
Continuous
 62
     7
370
    25
100
AcDbPolyline
 90
       17
 70
   128
 43
0.0
 10
9.8410333523
 20
0.741765567
 10
9.8357355867
 20
0.7694628068
 10
9.8206488266
 20
0.786826723
 10
9.7980698946
 20
0.7912138167
 10
9.7714362282
 20
0.7819561926
 10
9.7448025619
 20
0.76046324
 10
9.7222236298
 20
0.7300070663
 10
9.7071368697
 20
0.6952243477
 10
9.7018391041
 20
0.6614104379
 10
9.7071368697
 20
0.633713198
 10
9.7222236298
 20
0.6163492818
 10
9.7448025619
 20
0.6119621882
 10
9.7714362282
 20
0.6212198123
 10
9.7980698946
 20
0.6427127648
 10
9.8206488266
 20
0.6731689385
 10
9.8357355867
 20
0.7079516571
 10
9.8410333523
 20
0.741765567
  0
LWPOLYLINE
  5
401
330
377
100
AcDbEntity
  8
0
  6
Continuous
 62
     7
370
    25
100
AcDbPolyline
 90
       17
 70
   128
 43
0.0
 10
3.9586844207
 20
-2.6540421895
 10
3.953386655
 20
-2.6263449496
 10
3.938299895
 20
-2.6089810335
 10
3.9157209629
 20
-2.6045939398
 10
3.8890872965
 20
-2.6138515639
 10
3.8624536302
 20
-2.6353445164
 10
3.8398746981
 20
-2.6658006902
 10
3.824787938
 20
-2.7005834088
 10
3.8194901724
 20
-2.7343973186
 10
3.824787938
 20
-2.7620945585
 10
3.8398746981
 20
-2.7794584746
 10
3.8624536302
 20
-2.7838455683
 10
3.8890872965
 20
-2.7745879442
 10
3.9157209629
 20
-2.7530949917
 10
3.938299895
 20
-2.7226388179
 10
3.953386655
 20
-2.6878560993
 10
3.9586844207
 20
-2.6540421895
  0
LWPOLYLINE
  5
40D
330
377
100
AcDbEntity
  8
0
  6
Continuous
 62
     7
370
    25
100
AcDbPolyline
 90
       17
 70
   128
 43
0.0
 10
-1.6500563877
 20
-6.3618181085
 10
-1.6451998679
 20
-6.3308205274
 10
-1.6313696699
 20
-6.2989348288
 10
-1.6106713159
 20
-6.2710153212
 10
-1.5862559426
 20
-6.2513124965
 10
-1.5618405693
 20
-6.2428259312
 10
-1.5411422153
 20
-6.2468476279
 10
-1.5273120173
 20
-6.2627653198
 10
-1.5224554976
 20
-6.2881556826
 10
-1.5273120173
 20
-6.3191532637
 10
-1.5411422153
 20
-6.3510389623
 10
-1.5618405693
 20
-6.37895847
 10
-1.5862559426
 20
-6.3986612947
 10
-1.6106713159
 20
-6.4071478599
 10
-1.6313696699
 20
-6.4031261632
 10
-1.6451998679
 20
-6.3872084713
 10
-1.6500563877
 20
-6.3618181085
  0
LWPOLYLINE
  5
40E
330
377
100
AcDbEntity
  8
0
  6
Continuous
 62
     7
370
    25
100
AcDbPolyline
 90
        9
 70
   128
 43
0.0
 10
-1.7609040885
 20
-6.3313119542
 10
-1.7558758024
 20
-6.2936128642
 10
-1.7413358369
 20
-6.25419352
 10
-1.7188598229
 20
-6.2173256192
 10
-1.6908833852
 20
-6.1870043709
 10
-1.660438205
 20
-6.1665155529
 10
-1.6308234899
 20
-6.1580794464
 10
-1.6052484539
 20
-6.1626102346
 10
-1.5881345658
 20
-6.1771958031
  0
LWPOLYLINE
  5
410
330
377
100
AcDbEntity
  8
0
  6
Continuous
 62
     7
370
    25
100
AcDbPolyline
 90
       17
 70
   128
 43
0.0
 10
-1.6210545047
 20
-6.3450756778
 10
-1.6184056219
 20
-6.3281687229
 10
-1.6108622418
 20
-6.3107773636
 10
-1.5995727758
 20
-6.2955492768
 10
-1.5862559426
 20
-6.2848028005
 10
-1.5729391094
 20
-6.2801739884
 10
-1.5616496434
 20
-6.2823675353
 10
-1.5541062634
 20
-6.2910494934
 10
-1.5514573805
 20
-6.3048981133
 10
-1.5541062634
 20
-6.3218050682
 10
-1.5616496434
 20
-6.3391964275
 10
-1.5729391094
 20
-6.3544245144
 10
-1.5862559426
 20
-6.3651709906
 10
-1.5995727758
 20
-6.3697998027
 10
-1.6108622418
 20
-6.3676062559
 10
-1.6184056219
 20
-6.3589242978
 10
-1.6210545047
 20
-6.3450756778
  0
LWPOLYLINE
  5
411
330
377
100
AcDbEntity
  8
0
  6
Continuous
 62
     7
370
    25
100
AcDbPolyline
 90
        9
 70
   128
 43
0.0
 10
-1.8396506696
 20
-6.2858525206
 10
-1.8346223835
 20
-6.2481534306
 10
-1.820082418
 20
-6.2087340864
 10
-1.7976064039
 20
-6.1718661856
 10
-1.7696299663
 20
-6.1415449373
 10
-1.739184786
 20
-6.1210561193
 10
-1.709570071
 20
-6.1126200128
 10
-1.683995035
 20
-6.117150801
 10
-1.6812325189
 20
-6.1186166229
  0
LWPOLYLINE
  5
414
330
377
100
AcDbEntity
  8
0
  6
Continuous
 62
     7
370
    25
100
AcDbPolyline
 90
        8
 70
   128
 43
0.0
 10
-2.0149556741
 20
-6.173636459
 10
-2.0099343406
 20
-6.1378530577
 10
-1.9954759871
 20
-6.1005881545
 10
-1.9733245045
 20
-6.0663364467
 10
-1.9461516883
 20
-6.0392291957
 10
-1.9172349814
 20
-6.0225359361
 10
-1.8900621652
 20
-6.0182701214
 10
-1.8728227548
 20
-6.0235922485
  0
LWPOLYLINE
  5
416
330
377
100
AcDbEntity
  8
0
  6
Continuous
 62
     7
370
    25
100
AcDbPolyline
 90
       14
 70
   128
 43
0.0
 10
-2.0818859137
 20
-6.212274464
 10
-2.0767682257
 20
-6.1644313265
 10
-2.0617639236
 20
-6.1139398631
 10
-2.0378955259
 20
-6.0642409833
 10
-2.0067896243
 20
-6.0187215838
 10
-1.9705660347
 20
-5.9804837364
 10
-1.9316933348
 20
-5.9521332872
 10
-1.892820635
 20
-5.9356022725
 10
-1.8565970454
 20
-5.9320172536
 10
-1.8254911438
 20
-5.9416225436
 10
-1.8016227461
 20
-5.9637635579
 10
-1.786618444
 20
-5.9969314229
 10
-1.781500756
 20
-6.0388658035
 10
-1.784426677
 20
-6.074622218
  0
LWPOLYLINE
  5
417
330
377
100
AcDbEntity
  8
0
  6
Continuous
 62
     7
370
    25
100
AcDbPolyline
 90
        8
 70
   128
 43
0.0
 10
-1.9021678371
 20
-6.2785779885
 10
-1.9316933348
 20
-6.2990069803
 10
-1.9705660347
 20
-6.315537995
 10
-2.0067896243
 20
-6.3191230139
 10
-2.0378955259
 20
-6.3095177239
 10
-2.0617639236
 20
-6.2873767096
 10
-2.0767682257
 20
-6.2542088446
 10
-2.0818859137
 20
-6.212274464
  0
LWPOLYLINE
  5
418
330
377
100
AcDbEntity
  8
0
  6
Continuous
 62
     7
370
    25
100
AcDbPolyline
 90
       10
 70
   128
 43
0.0
 10
-2.143454214
 20
-6.1767318407
 10
-2.138336526
 20
-6.1288887033
 10
-2.1233322239
 20
-6.0783972398
 10
-2.0994638262
 20
-6.0286983601
 10
-2.0683579246
 20
-5.9831789606
 10
-2.032134335
 20
-5.9449411132
 10
-1.9932616352
 20
-5.916590664
 10
-1.9543889353
 20
-5.9000596493
 10
-1.9181653457
 20
-5.8964746303
 10
-1.8870680749
 20
-5.9060749371
  0
LINE
  5
41A
330
377
100
AcDbEntity
  8
0
  6
Continuous
 62
     7
370
    25
100
AcDbLine
 10
-10.6672062355
 20
-2.5472255001
 30
0.0
 11
-10.6422062355
 21
-2.5905267701
 31
0.0
  0
LINE
  5
41B
330
377
100
AcDbEntity
  8
0
  6
Continuous
 62
     7
370
    25
100
AcDbLine
 10
5.5395663728
 20
6.7511229787
 30
0.0
 11
5.5145663728
 21
6.7944242488
 31
0.0
  0
LINE
  5
41C
330
377
100
AcDbEntity
  8
0
  6
Continuous
 62
     7
370
    25
100
AcDbLine
 10
-9.8961057301
 20
-2.4068223326
 30
0.0
 11
-9.8961057301
 21
-2.4476493732
 31
0.0
  0
LINE
  5
41D
330
377
100
AcDbEntity
  8
0
  6
Continuous
 62
     7
370
    25
100
AcDbLine
 10
-1.7151793126
 20
-6.3972676046
 30
0.0
 11
-1.6186211735
 21
-6.4071617969
 31
0.0
  0
LINE
  5
41E
330
377
100
AcDbEntity
  8
0
  6
Continuous
 62
     7
370
    25
100
AcDbLine
 10
-1.5312794919
 20
-6.2558651735
 30
0.0
 11
-1.5881345658
 21
-6.1771958031
 31
0.0
  0
LINE
  5
41F
330
377
100
AcDbEntity
  8
0
  6
Continuous
 62
     7
370
    25
100
AcDbLine
 10
-1.8124641641
 20
-6.3459411311
 30
0.0
 11
-1.7337175831
 21
-6.3914005647
 31
0.0
  0
LINE
  5
420
330
377
100
AcDbEntity
  8
0
  6
Continuous
 62
     7
370
    25
100
AcDbLine
 10
-1.6024859379
 20
-6.1640760566
 30
0.0
 11
-1.6812325189
 21
-6.1186166229
 31
0.0
  0
LINE
  5
421
330
377
100
AcDbEntity
  8
0
  6
Continuous
 62
     7
370
    25
100
AcDbLine
 10
-1.7468634245
 20
-6.1251228825
 30
0.0
 11
-1.7564018628
 21
-6.1306310959
 31
0.0
  0
LINE
  5
422
330
377
100
AcDbEntity
  8
0
  6
Continuous
 62
     7
370
    25
100
AcDbLine
 10
-1.8396506696
 20
-6.274837884
 30
0.0
 11
-1.8396506696
 21
-6.2858525206
 31
0.0
  0
LINE
  5
423
330
377
100
AcDbEntity
  8
0
  6
Continuous
 62
     7
370
    25
100
AcDbLine
 10
-1.9905639149
 20
-6.2275480189
 30
0.0
 11
-1.8347010535
 21
-6.3175257336
 31
0.0
  0
LINE
  5
424
330
377
100
AcDbEntity
  8
0
  6
Continuous
 62
     7
370
    25
100
AcDbLine
 10
-1.7169598935
 20
-6.1135699631
 30
0.0
 11
-1.8728227548
 21
-6.0235922485
 31
0.0
  0
LINE
  5
425
330
377
100
AcDbEntity
  8
0
  6
Continuous
 62
     7
370
    25
100
AcDbLine
 10
-2.0994551954
 20
-6.2739800839
 30
0.0
 11
-2.0378868951
 21
-6.3095227071
 31
0.0
  0
LINE
  5
426
330
377
100
AcDbEntity
  8
0
  6
Continuous
 62
     7
370
    25
100
AcDbLine
 10
-1.8254997746
 20
-5.9416175603
 30
0.0
 11
-1.8870680749
 21
-5.9060749371
 31
0.0
  0
LINE
  5
427
330
377
100
AcDbEntity
  8
0
  6
Continuous
 62
     7
370
    25
100
AcDbLine
 10
-0.5299395267
 20
3.6147552235
 30
0.0
 11
3.6458879273
 21
1.2041013465
 31
0.0
  0
LINE
  5
428
330
377
100
AcDbEntity
  8
0
  6
Continuous
 62
     7
370
    25
100
AcDbLine
 10
3.6458879273
 20
1.2041013465
 30
0.0
 11
3.6458879273
 21
1.065863641
 31
0.0
  0
LINE
  5
429
330
377
100
AcDbEntity
  8
0
  6
Continuous
 62
     7
370
    25
100
AcDbLine
 10
2.4931142328
 20
0.4003815523
 30
0.0
 11
-1.3784676642
 21
2.6353982078
 31
0.0
  0
LINE
  5
42A
330
377
100
AcDbEntity
  8
0
  6
Continuous
 62
     7
370
    25
100
AcDbLine
 10
-1.3784676642
 20
2.6353982078
 30
0.0
 11
-1.3784676642
 21
2.7559191191
 31
0.0
  0
LINE
  5
42B
330
377
100
AcDbEntity
  8
0
  6
Continuous
 62
     7
370
    25
100
AcDbLine
 10
-1.3784676642
 20
2.7559191191
 30
0.0
 11
-0.5299395267
 21
3.2459232263
 31
0.0
  0
LINE
  5
42C
330
377
100
AcDbEntity
  8
0
  6
Continuous
 62
     7
370
    25
100
AcDbLine
 10
-0.5299395267
 20
3.2459232263
 30
0.0
 11
-0.5299395267
 21
3.6147552235
 31
0.0
  0
LINE
  5
42D
330
377
100
AcDbEntity
  8
0
  6
Continuous
 62
     7
370
    25
100
AcDbLine
 10
3.6458879273
 20
1.2041013465
 30
0.0
 11
7.8217153753
 21
3.61475522
 31
0.0
  0
LINE
  5
42E
330
377
100
AcDbEntity
  8
0
  6
Continuous
 62
     7
370
    25
100
AcDbLine
 10
-0.5299395267
 20
3.6147552235
 30
0.0
 11
3.6458879212
 21
6.025409097
 31
0.0
  0
LINE
  5
42F
330
377
100
AcDbEntity
  8
0
  6
Continuous
 62
     7
370
    25
100
AcDbLine
 10
3.6458879212
 20
6.025409097
 30
0.0
 11
7.8217153753
 21
3.61475522
 31
0.0
  0
LINE
  5
430
330
377
100
AcDbEntity
  8
0
  6
Continuous
 62
     7
370
    25
100
AcDbLine
 10
7.8217153753
 20
3.61475522
 30
0.0
 11
7.8217153753
 21
3.4765175145
 31
0.0
  0
LINE
  5
431
330
377
100
AcDbEntity
  8
0
  6
Continuous
 62
     7
370
    25
100
AcDbLine
 10
-6.263741175
 20
0.305273567
 30
0.0
 11
-2.0879137209
 21
-2.10538031
 31
0.0
  0
LINE
  5
432
330
377
100
AcDbEntity
  8
0
  6
Continuous
 62
     7
370
    25
100
AcDbLine
 10
-2.0879137209
 20
-2.10538031
 30
0.0
 11
-2.0879137209
 21
-2.244189594
 31
0.0
  0
LINE
  5
433
330
377
100
AcDbEntity
  8
0
  6
Continuous
 62
     7
370
    25
100
AcDbLine
 10
-3.2401923603
 20
-2.9093858934
 30
0.0
 11
-7.1122693124
 21
-0.6740834487
 31
0.0
  0
LINE
  5
434
330
377
100
AcDbEntity
  8
0
  6
Continuous
 62
     7
370
    25
100
AcDbLine
 10
-7.1122693124
 20
-0.6740834487
 30
0.0
 11
-7.1122693124
 21
-0.5535625374
 31
0.0
  0
LINE
  5
435
330
377
100
AcDbEntity
  8
0
  6
Continuous
 62
     7
370
    25
100
AcDbLine
 10
-7.1122693124
 20
-0.5535625374
 30
0.0
 11
-6.263741175
 21
-0.0635584302
 31
0.0
  0
LINE
  5
436
330
377
100
AcDbEntity
  8
0
  6
Continuous
 62
     7
370
    25
100
AcDbLine
 10
-6.263741175
 20
-0.0635584302
 30
0.0
 11
-6.263741175
 21
0.305273567
 31
0.0
  0
LINE
  5
437
330
377
100
AcDbEntity
  8
0
  6
Continuous
 62
     7
370
    25
100
AcDbLine
 10
-2.0879137209
 20
-2.10538031
 30
0.0
 11
2.087913727
 21
0.3052735635
 31
0.0
  0
LINE
  5
438
330
377
100
AcDbEntity
  8
0
  6
Continuous
 62
     7
370
    25
100
AcDbLine
 10
2.087913727
 20
0.3052735635
 30
0.0
 11
2.087913727
 21
0.1664642795
 31
0.0
  0
LINE
  5
439
330
377
100
AcDbEntity
  8
0
  6
Continuous
 62
     7
370
    25
100
AcDbLine
 10
-6.263741175
 20
0.305273567
 30
0.0
 11
-2.087913727
 21
2.7159274405
 31
0.0
  0
LINE
  5
43A
330
377
100
AcDbEntity
  8
0
  6
Continuous
 62
     7
370
    25
100
AcDbLine
 10
-2.087913727
 20
2.7159274405
 30
0.0
 11
2.087913727
 21
0.3052735635
 31
0.0
  0
LINE
  5
43B
330
377
100
AcDbEntity
  8
0
  6
Continuous
 62
     7
370
    25
100
AcDbLine
 10
-11.8927565718
 20
-1.8037190484
 30
0.0
 11
-11.1856497906
 21
-1.3953822924
 31
0.0
  0
LINE
  5
43C
330
377
100
AcDbEntity
  8
0
  6
Continuous
 62
     7
370
    25
100
AcDbLine
 10
-11.1856497906
 20
-1.3953822924
 30
0.0
 11
-10.1057251379
 21
-2.0188095244
 31
0.0
  0
LINE
  5
43D
330
377
100
AcDbEntity
  8
0
  6
Continuous
 62
     7
370
    25
100
AcDbLine
 10
-10.1057251379
 20
-2.0188095244
 30
0.0
 11
-10.1057251379
 21
-2.2229447273
 31
0.0
  0
LINE
  5
43E
330
377
100
AcDbEntity
  8
0
  6
Continuous
 62
     7
370
    25
100
AcDbLine
 10
-10.1057251379
 20
-2.2229447273
 30
0.0
 11
-10.9542532753
 21
-2.7129488345
 31
0.0
  0
LINE
  5
43F
330
377
100
AcDbEntity
  8
0
  6
Continuous
 62
     7
370
    25
100
AcDbLine
 10
-10.9542532753
 20
-2.7129488345
 30
0.0
 11
-10.9542532753
 21
-2.9170840375
 31
0.0
  0
LINE
  5
440
330
377
100
AcDbEntity
  8
0
  6
Continuous
 62
     7
370
    25
100
AcDbLine
 10
-11.1310856453
 20
-2.8150008832
 30
0.0
 11
-11.1310856453
 21
-2.8966549644
 31
0.0
  0
LINE
  5
441
330
377
100
AcDbEntity
  8
0
  6
Continuous
 62
     7
370
    25
100
AcDbLine
 10
-11.1310856453
 20
-2.8966549644
 30
0.0
 11
-11.8927565718
 21
-2.4569516979
 31
0.0
  0
LINE
  5
442
330
377
100
AcDbEntity
  8
0
  6
Continuous
 62
     7
370
    25
100
AcDbLine
 10
-11.8927565718
 20
-1.8037190484
 30
0.0
 11
-11.8927565718
 21
-3.1918384286
 31
0.0
  0
LINE
  5
443
330
377
100
AcDbEntity
  8
0
  6
Continuous
 62
     7
370
    25
100
AcDbLine
 10
4.8216887599
 20
7.845457556
 30
0.0
 11
5.9016134126
 21
7.222030324
 31
0.0
  0
LINE
  5
444
330
377
100
AcDbEntity
  8
0
  6
Continuous
 62
     7
370
    25
100
AcDbLine
 10
5.9016134126
 20
7.222030324
 30
0.0
 11
3.7373339877
 21
5.9726184065
 31
0.0
  0
LINE
  5
445
330
377
100
AcDbEntity
  8
0
  6
Continuous
 62
     7
370
    25
100
AcDbLine
 10
-0.5299395267
 20
3.5091738425
 30
0.0
 11
-1.9959726054
 21
2.6628509607
 31
0.0
  0
LINE
  5
446
330
377
100
AcDbEntity
  8
0
  6
Continuous
 62
     7
370
    25
100
AcDbLine
 10
-6.263741175
 20
0.1991206075
 30
0.0
 11
-10.1057251379
 21
-2.0188095244
 31
0.0
  0
LINE
  5
447
330
377
100
AcDbEntity
  8
0
  6
Continuous
 62
     7
370
    25
100
AcDbLine
 10
4.8216887599
 20
7.845457556
 30
0.0
 11
-11.1856497906
 21
-1.3953822924
 31
0.0
  0
LINE
  5
448
330
377
100
AcDbEntity
  8
0
  6
Continuous
 62
     7
370
    25
100
AcDbLine
 10
5.9016134126
 20
7.222030324
 30
0.0
 11
5.9016134126
 21
7.0178951211
 31
0.0
  0
LINE
  5
449
330
377
100
AcDbEntity
  8
0
  6
Continuous
 62
     7
370
    25
100
AcDbLine
 10
5.9016134126
 20
7.0178951211
 30
0.0
 11
3.9141394165
 21
5.870550805
 31
0.0
  0
LINE
  5
44A
330
377
100
AcDbEntity
  8
0
  6
Continuous
 62
     7
370
    25
100
AcDbLine
 10
-0.5299395267
 20
3.3050386396
 30
0.0
 11
-1.8191671766
 21
2.5607833592
 31
0.0
  0
LINE
  5
44B
330
377
100
AcDbEntity
  8
0
  6
Continuous
 62
     7
370
    25
100
AcDbLine
 10
-6.263741175
 20
-0.0050145955
 30
0.0
 11
-10.1057251379
 21
-2.2229447273
 31
0.0
  0
LINE
  5
44C
330
377
100
AcDbEntity
  8
0
  6
Continuous
 62
     7
370
    25
100
AcDbLine
 10
5.9016134126
 20
7.0178951211
 30
0.0
 11
5.5145833734
 21
6.7943948028
 31
0.0
  0
LINE
  5
44D
330
377
100
AcDbEntity
  8
0
  6
Continuous
 62
     7
370
    25
100
AcDbLine
 10
-10.667199911
 20
-2.5472364545
 30
0.0
 11
-10.9542532753
 21
-2.7129488345
 31
0.0
  0
LINE
  5
44E
330
377
100
AcDbEntity
  8
0
  6
Continuous
 62
     7
370
    25
100
AcDbLine
 10
-10.1789484426
 20
-2.2652625579
 30
0.0
 11
-10.62747658
 21
-2.5242765138
 31
0.0
  0
LINE
  5
44F
330
377
100
AcDbEntity
  8
0
  6
Continuous
 62
     7
370
    25
100
AcDbLine
 10
5.423060022
 20
6.7416086708
 30
0.0
 11
3.9141597342
 21
5.8705390759
 31
0.0
  0
LINE
  5
450
330
377
100
AcDbEntity
  8
0
  6
Continuous
 62
     7
370
    25
100
AcDbLine
 10
-0.5299395267
 20
3.3050151813
 30
0.0
 11
-1.8191468589
 21
2.5607716301
 31
0.0
  0
LINE
  5
451
330
377
100
AcDbEntity
  8
0
  6
Continuous
 62
     7
370
    25
100
AcDbLine
 10
-6.263741175
 20
-0.0050380538
 30
0.0
 11
-9.8771717473
 21
-2.0910271217
 31
0.0
  0
LINE
  5
452
330
377
100
AcDbEntity
  8
0
  6
Continuous
 62
     7
370
    25
100
AcDbLine
 10
-10.1539484426
 20
-2.308563828
 30
0.0
 11
-10.1789484426
 21
-2.2652625579
 31
0.0
  0
LINE
  5
453
330
377
100
AcDbEntity
  8
0
  6
Continuous
 62
     7
370
    25
100
AcDbLine
 10
-9.8521717473
 20
-2.1343283917
 30
0.0
 11
-9.8771717473
 21
-2.0910271217
 31
0.0
  0
LINE
  5
454
330
377
100
AcDbEntity
  8
0
  6
Continuous
 62
     7
370
    25
100
AcDbLine
 10
5.4998367173
 20
6.7281739924
 30
0.0
 11
5.0513085799
 21
6.4691600366
 31
0.0
  0
LINE
  5
455
330
377
100
AcDbEntity
  8
0
  6
Continuous
 62
     7
370
    25
100
AcDbLine
 10
4.7495318846
 20
6.2949246003
 30
0.0
 11
3.9642773374
 21
5.8416067994
 31
0.0
  0
LINE
  5
456
330
377
100
AcDbEntity
  8
0
  6
Continuous
 62
     7
370
    25
100
AcDbLine
 10
-0.5299395267
 20
3.2471506283
 30
0.0
 11
-1.7690292557
 21
2.5318393536
 31
0.0
  0
LINE
  5
457
330
377
100
AcDbEntity
  8
0
  6
Continuous
 62
     7
370
    25
100
AcDbLine
 10
-6.263741175
 20
-0.0629026068
 30
0.0
 11
-10.5506998847
 21
-2.5377111921
 31
0.0
  0
LINE
  5
458
330
377
100
AcDbEntity
  8
0
  6
Continuous
 62
     7
370
    25
100
AcDbLine
 10
-10.60247658
 20
-2.5675777838
 30
0.0
 11
-10.1539484426
 21
-2.308563828
 31
0.0
  0
LINE
  5
459
330
377
100
AcDbEntity
  8
0
  6
Continuous
 62
     7
370
    25
100
AcDbLine
 10
-9.8521717473
 20
-2.1343283917
 30
0.0
 11
-6.263741175
 21
-0.0627715167
 31
0.0
  0
LINE
  5
45A
330
377
100
AcDbEntity
  8
0
  6
Continuous
 62
     7
370
    25
100
AcDbLine
 10
-1.7691427954
 20
2.5319048987
 30
0.0
 11
-0.5299395267
 21
3.2472817184
 31
0.0
  0
LINE
  5
45B
330
377
100
AcDbEntity
  8
0
  6
Continuous
 62
     7
370
    25
100
AcDbLine
 10
3.9641637977
 20
5.8416723445
 30
0.0
 11
5.448060022
 21
6.6983074008
 31
0.0
  0
LINE
  5
45C
330
377
100
AcDbEntity
  8
0
  6
Continuous
 62
     7
370
    25
100
AcDbLine
 10
5.448060022
 20
6.6983074008
 30
0.0
 11
5.423060022
 21
6.7416086708
 31
0.0
  0
LINE
  5
45D
330
377
100
AcDbEntity
  8
0
  6
Continuous
 62
     7
370
    25
100
AcDbLine
 10
-10.60247658
 20
-2.5675777838
 30
0.0
 11
-10.62747658
 21
-2.5242765138
 31
0.0
  0
LINE
  5
45E
330
377
100
AcDbEntity
  8
0
  6
Continuous
 62
     7
370
    25
100
AcDbLine
 10
5.0530852752
 20
6.4701860344
 30
0.0
 11
5.0530852752
 21
6.3237558109
 31
0.0
  0
LINE
  5
45F
330
377
100
AcDbEntity
  8
0
  6
Continuous
 62
     7
370
    25
100
AcDbLine
 10
5.0530852752
 20
6.3237558109
 30
0.0
 11
4.0910827662
 21
5.7684035835
 31
0.0
  0
LINE
  5
460
330
377
100
AcDbEntity
  8
0
  6
Continuous
 62
     7
370
    25
100
AcDbLine
 10
-1.357248714
 20
2.6231487686
 30
0.0
 11
-1.6422238268
 21
2.4586361377
 31
0.0
  0
LINE
  5
461
330
377
100
AcDbEntity
  8
0
  6
Continuous
 62
     7
370
    25
100
AcDbLine
 10
-7.0905553071
 20
-0.6866186772
 30
0.0
 11
-10.9542532753
 21
-2.9170840375
 31
0.0
  0
LINE
  5
462
330
377
100
AcDbEntity
  8
0
  6
Continuous
 62
     7
370
    25
100
AcDbLine
 10
-4.1145819787
 20
-6.2939636634
 30
0.0
 11
-4.8216887599
 21
-5.0692187956
 31
0.0
  0
LINE
  5
463
330
377
100
AcDbEntity
  8
0
  6
Continuous
 62
     7
370
    25
100
AcDbLine
 10
-4.8216887599
 20
-5.0692187956
 30
0.0
 11
11.1856497906
 21
4.1716210528
 31
0.0
  0
LINE
  5
464
330
377
100
AcDbEntity
  8
0
  6
Continuous
 62
     7
370
    25
100
AcDbLine
 10
11.8927565718
 20
2.946876185
 30
0.0
 11
11.1856497906
 21
4.1716210528
 31
0.0
  0
LINE
  5
465
330
377
100
AcDbEntity
  8
0
  6
Continuous
 62
     7
370
    25
100
AcDbLine
 10
-4.1145819787
 20
-6.2939636634
 30
0.0
 11
11.8927565718
 21
2.946876185
 31
0.0
  0
LINE
  5
466
330
377
100
AcDbEntity
  8
0
  6
Continuous
 62
     7
370
    25
100
AcDbLine
 10
-4.8762529052
 20
-6.5074930464
 30
0.0
 11
-4.1145819787
 21
-6.9471963129
 31
0.0
  0
LINE
  5
467
330
377
100
AcDbEntity
  8
0
  6
Continuous
 62
     7
370
    25
100
AcDbLine
 10
-4.8762529052
 20
-6.5074930464
 30
0.0
 11
-4.8762529052
 21
-6.4258389652
 31
0.0
  0
LINE
  5
468
330
377
100
AcDbEntity
  8
0
  6
Continuous
 62
     7
370
    25
100
AcDbLine
 10
-4.8762529052
 20
-6.4258389652
 30
0.0
 11
-11.1310856453
 21
-2.8150008832
 31
0.0
  0
LINE
  5
469
330
377
100
AcDbEntity
  8
0
  6
Continuous
 62
     7
370
    25
100
AcDbLine
 10
-5.0530852752
 20
-6.1196206079
 30
0.0
 11
-5.0530852752
 21
-6.3237558109
 31
0.0
  0
LINE
  5
46A
330
377
100
AcDbEntity
  8
0
  6
Continuous
 62
     7
370
    25
100
AcDbLine
 10
-5.9016134126
 20
-4.6499267666
 30
0.0
 11
-5.0530852752
 21
-6.1196206079
 31
0.0
  0
LINE
  5
46B
330
377
100
AcDbEntity
  8
0
  6
Continuous
 62
     7
370
    25
100
AcDbLine
 10
-5.9016134126
 20
-4.4457915636
 30
0.0
 11
-5.9016134126
 21
-4.6499267666
 31
0.0
  0
LINE
  5
46C
330
377
100
AcDbEntity
  8
0
  6
Continuous
 62
     7
370
    25
100
AcDbLine
 10
-4.8216887599
 20
-5.0692187956
 30
0.0
 11
-5.9016134126
 21
-4.4457915636
 31
0.0
  0
LINE
  5
46D
330
377
100
AcDbEntity
  8
0
  6
Continuous
 62
     7
370
    25
100
AcDbLine
 10
-4.1145819787
 20
-7.6820830436
 30
0.0
 11
-4.1145819787
 21
-6.2939636634
 31
0.0
  0
LINE
  5
46E
330
377
100
AcDbEntity
  8
0
  6
Continuous
 62
     7
370
    25
100
AcDbLine
 10
11.8927565718
 20
1.5587568048
 30
0.0
 11
11.8927565718
 21
2.946876185
 31
0.0
  0
LINE
  5
46F
330
377
100
AcDbEntity
  8
0
  6
Continuous
 62
     7
370
    25
100
AcDbLine
 10
-4.1145819787
 20
-6.9471963129
 30
0.0
 11
11.8927565718
 21
2.2936435355
 31
0.0
  0
LINE
  5
470
330
377
100
AcDbEntity
  8
0
  6
Continuous
 62
     7
370
    25
100
AcDbLine
 10
-5.9016134126
 20
-4.4457915636
 30
0.0
 11
10.1057251379
 21
4.7950482848
 31
0.0
  0
LINE
  5
471
330
377
100
AcDbEntity
  8
0
  6
Continuous
 62
     7
370
    25
100
AcDbLine
 10
11.1856497906
 20
4.1716210528
 30
0.0
 11
10.1057251379
 21
4.7950482848
 31
0.0
  0
LINE
  5
472
330
377
100
AcDbEntity
  8
0
  6
Continuous
 62
     7
370
    25
100
AcDbLine
 10
-11.8927565718
 20
-3.1918384286
 30
0.0
 11
-11.5940035063
 21
-3.3643049022
 31
0.0
  0
LINE
  5
473
330
377
100
AcDbEntity
  8
0
  6
Continuous
 62
     7
370
    25
100
AcDbLine
 10
-11.5281515947
 20
-3.4023204016
 30
0.0
 11
-4.1145819787
 21
-7.6820830436
 31
0.0
  0
LINE
  5
474
330
377
100
AcDbEntity
  8
0
  6
Continuous
 62
     7
370
    25
100
AcDbLine
 10
-11.5281515947
 20
-3.4023204016
 30
0.0
 11
-11.5281515947
 21
-3.0103808119
 31
0.0
  0
LINE
  5
475
330
377
100
AcDbEntity
  8
0
  6
Continuous
 62
     7
370
    25
100
AcDbLine
 10
-11.5940035063
 20
-2.9723653125
 30
0.0
 11
-11.5940035063
 21
-3.3643049022
 31
0.0
  0
LINE
  5
476
330
377
100
AcDbEntity
  8
0
  6
Continuous
 62
     7
370
    25
100
AcDbLine
 10
-4.1145819787
 20
-7.6820830436
 30
0.0
 11
-1.8062648408
 21
-6.3495199243
 31
0.0
  0
LINE
  5
477
330
377
100
AcDbEntity
  8
0
  6
Continuous
 62
     7
370
    25
100
AcDbLine
 10
-1.5644727103
 20
-6.2099362984
 30
0.0
 11
11.8927565718
 21
1.5587568048
 31
0.0
  0
LINE
  5
478
330
377
100
AcDbEntity
  8
0
  6
Continuous
 62
     7
370
    25
100
AcDbLine
 10
8.903448222
 20
4.1009885947
 30
0.0
 11
5.0530852752
 21
6.3237558109
 31
0.0
  0
LINE
  5
479
330
377
100
AcDbEntity
  8
0
  6
Continuous
 62
     7
370
    25
100
AcDbLine
 10
-9.8228824254
 20
-2.5497003871
 30
0.0
 11
-5.7600484121
 21
-4.8951245393
 31
0.0
  0
LINE
  5
47A
330
377
100
AcDbEntity
  8
0
  6
Continuous
 62
     7
370
    25
100
AcDbLine
 10
-9.8228824254
 20
-2.3047713186
 30
0.0
 11
-7.0552057147
 21
-0.7070255625
 31
0.0
  0
LINE
  5
47B
330
377
100
AcDbEntity
  8
0
  6
Continuous
 62
     7
370
    25
100
AcDbLine
 10
-1.6068742345
 20
2.4382292524
 30
0.0
 11
-1.3218991217
 21
2.6027418833
 31
0.0
  0
LINE
  5
47C
330
377
100
AcDbEntity
  8
0
  6
Continuous
 62
     7
370
    25
100
AcDbLine
 10
4.4166891721
 20
5.7114563621
 30
0.0
 11
8.0549258312
 21
3.6111470451
 31
0.0
  0
LINE
  5
47D
330
377
100
AcDbEntity
  8
0
  6
Continuous
 62
     7
370
    25
100
AcDbLine
 10
-5.7954037512
 20
-4.8338872959
 30
0.0
 11
-9.8228824254
 21
-2.5088733466
 31
0.0
  0
LINE
  5
47E
330
377
100
AcDbEntity
  8
0
  6
Continuous
 62
     7
370
    25
100
AcDbLine
 10
-9.8228824254
 20
-2.5088733466
 30
0.0
 11
-9.8228824254
 21
-2.5497003871
 31
0.0
  0
ARC
  5
47F
330
377
100
AcDbEntity
  8
0
  6
Continuous
 62
     7
370
    25
100
AcDbCircle
 10
-9.7709914645
 20
-2.4351727789
 30
0.0
 40
0.125734819623376
100
AcDbArc
 50
185.6947992512
 51
245.6253417064
  0
ARC
  5
480
330
377
100
AcDbEntity
  8
0
  6
Continuous
 62
     7
370
    25
100
AcDbCircle
 10
-9.7841506687
 20
-2.4068223326
 30
0.0
 40
0.1091538292085662
100
AcDbArc
 50
110.7834207995
 51
249.2165792005
  0
ARC
  5
481
330
377
100
AcDbEntity
  8
0
  6
Continuous
 62
     7
370
    25
100
AcDbCircle
 10
4.2390369024
 20
5.3672621055
 30
0.0
 40
0.3873370821155242
100
AcDbArc
 50
62.6999518022
 51
105.0970851019
  0
ARC
  5
482
330
377
100
AcDbEntity
  8
0
  6
Continuous
 62
     7
370
    25
100
AcDbCircle
 10
-11.5932809694
 20
-3.4390966541
 30
0.0
 40
0.0747952418582148
100
AcDbArc
 50
29.4518793735
 51
90.5534971592
  0
ARC
  5
483
330
377
100
AcDbEntity
  8
0
  6
Continuous
 62
     7
370
    25
100
AcDbCircle
 10
-1.7056322488
 20
-6.3418214252
 30
0.0
 40
0.0562621119374215
100
AcDbArc
 50
169.2342078129
 51
260.2302603217
  0
ARC
  5
484
330
377
100
AcDbEntity
  8
0
  6
Continuous
 62
     7
370
    25
100
AcDbCircle
 10
-1.7770112426
 20
-6.2937063629
 30
0.0
 40
0.0631298712655249
100
AcDbArc
 50
172.8534473002
 51
235.8343723064
  0
ARC
  5
485
330
377
100
AcDbEntity
  8
0
  6
Continuous
 62
     7
370
    25
100
AcDbCircle
 10
-1.6619433354
 20
-6.2812934937
 30
0.0
 40
0.1778245525999126
100
AcDbArc
 50
122.0858568701
 51
177.9195196626
  0
ARC
  5
486
330
377
100
AcDbEntity
  8
0
  6
Continuous
 62
     7
370
    25
100
AcDbCircle
 10
-1.9593903183
 20
-6.1809701427
 30
0.0
 40
0.0560472272536621
100
AcDbArc
 50
172.4813857161
 51
236.2064338905
  0
ARC
  5
487
330
377
100
AcDbEntity
  8
0
  6
Continuous
 62
     7
370
    25
100
AcDbCircle
 10
-2.042785022
 20
-6.1897626321
 30
0.0
 40
0.1015090525715468
100
AcDbArc
 50
172.6245467551
 51
236.0632728515
  0
VIEWPORT
  5
661
330
377
100
AcDbEntity
  8
0
100
AcDbViewport
 10
0.0
 20
0.0
 30
0.0
 40
8.4
 41
6.4
 68
     1
 69
     1
 12
-0.0309744178
 22
0.1777086351
 13
0.0
 23
0.0
 14
0.5
 24
0.5
 15
0.5
 25
0.5
 16
0.0
 26
0.0
 36
1.0
 17
0.0
 27
0.0
 37
0.0
 42
50.0
 43
0.0
 44
0.0
 45
13.0078768576
 50
0.0
 51
0.0
 72
   100
 90
   557152
  1

281
     0
 71
     1
 74
     0
110
0.0
120
0.0
130
0.0
111
1.0
121
0.0
131
0.0
112
0.0
122
1.0
132
0.0
 79
     0
146
0.0
  0
ENDBLK
  5
37A
330
377
100
AcDbEntity
  8
0
100
AcDbBlockEnd
  0
BLOCK
  5
48A
330
488
100
AcDbEntity
  8
0
100
AcDbBlockBegin
  2
*Paper_Space6
 70
     0
 10
0.0
 20
0.0
 30
0.0
  3
*Paper_Space6
  1

  0
LWPOLYLINE
  5
4A0
330
488
100
AcDbEntity
  8
0
  6
Continuous
 62
     7
370
    25
100
AcDbPolyline
 90
       17
 70
   128
 43
0.0
 10
3.2046545476
 20
2.5058303819
 10
3.2343857377
 20
2.5012741981
 10
3.2652391099
 20
2.5029247479
 10
3.2925175181
 20
2.5105307499
 10
3.3120680717
 20
2.5229342593
 10
3.3209143764
 20
2.5382469542
 10
3.3177096623
 20
2.5541376156
 10
3.3029418182
 20
2.5681870344
 10
3.2788591145
 20
2.5782563139
 10
3.2491279244
 20
2.5828124977
 10
3.2182745522
 20
2.5811619479
 10
3.1909961441
 20
2.5735559459
 10
3.1714455904
 20
2.5611524365
 10
3.1625992857
 20
2.5458397416
 10
3.1658039998
 20
2.5299490802
 10
3.1805718439
 20
2.5158996614
 10
3.2046545476
 20
2.5058303819
  0
LWPOLYLINE
  5
4A1
330
488
100
AcDbEntity
  8
0
  6
Continuous
 62
     7
370
    25
100
AcDbPolyline
 90
       17
 70
   128
 43
0.0
 10
5.0714360993
 20
4.3278664051
 10
5.1011672894
 20
4.3233102214
 10
5.1320206616
 20
4.3249607712
 10
5.1592990697
 20
4.3325667732
 10
5.1788496234
 20
4.3449702825
 10
5.1876959281
 20
4.3602829774
 10
5.184491214
 20
4.3761736389
 10
5.1697233699
 20
4.3902230577
 10
5.1456406662
 20
4.4002923372
 10
5.1159094761
 20
4.4048485209
 10
5.0850561039
 20
4.4031979712
 10
5.0577776957
 20
4.3955919692
 10
5.0382271421
 20
4.3831884598
 10
5.0293808374
 20
4.3678757649
 10
5.0325855515
 20
4.3519851035
 10
5.0473533956
 20
4.3379356847
 10
5.0714360993
 20
4.3278664051
  0
LWPOLYLINE
  5
4A2
330
488
100
AcDbEntity
  8
0
  6
Continuous
 62
     7
370
    25
100
AcDbPolyline
 90
       17
 70
   128
 43
0.0
 10
2.3692090801
 20
3.8975801829
 10
2.3989402702
 20
3.8930239991
 10
2.4297936424
 20
3.8946745489
 10
2.4570720505
 20
3.9022805509
 10
2.4766226042
 20
3.9146840603
 10
2.4854689089
 20
3.9299967552
 10
2.4822641948
 20
3.9458874166
 10
2.4674963507
 20
3.9599368354
 10
2.443413647
 20
3.9700061149
 10
2.4136824569
 20
3.9745622987
 10
2.3828290847
 20
3.9729117489
 10
2.3555506766
 20
3.9653057469
 10
2.3360001229
 20
3.9529022375
 10
2.3271538182
 20
3.9375895426
 10
2.3303585323
 20
3.9216988812
 10
2.3451263764
 20
3.9076494624
 10
2.3692090801
 20
3.8975801829
  0
LWPOLYLINE
  5
4A3
330
488
100
AcDbEntity
  8
0
  6
Continuous
 62
     7
370
    25
100
AcDbPolyline
 90
       17
 70
   128
 43
0.0
 10
-0.3330179391
 20
3.4672939606
 10
-0.303286749
 20
3.4627377769
 10
-0.2724333768
 20
3.4643883266
 10
-0.2451549686
 20
3.4719943286
 10
-0.225604415
 20
3.484397838
 10
-0.2167581103
 20
3.4997105329
 10
-0.2199628244
 20
3.5156011943
 10
-0.2347306685
 20
3.5296506131
 10
-0.2588133722
 20
3.5397198927
 10
-0.2885445623
 20
3.5442760764
 10
-0.3193979345
 20
3.5426255266
 10
-0.3466763426
 20
3.5350195246
 10
-0.3662268963
 20
3.5226160153
 10
-0.375073201
 20
3.5073033204
 10
-0.3718684869
 20
3.4914126589
 10
-0.3571006428
 20
3.4773632401
 10
-0.3330179391
 20
3.4672939606
  0
LWPOLYLINE
  5
4A4
330
488
100
AcDbEntity
  8
0
  6
Continuous
 62
     7
370
    25
100
AcDbPolyline
 90
       17
 70
   128
 43
0.0
 10
1.5337636126
 20
5.2893299839
 10
1.5634948027
 20
5.2847738001
 10
1.5943481749
 20
5.2864243499
 10
1.621626583
 20
5.2940303519
 10
1.6411771367
 20
5.3064338613
 10
1.6500234414
 20
5.3217465562
 10
1.6468187273
 20
5.3376372176
 10
1.6320508832
 20
5.3516866364
 10
1.6079681795
 20
5.3617559159
 10
1.5782369894
 20
5.3663120997
 10
1.5473836172
 20
5.3646615499
 10
1.520105209
 20
5.3570555479
 10
1.5005546554
 20
5.3446520385
 10
1.4917083507
 20
5.3293393436
 10
1.4949130648
 20
5.3134486822
 10
1.5096809089
 20
5.2993992634
 10
1.5337636126
 20
5.2893299839
  0
LWPOLYLINE
  5
4A5
330
488
100
AcDbEntity
  8
0
  6
Continuous
 62
     7
370
    25
100
AcDbPolyline
 90
       17
 70
   128
 43
0.0
 10
3.3167348466
 20
4.8223943787
 10
3.335139238
 20
4.8195739807
 10
3.3542382898
 20
4.8205957146
 10
3.3711243445
 20
4.8253040306
 10
3.3832266533
 20
4.8329821303
 10
3.3887027493
 20
4.8424610926
 10
3.3867189467
 20
4.8522978315
 10
3.3775772614
 20
4.8609947926
 10
3.3626694322
 20
4.8672279424
 10
3.3442650407
 20
4.8700483403
 10
3.3251659889
 20
4.8690266065
 10
3.3082799343
 20
4.8643182905
 10
3.2961776255
 20
4.8566401908
 10
3.2907015294
 20
4.8471612285
 10
3.292685332
 20
4.8373244896
 10
3.3018270173
 20
4.8286275285
 10
3.3167348466
 20
4.8223943787
  0
LWPOLYLINE
  5
4A6
330
488
100
AcDbEntity
  8
0
  6
Continuous
 62
     7
370
    25
100
AcDbPolyline
 90
       17
 70
   128
 43
0.0
 10
0.6145078274
 20
4.3921081564
 10
0.6329122189
 20
4.3892877584
 10
0.6520112706
 20
4.3903094923
 10
0.6688973253
 20
4.3950178083
 10
0.6809996341
 20
4.402695908
 10
0.6864757301
 20
4.4121748703
 10
0.6844919276
 20
4.4220116092
 10
0.6753502423
 20
4.4307085703
 10
0.660442413
 20
4.4369417201
 10
0.6420380215
 20
4.4397621181
 10
0.6229389698
 20
4.4387403842
 10
0.6060529151
 20
4.4340320682
 10
0.5939506063
 20
4.4263539685
 10
0.5884745102
 20
4.4168750062
 10
0.5904583128
 20
4.4070382673
 10
0.5995999981
 20
4.3983413062
 10
0.6145078274
 20
4.3921081564
  0
LWPOLYLINE
  5
4A7
330
488
100
AcDbEntity
  8
0
  6
Continuous
 62
     7
370
    25
100
AcDbPolyline
 90
       17
 70
   128
 43
0.0
 10
1.4499532949
 20
3.0003583554
 10
1.4683576864
 20
2.9975379574
 10
1.4874567382
 20
2.9985596913
 10
1.5043427928
 20
3.0032680073
 10
1.5164451016
 20
3.010946107
 10
1.5219211977
 20
3.0204250693
 10
1.5199373951
 20
3.0302618082
 10
1.5107957098
 20
3.0389587693
 10
1.4958878805
 20
3.0451919191
 10
1.4774834891
 20
3.0480123171
 10
1.4583844373
 20
3.0469905832
 10
1.4414983826
 20
3.0422822672
 10
1.4293960738
 20
3.0346041675
 10
1.4239199778
 20
3.0251252052
 10
1.4259037804
 20
3.0152884663
 10
1.4350454657
 20
3.0065915052
 10
1.4499532949
 20
3.0003583554
  0
LWPOLYLINE
  5
4A8
330
488
100
AcDbEntity
  8
0
  6
Continuous
 62
     7
370
    25
100
AcDbPolyline
 90
       17
 70
   128
 43
0.0
 10
4.1521803141
 20
3.4306445777
 10
4.1705847056
 20
3.4278241797
 10
4.1896837573
 20
3.4288459136
 10
4.206569812
 20
3.4335542296
 10
4.2186721208
 20
3.4412323293
 10
4.2241482169
 20
3.4507112916
 10
4.2221644143
 20
3.4605480305
 10
4.213022729
 20
3.4692449916
 10
4.1981148997
 20
3.4754781414
 10
4.1797105082
 20
3.4782985393
 10
4.1606114565
 20
3.4772768055
 10
4.1437254018
 20
3.4725684895
 10
4.131623093
 20
3.4648903898
 10
4.126146997
 20
3.4554114275
 10
4.1281307995
 20
3.4455746886
 10
4.1372724848
 20
3.4368777275
 10
4.1521803141
 20
3.4306445777
  0
LWPOLYLINE
  5
4B2
330
488
100
AcDbEntity
  8
0
  6
Continuous
 62
     7
370
    25
100
AcDbPolyline
 90
       17
 70
   128
 43
0.0
 10
-0.5796943816
 20
-1.1872101706
 10
-0.5499631916
 20
-1.1917663543
 10
-0.5191098194
 20
-1.1901158046
 10
-0.4918314112
 20
-1.1825098026
 10
-0.4722808575
 20
-1.1701062932
 10
-0.4634345529
 20
-1.1547935983
 10
-0.4666392669
 20
-1.1389029369
 10
-0.481407111
 20
-1.124853518
 10
-0.5054898148
 20
-1.1147842385
 10
-0.5352210049
 20
-1.1102280548
 10
-0.5660743771
 20
-1.1118786046
 10
-0.5933527852
 20
-1.1194846066
 10
-0.6129033389
 20
-1.1318881159
 10
-0.6217496436
 20
-1.1472008108
 10
-0.6185449295
 20
-1.1630914723
 10
-0.6037770854
 20
-1.1771408911
 10
-0.5796943816
 20
-1.1872101706
  0
LWPOLYLINE
  5
4B3
330
488
100
AcDbEntity
  8
0
  6
Continuous
 62
     7
370
    25
100
AcDbPolyline
 90
       17
 70
   128
 43
0.0
 10
1.28708717
 20
0.6348258527
 10
1.3168183601
 20
0.6302696689
 10
1.3476717323
 20
0.6319202187
 10
1.3749501405
 20
0.6395262207
 10
1.3945006941
 20
0.6519297301
 10
1.4033469988
 20
0.667242425
 10
1.4001422847
 20
0.6831330864
 10
1.3853744406
 20
0.6971825052
 10
1.3612917369
 20
0.7072517848
 10
1.3315605468
 20
0.7118079685
 10
1.3007071746
 20
0.7101574187
 10
1.2734287665
 20
0.7025514167
 10
1.2538782128
 20
0.6901479073
 10
1.2450319081
 20
0.6748352124
 10
1.2482366222
 20
0.658944551
 10
1.2630044663
 20
0.6448951322
 10
1.28708717
 20
0.6348258527
  0
LWPOLYLINE
  5
4B4
330
488
100
AcDbEntity
  8
0
  6
Continuous
 62
     7
370
    25
100
AcDbPolyline
 90
       17
 70
   128
 43
0.0
 10
-1.4151398492
 20
0.2045396304
 10
-1.3854086591
 20
0.1999834467
 10
-1.3545552869
 20
0.2016339964
 10
-1.3272768787
 20
0.2092399984
 10
-1.3077263251
 20
0.2216435078
 10
-1.2988800204
 20
0.2369562027
 10
-1.3020847345
 20
0.2528468641
 10
-1.3168525786
 20
0.266896283
 10
-1.3409352823
 20
0.2769655625
 10
-1.3706664724
 20
0.2815217462
 10
-1.4015198446
 20
0.2798711964
 10
-1.4287982527
 20
0.2722651945
 10
-1.4483488064
 20
0.2598616851
 10
-1.4571951111
 20
0.2445489902
 10
-1.453990397
 20
0.2286583287
 10
-1.4392225529
 20
0.2146089099
 10
-1.4151398492
 20
0.2045396304
  0
LWPOLYLINE
  5
4B5
330
488
100
AcDbEntity
  8
0
  6
Continuous
 62
     7
370
    25
100
AcDbPolyline
 90
       17
 70
   128
 43
0.0
 10
-4.1173668684
 20
-0.2257465919
 10
-4.0876356783
 20
-0.2303027756
 10
-4.0567823061
 20
-0.2286522258
 10
-4.0295038979
 20
-0.2210462238
 10
-4.0099533443
 20
-0.2086427145
 10
-4.0011070396
 20
-0.1933300196
 10
-4.0043117537
 20
-0.1774393581
 10
-4.0190795978
 20
-0.1633899393
 10
-4.0431623015
 20
-0.1533206598
 10
-4.0728934916
 20
-0.1487644761
 10
-4.1037468638
 20
-0.1504150258
 10
-4.1310252719
 20
-0.1580210278
 10
-4.1505758256
 20
-0.1704245372
 10
-4.1594221303
 20
-0.1857372321
 10
-4.1562174162
 20
-0.2016278935
 10
-4.1414495721
 20
-0.2156773123
 10
-4.1173668684
 20
-0.2257465919
  0
LWPOLYLINE
  5
4B6
330
488
100
AcDbEntity
  8
0
  6
Continuous
 62
     7
370
    25
100
AcDbPolyline
 90
       17
 70
   128
 43
0.0
 10
-2.2505853167
 20
1.5962894314
 10
-2.2208541266
 20
1.5917332477
 10
-2.1900007544
 20
1.5933837974
 10
-2.1627223463
 20
1.6009897994
 10
-2.1431717926
 20
1.6133933088
 10
-2.1343254879
 20
1.6287060037
 10
-2.137530202
 20
1.6445966652
 10
-2.1522980461
 20
1.658646084
 10
-2.1763807498
 20
1.6687153635
 10
-2.2061119399
 20
1.6732715472
 10
-2.2369653121
 20
1.6716209975
 10
-2.2642437203
 20
1.6640149955
 10
-2.2837942739
 20
1.6516114861
 10
-2.2926405786
 20
1.6362987912
 10
-2.2894358645
 20
1.6204081297
 10
-2.2746680204
 20
1.6063587109
 10
-2.2505853167
 20
1.5962894314
  0
LWPOLYLINE
  5
4B7
330
488
100
AcDbEntity
  8
0
  6
Continuous
 62
     7
370
    25
100
AcDbPolyline
 90
       17
 70
   128
 43
0.0
 10
-0.4676140827
 20
1.1293538262
 10
-0.4492096912
 20
1.1265334283
 10
-0.4301106395
 20
1.1275551621
 10
-0.4132245848
 20
1.1322634781
 10
-0.401122276
 20
1.1399415778
 10
-0.39564618
 20
1.1494205402
 10
-0.3976299825
 20
1.159257279
 10
-0.4067716678
 20
1.1679542401
 10
-0.4216794971
 20
1.1741873899
 10
-0.4400838886
 20
1.1770077879
 10
-0.4591829403
 20
1.175986054
 10
-0.476068995
 20
1.171277738
 10
-0.4881713038
 20
1.1635996383
 10
-0.4936473998
 20
1.154120676
 10
-0.4916635973
 20
1.1442839371
 10
-0.482521912
 20
1.1355869761
 10
-0.4676140827
 20
1.1293538262
  0
LWPOLYLINE
  5
4B8
330
488
100
AcDbEntity
  8
0
  6
Continuous
 62
     7
370
    25
100
AcDbPolyline
 90
       17
 70
   128
 43
0.0
 10
-3.1698411019
 20
0.699067604
 10
-3.1514367104
 20
0.696247206
 10
-3.1323376587
 20
0.6972689399
 10
-3.115451604
 20
0.7019772559
 10
-3.1033492952
 20
0.7096553556
 10
-3.0978731991
 20
0.7191343179
 10
-3.0998570017
 20
0.7289710568
 10
-3.108998687
 20
0.7376680178
 10
-3.1239065163
 20
0.7439011676
 10
-3.1423109077
 20
0.7467215656
 10
-3.1614099595
 20
0.7456998318
 10
-3.1782960142
 20
0.7409915158
 10
-3.190398323
 20
0.7333134161
 10
-3.195874419
 20
0.7238344537
 10
-3.1938906165
 20
0.7139977149
 10
-3.1847489312
 20
0.7053007538
 10
-3.1698411019
 20
0.699067604
  0
LWPOLYLINE
  5
4B9
330
488
100
AcDbEntity
  8
0
  6
Continuous
 62
     7
370
    25
100
AcDbPolyline
 90
       17
 70
   128
 43
0.0
 10
-2.3343956343
 20
-0.692682197
 10
-2.3159912429
 20
-0.695502595
 10
-2.2968921911
 20
-0.6944808611
 10
-2.2800061365
 20
-0.6897725451
 10
-2.2679038277
 20
-0.6820944454
 10
-2.2624277316
 20
-0.6726154831
 10
-2.2644115342
 20
-0.6627787443
 10
-2.2735532195
 20
-0.6540817832
 10
-2.2884610488
 20
-0.6478486334
 10
-2.3068654402
 20
-0.6450282354
 10
-2.325964492
 20
-0.6460499692
 10
-2.3428505467
 20
-0.6507582852
 10
-2.3549528554
 20
-0.6584363849
 10
-2.3604289515
 20
-0.6679153473
 10
-2.3584451489
 20
-0.6777520861
 10
-2.3493034636
 20
-0.6864490472
 10
-2.3343956343
 20
-0.692682197
  0
LWPOLYLINE
  5
4BA
330
488
100
AcDbEntity
  8
0
  6
Continuous
 62
     7
370
    25
100
AcDbPolyline
 90
       17
 70
   128
 43
0.0
 10
0.3678313849
 20
-0.2623959748
 10
0.3862357763
 20
-0.2652163727
 10
0.4053348281
 20
-0.2641946389
 10
0.4222208827
 20
-0.2594863229
 10
0.4343231915
 20
-0.2518082232
 10
0.4397992876
 20
-0.2423292608
 10
0.437815485
 20
-0.232492522
 10
0.4286737997
 20
-0.2237955609
 10
0.4137659704
 20
-0.2175624111
 10
0.395361579
 20
-0.2147420131
 10
0.3762625272
 20
-0.215763747
 10
0.3593764725
 20
-0.220472063
 10
0.3472741638
 20
-0.2281501627
 10
0.3417980677
 20
-0.237629125
 10
0.3437818703
 20
-0.2474658639
 10
0.3529235556
 20
-0.2561628249
 10
0.3678313849
 20
-0.2623959748
  0
SPLINE
  5
4F2
330
488
100
AcDbEntity
  8
0
  6
Continuous
 62
     7
370
    25
100
AcDbSpline
210
0.0
220
0.0
230
1.0
 70
     8
 71
     3
 72
    12
 73
     8
 74
     0
 42
0.00000001
 43
0.00000001
 40
0.0
 40
0.0
 40
0.0
 40
0.0
 40
0.25
 40
0.25
 40
0.5
 40
0.5
 40
1.0
 40
1.0
 40
1.0
 40
1.0
 10
-9.773109784727023
 20
-4.381129140344481
 30
0.0
 10
-9.766423106401955
 20
-4.380753328609061
 30
0.0
 10
-9.759667518220898
 20
-4.380732789331125
 30
0.0
 10
-9.745930854343804
 20
-4.381854236837984
 30
0.0
 10
-9.738890101800463
 20
-4.383026455800533
 30
0.0
 10
-9.71768839415145
 20
-4.388809995695347
 30
0.0
 10
-9.70409287755847
 20
-4.395508632538249
 30
0.0
 10
-9.690745104447517
 20
-4.403514095582835
 30
0.0
  0
LWPOLYLINE
  5
4F4
330
488
100
AcDbEntity
  8
0
  6
Continuous
 62
     7
370
    25
100
AcDbPolyline
 90
       19
 70
   128
 43
0.0
 10
-8.7156909888
 20
-4.8228030255
 10
-8.7219906272
 20
-4.7864647199
 10
-8.7401297133
 20
-4.7510851368
 10
-8.7679204054
 20
-4.7209315761
 10
-8.802010736
 20
-4.699641002
 10
-8.8382889081
 20
-4.6897813722
 10
-8.8723792387
 20
-4.6925419035
 10
-8.9001699308
 20
-4.707589635
 10
-8.9183090168
 20
-4.7331095882
 10
-8.9246086553
 20
-4.7660236803
 10
-8.9183090168
 20
-4.8023619858
 10
-8.9001699308
 20
-4.8377415689
 10
-8.8723792387
 20
-4.8678951297
 10
-8.8382889081
 20
-4.8891857037
 10
-8.802010736
 20
-4.8990453335
 10
-8.7679204054
 20
-4.8962848023
 10
-8.7401297133
 20
-4.8812370708
 10
-8.7219906272
 20
-4.8557171175
 10
-8.7156909888
 20
-4.8228030255
  0
LWPOLYLINE
  5
4F5
330
488
100
AcDbEntity
  8
0
  6
Continuous
 62
     7
370
    25
100
AcDbPolyline
 90
       19
 70
   128
 43
0.0
 10
-5.1780185021
 20
-5.7842666042
 10
-5.1843181405
 20
-5.7479282987
 10
-5.2024572266
 20
-5.7125487156
 10
-5.2302479187
 20
-5.6823951548
 10
-5.2643382493
 20
-5.6611045808
 10
-5.3006164214
 20
-5.6512449509
 10
-5.334706752
 20
-5.6540054822
 10
-5.3624974441
 20
-5.6690532137
 10
-5.3806365301
 20
-5.694573167
 10
-5.3869361686
 20
-5.727487259
 10
-5.3806365301
 20
-5.7638255645
 10
-5.3624974441
 20
-5.7992051476
 10
-5.334706752
 20
-5.8293587084
 10
-5.3006164214
 20
-5.8506492824
 10
-5.2643382493
 20
-5.8605089123
 10
-5.2302479187
 20
-5.857748381
 10
-5.2024572266
 20
-5.8427006495
 10
-5.1843181405
 20
-5.8171806962
 10
-5.1780185021
 20
-5.7842666042
  0
LWPOLYLINE
  5
4F6
330
488
100
AcDbEntity
  8
0
  6
Continuous
 62
     7
370
    25
100
AcDbPolyline
 90
       19
 70
   128
 43
0.0
 10
-1.6403460154
 20
-6.7457301829
 10
-1.6466456538
 20
-6.7093918774
 10
-1.6647847399
 20
-6.6740122943
 10
-1.692575432
 20
-6.6438587335
 10
-1.7266657626
 20
-6.6225681595
 10
-1.7629439347
 20
-6.6127085297
 10
-1.7970342653
 20
-6.6154690609
 10
-1.8248249574
 20
-6.6305167924
 10
-1.8429640434
 20
-6.6560367457
 10
-1.8492636819
 20
-6.6889508377
 10
-1.8429640434
 20
-6.7252891433
 10
-1.8248249574
 20
-6.7606687264
 10
-1.7970342653
 20
-6.7908222872
 10
-1.7629439347
 20
-6.8121128612
 10
-1.7266657626
 20
-6.821972491
 10
-1.692575432
 20
-6.8192119598
 10
-1.6647847399
 20
-6.8041642282
 10
-1.6466456538
 20
-6.778644275
 10
-1.6403460154
 20
-6.7457301829
  0
LWPOLYLINE
  5
4FB
330
488
100
AcDbEntity
  8
0
  6
Continuous
 62
     7
370
    25
100
AcDbPolyline
 90
       17
 70
   128
 43
0.0
 10
8.7926254233
 20
2.0407119282
 10
8.7891288612
 20
2.0695849761
 10
8.7791714947
 20
2.0872368605
 10
8.7642692426
 20
2.090980242
 10
8.7466908378
 20
2.0802452249
 10
8.7291124329
 20
2.056666118
 10
8.7142101809
 20
2.0238326267
 10
8.7042528144
 20
1.9867433524
 10
8.7007562522
 20
1.9510448009
 10
8.7042528144
 20
1.922171753
 10
8.7142101809
 20
1.9045198686
 10
8.7291124329
 20
1.9007764871
 10
8.7466908378
 20
1.9115115042
 10
8.7642692426
 20
1.9350906111
 10
8.7791714947
 20
1.9679241024
 10
8.7891288612
 20
2.0050133767
 10
8.7926254233
 20
2.0407119282
  0
LWPOLYLINE
  5
4FC
330
488
100
AcDbEntity
  8
0
  6
Continuous
 62
     7
370
    25
100
AcDbPolyline
 90
       17
 70
   128
 43
0.0
 10
4.9102342548
 20
-1.7486208725
 10
4.9067376926
 20
-1.7197478246
 10
4.8967803261
 20
-1.7020959402
 10
4.8818780741
 20
-1.6983525587
 10
4.8642996692
 20
-1.7090875758
 10
4.8467212644
 20
-1.7326666827
 10
4.8318190123
 20
-1.765500174
 10
4.8218616458
 20
-1.8025894483
 10
4.8183650837
 20
-1.8382879998
 10
4.8218616458
 20
-1.8671610477
 10
4.8318190123
 20
-1.8848129321
 10
4.8467212644
 20
-1.8885563136
 10
4.8642996692
 20
-1.8778212965
 10
4.8818780741
 20
-1.8542421896
 10
4.8967803261
 20
-1.8214086983
 10
4.9067376926
 20
-1.784319424
 10
4.9102342548
 20
-1.7486208725
  0
LWPOLYLINE
  5
4FE
330
488
100
AcDbEntity
  8
0
  6
Continuous
 62
     7
370
    25
100
AcDbPolyline
 90
        7
 70
   128
 43
0.0
 10
-8.2133488533
 20
-3.5537361665
 10
-8.212011068
 20
-3.5670387434
 10
-8.2021942347
 20
-3.5917684549
 10
-8.1831987074
 20
-3.6150366068
 10
-8.1557544734
 20
-3.6359490171
 10
-8.1209161994
 20
-3.6537020338
 10
-8.0800227006
 20
-3.6676134182
  0
LWPOLYLINE
  5
500
330
488
100
AcDbEntity
  8
0
  6
Continuous
 62
     7
370
    25
100
AcDbPolyline
 90
        9
 70
   128
 43
0.0
 10
-8.0800227006
 20
-3.6247550531
 10
-8.1209161994
 20
-3.6108436687
 10
-8.1557544734
 20
-3.5930906521
 10
-8.1831987074
 20
-3.5721782417
 10
-8.2021942347
 20
-3.5489100898
 10
-8.212011068
 20
-3.5241803784
 10
-8.2122719519
 20
-3.4989394564
 10
-8.2029668606
 20
-3.4741573183
 10
-8.1844533838
 20
-3.4507863278
  0
LWPOLYLINE
  5
505
330
488
100
AcDbEntity
  8
0
  6
Continuous
 62
     7
370
    25
100
AcDbPolyline
 90
       17
 70
   128
 43
0.0
 10
1.4488646173
 20
-5.7622395744
 10
1.4520699541
 20
-5.7295143217
 10
1.4611979809
 20
-5.6955141782
 10
1.4748590384
 20
-5.6654153576
 10
1.4909733544
 20
-5.6438001324
 10
1.5070876704
 20
-5.6339592247
 10
1.5207487279
 20
-5.6373908235
 10
1.5298767547
 20
-5.6535724991
 10
1.5330820914
 20
-5.6800407379
 10
1.5298767547
 20
-5.7127659906
 10
1.5207487279
 20
-5.746766134
 10
1.5070876704
 20
-5.7768649547
 10
1.4909733544
 20
-5.7984801799
 10
1.4748590384
 20
-5.8083210876
 10
1.4611979809
 20
-5.8048894888
 10
1.4520699541
 20
-5.7887078132
 10
1.4488646173
 20
-5.7622395744
  0
LWPOLYLINE
  5
506
330
488
100
AcDbEntity
  8
0
  6
Continuous
 62
     7
370
    25
100
AcDbPolyline
 90
        9
 70
   128
 43
0.0
 10
1.3273540169
 20
-5.7531004677
 10
1.3306727207
 20
-5.7133337191
 10
1.3402691989
 20
-5.6713980016
 10
1.3551035244
 20
-5.6318377007
 10
1.3735681676
 20
-5.598939789
 10
1.3936621981
 20
-5.5762692657
 10
1.4132081158
 20
-5.5662828336
 10
1.4300878173
 20
-5.5700626778
 10
1.4304463099
 20
-5.5703237835
  0
LWPOLYLINE
  5
507
330
488
100
AcDbEntity
  8
0
  6
Continuous
 62
     7
370
    25
100
AcDbPolyline
 90
        5
 70
   128
 43
0.0
 10
1.3624341084
 20
-5.8205723622
 10
1.3551035244
 20
-5.8201944947
 10
1.3402691989
 20
-5.8095917066
 10
1.3306727207
 20
-5.786388903
 10
1.3273540169
 20
-5.7531004677
  0
LWPOLYLINE
  5
508
330
488
100
AcDbEntity
  8
0
  6
Continuous
 62
     7
370
    25
100
AcDbPolyline
 90
        8
 70
   128
 43
0.0
 10
1.2288612501
 20
-5.7263322441
 10
1.2321799538
 20
-5.6865654955
 10
1.2417764321
 20
-5.644629778
 10
1.2566107575
 20
-5.6050694771
 10
1.2750754008
 20
-5.5721715654
 10
1.2951694313
 20
-5.5495010421
 10
1.314715349
 20
-5.53951461
 10
1.3245317212
 20
-5.5399019055
  0
LWPOLYLINE
  5
50A
330
488
100
AcDbEntity
  8
0
  6
Continuous
 62
     7
370
    25
100
AcDbPolyline
 90
       17
 70
   128
 43
0.0
 10
1.4680060616
 20
-5.743556938
 10
1.4697543427
 20
-5.7257076622
 10
1.4747330259
 20
-5.7071630251
 10
1.482184152
 20
-5.6907462794
 10
1.4909733544
 20
-5.678956726
 10
1.4997625568
 20
-5.6735892174
 10
1.5072136828
 20
-5.6754609082
 10
1.5121923661
 20
-5.6842868504
 10
1.5139406472
 20
-5.6987233743
 10
1.5121923661
 20
-5.7165726501
 10
1.5072136828
 20
-5.7351172872
 10
1.4997625568
 20
-5.7515340329
 10
1.4909733544
 20
-5.7633235863
 10
1.482184152
 20
-5.7686910949
 10
1.4747330259
 20
-5.7668194041
 10
1.4697543427
 20
-5.7579934619
 10
1.4680060616
 20
-5.743556938
  0
LWPOLYLINE
  5
50C
330
488
100
AcDbEntity
  8
0
  6
Continuous
 62
     7
370
    25
100
AcDbPolyline
 90
        3
 70
   128
 43
0.0
 10
1.2305537664
 20
-5.7601484431
 10
1.2265396247
 20
-5.748229916
 10
1.2232255097
 20
-5.7169437911
  0
LWPOLYLINE
  5
50D
330
488
100
AcDbEntity
  8
0
  6
Continuous
 62
     7
370
    25
100
AcDbPolyline
 90
       14
 70
   128
 43
0.0
 10
0.9597872823
 20
-5.7004681787
 10
0.963164992
 20
-5.6500492588
 10
0.9730679356
 20
-5.5964728086
 10
0.988821244
 20
-5.5433899747
 10
1.0093513552
 20
-5.4944182644
 10
1.033259176
 20
-5.4528950189
 10
1.058915428
 20
-5.4216499789
 10
1.08457168
 20
-5.402812442
 10
1.1084795009
 20
-5.3976661553
 10
1.129009612
 20
-5.4065618298
 10
1.1447629204
 20
-5.4288932399
 10
1.154665864
 20
-5.463138537
 10
1.1580435737
 20
-5.5069639605
 10
1.1580394243
 20
-5.5086338405
  0
LWPOLYLINE
  5
50E
330
488
100
AcDbEntity
  8
0
  6
Continuous
 62
     7
370
    25
100
AcDbPolyline
 90
        9
 70
   128
 43
0.0
 10
1.0962755891
 20
-5.7358917683
 10
1.08457168
 20
-5.7545371203
 10
1.058915428
 20
-5.7857821604
 10
1.033259176
 20
-5.8046196973
 10
1.0093513552
 20
-5.809765984
 10
0.988821244
 20
-5.8008703095
 10
0.9730679356
 20
-5.7785388994
 10
0.963164992
 20
-5.7442936023
 10
0.9597872823
 20
-5.7004681787
  0
LWPOLYLINE
  5
50F
330
488
100
AcDbEntity
  8
0
  6
Continuous
 62
     7
370
    25
100
AcDbPolyline
 90
       10
 70
   128
 43
0.0
 10
0.882780355
 20
-5.6795393459
 10
0.8861580647
 20
-5.629120426
 10
0.8960610083
 20
-5.5755439758
 10
0.9118143167
 20
-5.5224611419
 10
0.9323444278
 20
-5.4734894316
 10
0.9562522487
 20
-5.4319661862
 10
0.9819085007
 20
-5.4007211461
 10
1.0075647527
 20
-5.3818836092
 10
1.0314725735
 20
-5.3767373225
 10
1.0376147766
 20
-5.377817892
  0
LWPOLYLINE
  5
510
330
488
100
AcDbEntity
  8
0
  6
Continuous
 62
     7
370
    25
100
AcDbPolyline
 90
        5
 70
   128
 43
0.0
 10
0.9262022247
 20
-5.7877565817
 10
0.9118143167
 20
-5.7799414767
 10
0.8960610083
 20
-5.7576100666
 10
0.8861580647
 20
-5.7233647695
 10
0.882780355
 20
-5.6795393459
  0
LWPOLYLINE
  5
511
330
488
100
AcDbEntity
  8
0
  6
Continuous
 62
     7
370
    25
100
AcDbPolyline
 90
        8
 70
   128
 43
0.0
 10
1.0039617056
 20
-5.6573525874
 10
1.0072758206
 20
-5.6195971069
 10
1.0168184343
 20
-5.5799261389
 10
1.0314385668
 20
-5.5431245877
 10
1.0493728143
 20
-5.5136312634
 10
1.0684580418
 20
-5.4950034962
 10
1.0863922892
 20
-5.4894880699
 10
1.0897973456
 20
-5.4900871058
  0
LINE
  5
517
330
488
100
AcDbEntity
  8
0
  6
Continuous
 62
     7
370
    25
100
AcDbLine
 10
-8.7239864434
 20
-3.7649584676
 30
0.0
 11
-8.7153712532
 21
-3.7756496294
 31
0.0
  0
LINE
  5
518
330
488
100
AcDbEntity
  8
0
  6
Continuous
 62
     7
370
    25
100
AcDbLine
 10
2.3332133061
 20
6.7855351742
 30
0.0
 11
2.3262966356
 21
6.7941185301
 31
0.0
  0
LINE
  5
519
330
488
100
AcDbEntity
  8
0
  6
Continuous
 62
     7
370
    25
100
AcDbLine
 10
-8.2133488533
 20
-3.5108778014
 30
0.0
 11
-8.2133488533
 21
-3.5537361665
 31
0.0
  0
LINE
  5
51A
330
488
100
AcDbEntity
  8
0
  6
Continuous
 62
     7
370
    25
100
AcDbLine
 10
1.3624341084
 20
-5.8205723622
 30
0.0
 11
1.4729817435
 21
-5.8086256618
 31
0.0
  0
LINE
  5
51B
330
488
100
AcDbEntity
  8
0
  6
Continuous
 62
     7
370
    25
100
AcDbLine
 10
1.5197392852
 20
-5.6365828798
 30
0.0
 11
1.4304463099
 21
-5.5703237835
 31
0.0
  0
LINE
  5
51C
330
488
100
AcDbEntity
  8
0
  6
Continuous
 62
     7
370
    25
100
AcDbLine
 10
1.2556911416
 20
-5.7931984734
 30
0.0
 11
1.3541839084
 21
-5.8199666969
 31
0.0
  0
LINE
  5
51D
330
488
100
AcDbEntity
  8
0
  6
Continuous
 62
     7
370
    25
100
AcDbLine
 10
1.4230244881
 20
-5.5666701291
 30
0.0
 11
1.3245317212
 21
-5.5399019055
 31
0.0
  0
LINE
  5
51E
330
488
100
AcDbEntity
  8
0
  6
Continuous
 62
     7
370
    25
100
AcDbLine
 10
1.2989659043
 20
-5.5465930347
 30
0.0
 11
1.2861234739
 21
-5.5556815972
 31
0.0
  0
LINE
  5
51F
330
488
100
AcDbEntity
  8
0
  6
Continuous
 62
     7
370
    25
100
AcDbLine
 10
1.2305537664
 20
-5.7601484431
 30
0.0
 11
1.2370291599
 21
-5.7744871761
 31
0.0
  0
LINE
  5
520
330
488
100
AcDbEntity
  8
0
  6
Continuous
 62
     7
370
    25
100
AcDbLine
 10
0.9262022247
 20
-5.7877565817
 30
0.0
 11
1.0032091521
 21
-5.8086854145
 31
0.0
  0
LINE
  5
521
330
488
100
AcDbEntity
  8
0
  6
Continuous
 62
     7
370
    25
100
AcDbLine
 10
1.114621704
 20
-5.3987467248
 30
0.0
 11
1.0376147766
 21
-5.377817892
 31
0.0
  0
LINE
  5
522
330
488
100
AcDbEntity
  8
0
  6
Continuous
 62
     7
370
    25
100
AcDbLine
 10
1.0280335104
 20
-5.7173450335
 30
0.0
 11
1.236853308
 21
-5.77409778
 31
0.0
  0
LINE
  5
523
330
488
100
AcDbEntity
  8
0
  6
Continuous
 62
     7
370
    25
100
AcDbLine
 10
1.2986171432
 20
-5.5468398523
 30
0.0
 11
1.0897973456
 21
-5.4900871058
 31
0.0
  0
LINE
  5
524
330
488
100
AcDbEntity
  8
0
  6
Continuous
 62
     7
370
    25
100
AcDbLine
 10
-1.5831970377
 20
3.2985280551
 30
0.0
 11
3.6397446334
 21
1.879044423
 31
0.0
  0
LINE
  5
525
330
488
100
AcDbEntity
  8
0
  6
Continuous
 62
     7
370
    25
100
AcDbLine
 10
3.6397446334
 20
1.879044423
 30
0.0
 11
3.6397446334
 21
1.7289976431
 31
0.0
  0
LINE
  5
526
330
488
100
AcDbEntity
  8
0
  6
Continuous
 62
     7
370
    25
100
AcDbLine
 10
-1.7311600711
 20
2.8081542547
 30
0.0
 11
-1.5831970377
 21
2.9113450474
 31
0.0
  0
LINE
  5
527
330
488
100
AcDbEntity
  8
0
  6
Continuous
 62
     7
370
    25
100
AcDbLine
 10
-1.5831970377
 20
2.9113450474
 30
0.0
 11
-1.5831970377
 21
3.2985280551
 31
0.0
  0
LINE
  5
528
330
488
100
AcDbEntity
  8
0
  6
Continuous
 62
     7
370
    25
100
AcDbLine
 10
3.6397446334
 20
1.879044423
 30
0.0
 11
6.3958197648
 21
4.5690582427
 31
0.0
  0
LINE
  5
529
330
488
100
AcDbEntity
  8
0
  6
Continuous
 62
     7
370
    25
100
AcDbLine
 10
-1.5831970377
 20
3.2985280551
 30
0.0
 11
1.1728780937
 21
5.9885418748
 31
0.0
  0
LINE
  5
52A
330
488
100
AcDbEntity
  8
0
  6
Continuous
 62
     7
370
    25
100
AcDbLine
 10
1.1728780937
 20
5.9885418748
 30
0.0
 11
6.3958197648
 21
4.5690582427
 31
0.0
  0
LINE
  5
52B
330
488
100
AcDbEntity
  8
0
  6
Continuous
 62
     7
370
    25
100
AcDbLine
 10
6.3958197648
 20
4.5690582427
 30
0.0
 11
6.3958197648
 21
4.4190114628
 31
0.0
  0
LINE
  5
52C
330
488
100
AcDbEntity
  8
0
  6
Continuous
 62
     7
370
    25
100
AcDbLine
 10
-5.367545967
 20
-0.3945124974
 30
0.0
 11
-0.1446042959
 21
-1.8139961295
 31
0.0
  0
LINE
  5
52D
330
488
100
AcDbEntity
  8
0
  6
Continuous
 62
     7
370
    25
100
AcDbLine
 10
-0.1446042959
 20
-1.8139961295
 30
0.0
 11
-0.1446042959
 21
-1.9646429265
 31
0.0
  0
LINE
  5
52E
330
488
100
AcDbEntity
  8
0
  6
Continuous
 62
     7
370
    25
100
AcDbLine
 10
-1.2598824128
 20
-3.053188559
 30
0.0
 11
-6.3258204656
 21
-1.6763751461
 31
0.0
  0
LINE
  5
52F
330
488
100
AcDbEntity
  8
0
  6
Continuous
 62
     7
370
    25
100
AcDbLine
 10
-5.513355479
 20
-0.8833844119
 30
0.0
 11
-5.367545967
 21
-0.7816955051
 31
0.0
  0
LINE
  5
530
330
488
100
AcDbEntity
  8
0
  6
Continuous
 62
     7
370
    25
100
AcDbLine
 10
-5.367545967
 20
-0.7816955051
 30
0.0
 11
-5.367545967
 21
-0.3945124974
 31
0.0
  0
LINE
  5
531
330
488
100
AcDbEntity
  8
0
  6
Continuous
 62
     7
370
    25
100
AcDbLine
 10
-0.1446042959
 20
-1.8139961295
 30
0.0
 11
2.6114708356
 21
0.8760176902
 31
0.0
  0
LINE
  5
532
330
488
100
AcDbEntity
  8
0
  6
Continuous
 62
     7
370
    25
100
AcDbLine
 10
-5.367545967
 20
-0.3945124974
 30
0.0
 11
-2.6114708356
 21
2.2955013224
 31
0.0
  0
LINE
  5
533
330
488
100
AcDbEntity
  8
0
  6
Continuous
 62
     7
370
    25
100
AcDbLine
 10
-2.6114708356
 20
2.2955013224
 30
0.0
 11
2.6114708356
 21
0.8760176902
 31
0.0
  0
LINE
  5
534
330
488
100
AcDbEntity
  8
0
  6
Continuous
 62
     7
370
    25
100
AcDbLine
 10
2.6114708356
 20
0.8760176902
 30
0.0
 11
2.6114708356
 21
0.7253708933
 31
0.0
  0
LINE
  5
535
330
488
100
AcDbEntity
  8
0
  6
Continuous
 62
     7
370
    25
100
AcDbLine
 10
1.3025957878
 20
7.6946907584
 30
0.0
 11
2.6533181373
 21
7.3275933663
 31
0.0
  0
LINE
  5
536
330
488
100
AcDbEntity
  8
0
  6
Continuous
 62
     7
370
    25
100
AcDbLine
 10
2.6533181373
 20
7.3275933663
 30
0.0
 11
1.2577495417
 21
5.9654756338
 31
0.0
  0
LINE
  5
537
330
488
100
AcDbEntity
  8
0
  6
Continuous
 62
     7
370
    25
100
AcDbLine
 10
-1.5831970377
 20
3.192624679
 30
0.0
 11
-2.5261185311
 21
2.2723043949
 31
0.0
  0
LINE
  5
538
330
488
100
AcDbEntity
  8
0
  6
Continuous
 62
     7
370
    25
100
AcDbLine
 10
-5.367545967
 20
-0.5010158906
 30
0.0
 11
-7.9116365333
 21
-2.984126276
 31
0.0
  0
LINE
  5
539
330
488
100
AcDbEntity
  8
0
  6
Continuous
 62
     7
370
    25
100
AcDbLine
 10
-9.2623588829
 20
-2.6170288838
 30
0.0
 11
-7.9116365333
 21
-2.984126276
 31
0.0
  0
LINE
  5
53A
330
488
100
AcDbEntity
  8
0
  6
Continuous
 62
     7
370
    25
100
AcDbLine
 10
1.3025957878
 20
7.6946907584
 30
0.0
 11
-9.2623588829
 21
-2.6170288838
 31
0.0
  0
LINE
  5
53B
330
488
100
AcDbEntity
  8
0
  6
Continuous
 62
     7
370
    25
100
AcDbLine
 10
-10.1467770046
 20
-3.2338302899
 30
0.0
 11
-9.2623588829
 21
-2.6170288838
 31
0.0
  0
LINE
  5
53C
330
488
100
AcDbEntity
  8
0
  6
Continuous
 62
     7
370
    25
100
AcDbLine
 10
-7.9116365333
 20
-2.984126276
 30
0.0
 11
-7.9116365333
 21
-3.1984181011
 31
0.0
  0
LINE
  5
53D
330
488
100
AcDbEntity
  8
0
  6
Continuous
 62
     7
370
    25
100
AcDbLine
 10
-7.9116365333
 20
-3.1984181011
 30
0.0
 11
-8.9729382793
 21
-3.9385797884
 31
0.0
  0
LINE
  5
53E
330
488
100
AcDbEntity
  8
0
  6
Continuous
 62
     7
370
    25
100
AcDbLine
 10
-8.9729382793
 20
-3.9385797884
 30
0.0
 11
-8.9729382793
 21
-4.1528716135
 31
0.0
  0
LINE
  5
53F
330
488
100
AcDbEntity
  8
0
  6
Continuous
 62
     7
370
    25
100
AcDbLine
 10
-9.1941124451
 20
-4.0927612145
 30
0.0
 11
-9.1941124451
 21
-4.1784779445
 31
0.0
  0
LINE
  5
540
330
488
100
AcDbEntity
  8
0
  6
Continuous
 62
     7
370
    25
100
AcDbLine
 10
-9.1941124451
 20
-4.1784779445
 30
0.0
 11
-10.1467770046
 21
-3.9195641304
 31
0.0
  0
LINE
  5
541
330
488
100
AcDbEntity
  8
0
  6
Continuous
 62
     7
370
    25
100
AcDbLine
 10
-10.1467770046
 20
-3.2338302899
 30
0.0
 11
-10.1467770046
 21
-4.6910147011
 31
0.0
  0
LINE
  5
542
330
488
100
AcDbEntity
  8
0
  6
Continuous
 62
     7
370
    25
100
AcDbLine
 10
2.6533181373
 20
7.3275933663
 30
0.0
 11
2.6533181373
 21
7.1133015411
 31
0.0
  0
LINE
  5
543
330
488
100
AcDbEntity
  8
0
  6
Continuous
 62
     7
370
    25
100
AcDbLine
 10
2.6533181373
 20
7.1133015411
 30
0.0
 11
1.4294839866
 21
5.9188018915
 31
0.0
  0
LINE
  5
544
330
488
100
AcDbEntity
  8
0
  6
Continuous
 62
     7
370
    25
100
AcDbLine
 10
-1.5831970377
 20
2.9783328538
 30
0.0
 11
-2.3543840863
 21
2.2256306526
 31
0.0
  0
LINE
  5
545
330
488
100
AcDbEntity
  8
0
  6
Continuous
 62
     7
370
    25
100
AcDbLine
 10
-5.367545967
 20
-0.7153077157
 30
0.0
 11
-7.9116365333
 21
-3.1984181011
 31
0.0
  0
LINE
  5
546
330
488
100
AcDbEntity
  8
0
  6
Continuous
 62
     7
370
    25
100
AcDbLine
 10
0.4181776661
 20
7.0778893524
 30
0.0
 11
1.3025957878
 21
7.6946907584
 31
0.0
  0
LINE
  5
547
330
488
100
AcDbEntity
  8
0
  6
Continuous
 62
     7
370
    25
100
AcDbLine
 10
0.4181776661
 20
7.0778893524
 30
0.0
 11
-10.1467770046
 21
-3.2338302899
 31
0.0
  0
LINE
  5
548
330
488
100
AcDbEntity
  8
0
  6
Continuous
 62
     7
370
    25
100
AcDbLine
 10
-8.6373821142
 20
-3.7326628579
 30
0.0
 11
-8.0763828091
 21
-3.3414167361
 31
0.0
  0
LINE
  5
549
330
488
100
AcDbEntity
  8
0
  6
Continuous
 62
     7
370
    25
100
AcDbLine
 10
-7.8033644491
 20
-3.1185033702
 30
0.0
 11
-5.367545967
 21
-0.7410698582
 31
0.0
  0
LINE
  5
54A
330
488
100
AcDbEntity
  8
0
  6
Continuous
 62
     7
370
    25
100
AcDbLine
 10
-2.3337381879
 20
2.2200195398
 30
0.0
 11
-1.5831970377
 21
2.9525707113
 31
0.0
  0
LINE
  5
54B
330
488
100
AcDbEntity
  8
0
  6
Continuous
 62
     7
370
    25
100
AcDbLine
 10
1.4501298849
 20
5.9131907788
 30
0.0
 11
2.2948948326
 21
6.7377072652
 31
0.0
  0
LINE
  5
54C
330
488
100
AcDbEntity
  8
0
  6
Continuous
 62
     7
370
    25
100
AcDbLine
 10
-8.3046881446
 20
-3.5006389959
 30
0.0
 11
-8.9729382793
 21
-4.1528716135
 31
0.0
  0
LINE
  5
54D
330
488
100
AcDbEntity
  8
0
  6
Continuous
 62
     7
370
    25
100
AcDbLine
 10
-0.4181776661
 20
-5.8778551314
 30
0.0
 11
-1.3025957878
 21
-4.780321936
 31
0.0
  0
LINE
  5
54E
330
488
100
AcDbEntity
  8
0
  6
Continuous
 62
     7
370
    25
100
AcDbLine
 10
-1.3025957878
 20
-4.780321936
 30
0.0
 11
9.2623588829
 21
5.5313977062
 31
0.0
  0
LINE
  5
54F
330
488
100
AcDbEntity
  8
0
  6
Continuous
 62
     7
370
    25
100
AcDbLine
 10
10.1467770046
 20
4.4338645108
 30
0.0
 11
9.2623588829
 21
5.5313977062
 31
0.0
  0
LINE
  5
550
330
488
100
AcDbEntity
  8
0
  6
Continuous
 62
     7
370
    25
100
AcDbLine
 10
-0.4181776661
 20
-5.8778551314
 30
0.0
 11
10.1467770046
 21
4.4338645108
 31
0.0
  0
LINE
  5
551
330
488
100
AcDbEntity
  8
0
  6
Continuous
 62
     7
370
    25
100
AcDbLine
 10
-1.3708422255
 20
-6.3046751578
 30
0.0
 11
-0.4181776661
 21
-6.5635889719
 31
0.0
  0
LINE
  5
552
330
488
100
AcDbEntity
  8
0
  6
Continuous
 62
     7
370
    25
100
AcDbLine
 10
-1.3708422255
 20
-6.3046751578
 30
0.0
 11
-1.3708422255
 21
-6.2189584278
 31
0.0
  0
LINE
  5
553
330
488
100
AcDbEntity
  8
0
  6
Continuous
 62
     7
370
    25
100
AcDbLine
 10
-1.3708422255
 20
-6.2189584278
 30
0.0
 11
-9.1941124451
 21
-4.0927612145
 31
0.0
  0
LINE
  5
554
330
488
100
AcDbEntity
  8
0
  6
Continuous
 62
     7
370
    25
100
AcDbLine
 10
-1.5920163913
 20
-5.9445562035
 30
0.0
 11
-1.5920163913
 21
-6.1588480287
 31
0.0
  0
LINE
  5
555
330
488
100
AcDbEntity
  8
0
  6
Continuous
 62
     7
370
    25
100
AcDbLine
 10
-2.6533181373
 20
-4.627516369
 30
0.0
 11
-1.5920163913
 21
-5.9445562035
 31
0.0
  0
LINE
  5
556
330
488
100
AcDbEntity
  8
0
  6
Continuous
 62
     7
370
    25
100
AcDbLine
 10
-2.6533181373
 20
-4.4132245439
 30
0.0
 11
-2.6533181373
 21
-4.627516369
 31
0.0
  0
LINE
  5
557
330
488
100
AcDbEntity
  8
0
  6
Continuous
 62
     7
370
    25
100
AcDbLine
 10
-1.3025957878
 20
-4.780321936
 30
0.0
 11
-2.6533181373
 21
-4.4132245439
 31
0.0
  0
LINE
  5
558
330
488
100
AcDbEntity
  8
0
  6
Continuous
 62
     7
370
    25
100
AcDbLine
 10
-0.4181776661
 20
-7.3350395426
 30
0.0
 11
-0.4181776661
 21
-5.8778551314
 31
0.0
  0
LINE
  5
559
330
488
100
AcDbEntity
  8
0
  6
Continuous
 62
     7
370
    25
100
AcDbLine
 10
-2.6533181373
 20
-4.4132245439
 30
0.0
 11
7.9116365333
 21
5.8984950984
 31
0.0
  0
LINE
  5
55A
330
488
100
AcDbEntity
  8
0
  6
Continuous
 62
     7
370
    25
100
AcDbLine
 10
9.2623588829
 20
5.5313977062
 30
0.0
 11
7.9116365333
 21
5.8984950984
 31
0.0
  0
LINE
  5
55B
330
488
100
AcDbEntity
  8
0
  6
Continuous
 62
     7
370
    25
100
AcDbLine
 10
10.1467770046
 20
2.9766800996
 30
0.0
 11
10.1467770046
 21
4.4338645108
 31
0.0
  0
LINE
  5
55C
330
488
100
AcDbEntity
  8
0
  6
Continuous
 62
     7
370
    25
100
AcDbLine
 10
-0.4181776661
 20
-6.5635889719
 30
0.0
 11
10.1467770046
 21
3.7481306703
 31
0.0
  0
LINE
  5
55D
330
488
100
AcDbEntity
  8
0
  6
Continuous
 62
     7
370
    25
100
AcDbLine
 10
-10.1467770046
 20
-4.6910147011
 30
0.0
 11
-9.7731097847
 21
-4.7925694447
 31
0.0
  0
LINE
  5
55E
330
488
100
AcDbEntity
  8
0
  6
Continuous
 62
     7
370
    25
100
AcDbLine
 10
-9.6907451044
 20
-4.8149543999
 30
0.0
 11
-0.4181776661
 21
-7.3350395426
 31
0.0
  0
LINE
  5
55F
330
488
100
AcDbEntity
  8
0
  6
Continuous
 62
     7
370
    25
100
AcDbLine
 10
-9.6907451044
 20
-4.8149543999
 30
0.0
 11
-9.6907451044
 21
-4.4035140956
 31
0.0
  0
LINE
  5
560
330
488
100
AcDbEntity
  8
0
  6
Continuous
 62
     7
370
    25
100
AcDbLine
 10
-9.7731097847
 20
-4.3811291403
 30
0.0
 11
-9.7731097847
 21
-4.7925694447
 31
0.0
  0
LINE
  5
561
330
488
100
AcDbEntity
  8
0
  6
Continuous
 62
     7
370
    25
100
AcDbLine
 10
-0.4181776661
 20
-7.3350395426
 30
0.0
 11
1.1932415088
 21
-5.7622450275
 31
0.0
  0
LINE
  5
562
330
488
100
AcDbEntity
  8
0
  6
Continuous
 62
     7
370
    25
100
AcDbLine
 10
1.40002391
 20
-5.5604190648
 30
0.0
 11
10.1467770046
 21
2.9766800996
 31
0.0
  0
LINE
  5
563
330
488
100
AcDbEntity
  8
0
  6
Continuous
 62
     7
370
    25
100
AcDbLine
 10
6.7438423086
 20
4.7586921346
 30
0.0
 11
1.6779042558
 21
6.1355055475
 31
0.0
  0
LINE
  5
564
330
488
100
AcDbEntity
  8
0
  6
Continuous
 62
     7
370
    25
100
AcDbLine
 10
-8.0800227006
 20
-3.6676134182
 30
0.0
 11
-2.1219876347
 21
-5.2868796838
 31
0.0
  0
LINE
  5
565
330
488
100
AcDbEntity
  8
0
  6
Continuous
 62
     7
370
    25
100
AcDbLine
 10
-8.1844533838
 20
-3.4507863278
 30
0.0
 11
-8.0619573753
 21
-3.3312264682
 31
0.0
  0
LINE
  5
566
330
488
100
AcDbEntity
  8
0
  6
Continuous
 62
     7
370
    25
100
AcDbLine
 10
-2.1662085408
 20
-5.2320030241
 30
0.0
 11
-8.0800227006
 21
-3.6247550531
 31
0.0
  0
LINE
  5
567
330
488
100
AcDbEntity
  8
0
  6
Continuous
 62
     7
370
    25
100
AcDbLine
 10
-8.0800227006
 20
-3.6247550531
 30
0.0
 11
-8.0800227006
 21
-3.6676134182
 31
0.0
  0
LINE
  5
568
330
488
100
AcDbEntity
  8
0
  6
Continuous
 62
     8
370
    25
100
AcDbLine
 10
-8.0763828091
 20
-3.3414167361
 30
0.0
 11
-8.0908810579
 21
-3.3234248961
 31
0.0
  0
LINE
  5
569
330
488
100
AcDbEntity
  8
0
  6
Continuous
 62
     8
370
    25
100
AcDbLine
 10
-7.8033644491
 20
-3.1185033702
 30
0.0
 11
-7.8149847362
 21
-3.1040829841
 31
0.0
  0
LINE
  5
56A
330
488
100
AcDbEntity
  8
0
  6
Continuous
 62
     8
370
    25
100
AcDbLine
 10
-8.6373821142
 20
-3.7326628579
 30
0.0
 11
-8.651880363
 21
-3.7146710179
 31
0.0
  0
LINE
  5
56B
330
488
100
AcDbEntity
  8
0
  6
Continuous
 62
     8
370
    25
100
AcDbLine
 10
2.2948948326
 20
6.7377072652
 30
0.0
 11
2.2832745456
 21
6.7521276513
 31
0.0
  0
ARC
  5
56C
330
488
100
AcDbEntity
  8
0
  6
Continuous
 62
     7
370
    25
100
AcDbCircle
 10
-9.5322749184
 20
-1.2796293193
 30
0.0
 40
2.524002612111651
100
AcDbArc
 50
305.227102272
 51
313.23463127
  0
ARC
  5
56D
330
488
100
AcDbEntity
  8
0
  6
Continuous
 62
     7
370
    25
100
AcDbCircle
 10
-8.7616348765
 20
-3.5994757963
 30
0.0
 40
0.1821470348579443
100
AcDbArc
 50
284.7137779955
 51
313.0123810198
  0
ARC
  5
56E
330
488
100
AcDbEntity
  8
0
  6
Continuous
 62
     7
370
    25
100
AcDbCircle
 10
2.2400903007
 20
6.8208790623
 30
0.0
 40
0.0996046411987089
100
AcDbArc
 50
303.3821528195
 51
339.2162523134
  0
ARC
  5
56F
330
488
100
AcDbEntity
  8
0
  6
Continuous
 62
     7
370
    25
100
AcDbCircle
 10
-9.7598612832
 20
-4.90654353
 30
0.0
 40
0.1147415135133066
100
AcDbArc
 50
52.9605914509
 51
96.6303822318
  0
ARC
  5
570
330
488
100
AcDbEntity
  8
0
  6
Continuous
 62
     7
370
    25
100
AcDbCircle
 10
1.2916894443
 20
-5.739938428
 30
0.0
 40
0.0642846034031643
100
AcDbArc
 50
167.7806190466
 51
235.9453588766
  0
ARC
  5
571
330
488
100
AcDbEntity
  8
0
  6
Continuous
 62
     7
370
    25
100
AcDbCircle
 10
1.4395005354
 20
-5.7084013938
 30
0.0
 40
0.2164436630020386
100
AcDbArc
 50
135.1230278629
 51
182.2618840431
  0
ARC
  5
572
330
488
100
AcDbEntity
  8
0
  6
Continuous
 62
     7
370
    25
100
AcDbCircle
 10
1.0589039881
 20
-5.6701327429
 30
0.0
 40
0.0564091019026961
100
AcDbArc
 50
166.9052572466
 51
236.8207206766
  0
VIEWPORT
  5
663
330
488
100
AcDbEntity
  8
0
100
AcDbViewport
 10
0.0
 20
0.0
 30
0.0
 40
8.4
 41
6.4
 68
     1
 69
     1
 12
-0.0309744178
 22
0.1777086351
 13
0.0
 23
0.0
 14
0.5
 24
0.5
 15
0.5
 25
0.5
 16
0.0
 26
0.0
 36
1.0
 17
0.0
 27
0.0
 37
0.0
 42
50.0
 43
0.0
 44
0.0
 45
13.0078768576
 50
0.0
 51
0.0
 72
   100
 90
   557152
  1

281
     0
 71
     1
 74
     0
110
0.0
120
0.0
130
0.0
111
1.0
121
0.0
131
0.0
112
0.0
122
1.0
132
0.0
 79
     0
146
0.0
  0
ENDBLK
  5
48B
330
488
100
AcDbEntity
  8
0
100
AcDbBlockEnd
  0
BLOCK
  5
575
330
573
100
AcDbEntity
  8
0
100
AcDbBlockBegin
  2
*Paper_Space7
 70
     0
 10
0.0
 20
0.0
 30
0.0
  3
*Paper_Space7
  1

  0
LWPOLYLINE
  5
58C
330
573
100
AcDbEntity
  8
0
  6
Continuous
 62
     7
370
    25
100
AcDbPolyline
 90
       17
 70
   128
 43
0.0
 10
2.9585583811
 20
2.4671219161
 10
2.9891563588
 20
2.4654234027
 10
3.019375183
 20
2.4677572939
 10
3.0446143116
 20
2.473768276
 10
3.0610313162
 20
2.4825412315
 10
3.0661268566
 20
2.4927405574
 10
3.059125183
 20
2.5028134988
 10
3.0410922366
 20
2.5112265416
 10
3.0147733702
 20
2.5166988765
 10
2.9841753925
 20
2.51839739
 10
2.9539565684
 20
2.5160634988
 10
2.9287174397
 20
2.5100525166
 10
2.9123004351
 20
2.5012795612
 10
2.9072048947
 20
2.4910802353
 10
2.9142065684
 20
2.4810072939
 10
2.9322395147
 20
2.472594251
 10
2.9585583811
 20
2.4671219161
  0
LWPOLYLINE
  5
58D
330
573
100
AcDbEntity
  8
0
  6
Continuous
 62
     7
370
    25
100
AcDbPolyline
 90
       17
 70
   128
 43
0.0
 10
4.3727719401
 20
3.7143410421
 10
4.4033699178
 20
3.7126425286
 10
4.433588742
 20
3.7149764199
 10
4.4588278706
 20
3.720987402
 10
4.4752448752
 20
3.7297603574
 10
4.4803404156
 20
3.7399596833
 10
4.473338742
 20
3.7500326247
 10
4.4553057956
 20
3.7584456676
 10
4.4289869292
 20
3.7639180025
 10
4.3983889515
 20
3.7656165159
 10
4.3681701273
 20
3.7632826247
 10
4.3429309987
 20
3.7572716426
 10
4.3265139941
 20
3.7484986871
 10
4.3214184537
 20
3.7382993612
 10
4.3284201274
 20
3.7282264199
 10
4.3464530737
 20
3.719813377
 10
4.3727719401
 20
3.7143410421
  0
LWPOLYLINE
  5
58E
330
573
100
AcDbEntity
  8
0
  6
Continuous
 62
     7
370
    25
100
AcDbPolyline
 90
       17
 70
   128
 43
0.0
 10
1.7948364672
 20
3.3264337394
 10
1.8254344448
 20
3.3247352259
 10
1.855653269
 20
3.3270691172
 10
1.8808923977
 20
3.3330800993
 10
1.8973094023
 20
3.3418530547
 10
1.9024049427
 20
3.3520523806
 10
1.895403269
 20
3.362125322
 10
1.8773703227
 20
3.3705383649
 10
1.8510514563
 20
3.3760106998
 10
1.8204534786
 20
3.3777092132
 10
1.7902346544
 20
3.375375322
 10
1.7649955257
 20
3.3693643399
 10
1.7485785212
 20
3.3605913844
 10
1.7434829808
 20
3.3503920586
 10
1.7504846544
 20
3.3403191172
 10
1.7685176008
 20
3.3319060743
 10
1.7948364672
 20
3.3264337394
  0
LWPOLYLINE
  5
58F
330
573
100
AcDbEntity
  8
0
  6
Continuous
 62
     7
370
    25
100
AcDbPolyline
 90
       17
 70
   128
 43
0.0
 10
-0.7830990058
 20
2.9385264367
 10
-0.7525010281
 20
2.9368279232
 10
-0.7222822039
 20
2.9391618145
 10
-0.6970430752
 20
2.9451727966
 10
-0.6806260707
 20
2.953945752
 10
-0.6755305303
 20
2.9641450779
 10
-0.6825322039
 20
2.9742180193
 10
-0.7005651503
 20
2.9826310622
 10
-0.7268840167
 20
2.9881033971
 10
-0.7574819943
 20
2.9898019105
 10
-0.7877008185
 20
2.9874680193
 10
-0.8129399472
 20
2.9814570372
 10
-0.8293569518
 20
2.9726840817
 10
-0.8344524922
 20
2.9624847559
 10
-0.8274508185
 20
2.9524118145
 10
-0.8094178722
 20
2.9439987716
 10
-0.7830990058
 20
2.9385264367
  0
LWPOLYLINE
  5
590
330
573
100
AcDbEntity
  8
0
  6
Continuous
 62
     7
370
    25
100
AcDbPolyline
 90
       17
 70
   128
 43
0.0
 10
0.6311145532
 20
4.1857455627
 10
0.6617125309
 20
4.1840470492
 10
0.6919313551
 20
4.1863809404
 10
0.7171704837
 20
4.1923919225
 10
0.7335874883
 20
4.201164878
 10
0.7386830287
 20
4.2113642039
 10
0.7316813551
 20
4.2214371453
 10
0.7136484087
 20
4.2298501882
 10
0.6873295423
 20
4.235322523
 10
0.6567315646
 20
4.2370210365
 10
0.6265127404
 20
4.2346871453
 10
0.6012736118
 20
4.2286761632
 10
0.5848566072
 20
4.2199032077
 10
0.5797610668
 20
4.2097038818
 10
0.5867627405
 20
4.1996309404
 10
0.6047956868
 20
4.1912178975
 10
0.6311145532
 20
4.1857455627
  0
LWPOLYLINE
  5
591
330
573
100
AcDbEntity
  8
0
  6
Continuous
 62
     7
370
    25
100
AcDbPolyline
 90
       17
 70
   128
 43
0.0
 10
2.5126514602
 20
3.959487059
 10
2.531592416
 20
3.9584356344
 10
2.5502986658
 20
3.9598803746
 10
2.5659223526
 20
3.9636013312
 10
2.5760849118
 20
3.9690320222
 10
2.5792391858
 20
3.9753456742
 10
2.574904965
 20
3.9815810908
 10
2.5637420952
 20
3.9867889864
 10
2.5474500222
 20
3.9901765061
 10
2.5285090664
 20
3.9912279308
 10
2.5098028166
 20
3.9897831905
 10
2.4941791298
 20
3.9860622339
 10
2.4840165706
 20
3.9806315429
 10
2.4808622966
 20
3.974317891
 10
2.4851965174
 20
3.9680824744
 10
2.4963593872
 20
3.9628745788
 10
2.5126514602
 20
3.959487059
  0
LWPOLYLINE
  5
592
330
573
100
AcDbEntity
  8
0
  6
Continuous
 62
     7
370
    25
100
AcDbPolyline
 90
       17
 70
   128
 43
0.0
 10
-0.0652840128
 20
3.5715797563
 10
-0.0463430569
 20
3.5705283317
 10
-0.0276368071
 20
3.5719730719
 10
-0.0120131203
 20
3.5756940285
 10
-0.0018505611
 20
3.5811247195
 10
0.0013037129
 20
3.5874383715
 10
-0.0030305079
 20
3.5936737881
 10
-0.0141933777
 20
3.5988816837
 10
-0.0304854507
 20
3.6022692034
 10
-0.0494264065
 20
3.6033206281
 10
-0.0681326563
 20
3.6018758878
 10
-0.0837563432
 20
3.5981549312
 10
-0.0939189023
 20
3.5927242402
 10
-0.0970731763
 20
3.5864105883
 10
-0.0927389555
 20
3.5801751717
 10
-0.0815760858
 20
3.5749672761
 10
-0.0652840128
 20
3.5715797563
  0
LWPOLYLINE
  5
593
330
573
100
AcDbEntity
  8
0
  6
Continuous
 62
     7
370
    25
100
AcDbPolyline
 90
       17
 70
   128
 43
0.0
 10
1.0984379012
 20
2.7122679331
 10
1.117378857
 20
2.7112165084
 10
1.1360851068
 20
2.7126612487
 10
1.1517087937
 20
2.7163822053
 10
1.1618713528
 20
2.7218128963
 10
1.1650256268
 20
2.7281265482
 10
1.160691406
 20
2.7343619648
 10
1.1495285363
 20
2.7395698604
 10
1.1332364633
 20
2.7429573801
 10
1.1142955074
 20
2.7440088048
 10
1.0955892576
 20
2.7425640645
 10
1.0799655708
 20
2.7388431079
 10
1.0698030116
 20
2.7334124169
 10
1.0666487376
 20
2.727098765
 10
1.0709829584
 20
2.7208633484
 10
1.0821458282
 20
2.7156554528
 10
1.0984379012
 20
2.7122679331
  0
LWPOLYLINE
  5
594
330
573
100
AcDbEntity
  8
0
  6
Continuous
 62
     7
370
    25
100
AcDbPolyline
 90
       17
 70
   128
 43
0.0
 10
3.6763733741
 20
3.1001752358
 10
3.69531433
 20
3.0991238111
 10
3.7140205798
 20
3.1005685514
 10
3.7296442666
 20
3.104289508
 10
3.7398068258
 20
3.109720199
 10
3.7429610998
 20
3.1160338509
 10
3.738626879
 20
3.1222692675
 10
3.7274640092
 20
3.1274771631
 10
3.7111719362
 20
3.1308646828
 10
3.6922309804
 20
3.1319161075
 10
3.6735247306
 20
3.1304713672
 10
3.6579010437
 20
3.1267504106
 10
3.6477384846
 20
3.1213197196
 10
3.6445842106
 20
3.1150060677
 10
3.6489184314
 20
3.1087706511
 10
3.6600813011
 20
3.1035627555
 10
3.6763733741
 20
3.1001752358
  0
LWPOLYLINE
  5
59E
330
573
100
AcDbEntity
  8
0
  6
Continuous
 62
     7
370
    25
100
AcDbPolyline
 90
       17
 70
   128
 43
0.0
 10
0.0916575577
 20
-0.0605869884
 10
0.1222555353
 20
-0.0622855018
 10
0.1524743595
 20
-0.0599516106
 10
0.1777134882
 20
-0.0539406285
 10
0.1941304928
 20
-0.045167673
 10
0.1992260332
 20
-0.0349683472
 10
0.1922243595
 20
-0.0248954058
 10
0.1741914132
 20
-0.0164823629
 10
0.1478725468
 20
-0.011010028
 10
0.1172745691
 20
-0.0093115146
 10
0.0870557449
 20
-0.0116454058
 10
0.0618166162
 20
-0.0176563879
 10
0.0453996116
 20
-0.0264293434
 10
0.0403040713
 20
-0.0366286692
 10
0.0473057449
 20
-0.0467016106
 10
0.0653386912
 20
-0.0551146535
 10
0.0916575577
 20
-0.0605869884
  0
LWPOLYLINE
  5
59F
330
573
100
AcDbEntity
  8
0
  6
Continuous
 62
     7
370
    25
100
AcDbPolyline
 90
       17
 70
   128
 43
0.0
 10
1.5058711166
 20
1.1866321376
 10
1.5364690943
 20
1.1849336241
 10
1.5666879185
 20
1.1872675153
 10
1.5919270472
 20
1.1932784974
 10
1.6083440518
 20
1.2020514529
 10
1.6134395921
 20
1.2122507788
 10
1.6064379185
 20
1.2223237202
 10
1.5884049722
 20
1.2307367631
 10
1.5620861057
 20
1.2362090979
 10
1.5314881281
 20
1.2379076114
 10
1.5012693039
 20
1.2355737202
 10
1.4760301752
 20
1.2295627381
 10
1.4596131706
 20
1.2207897826
 10
1.4545176302
 20
1.2105904567
 10
1.4615193039
 20
1.2005175153
 10
1.4795522502
 20
1.1921044724
 10
1.5058711166
 20
1.1866321376
  0
LWPOLYLINE
  5
5A0
330
573
100
AcDbEntity
  8
0
  6
Continuous
 62
     7
370
    25
100
AcDbPolyline
 90
       17
 70
   128
 43
0.0
 10
-1.0720643563
 20
0.7987248349
 10
-1.0414663786
 20
0.7970263214
 10
-1.0112475544
 20
0.7993602126
 10
-0.9860084258
 20
0.8053711948
 10
-0.9695914212
 20
0.8141441502
 10
-0.9644958808
 20
0.8243434761
 10
-0.9714975544
 20
0.8344164175
 10
-0.9895305008
 20
0.8428294604
 10
-1.0158493672
 20
0.8483017952
 10
-1.0464473449
 20
0.8500003087
 10
-1.0766661691
 20
0.8476664175
 10
-1.1019052977
 20
0.8416554354
 10
-1.1183223023
 20
0.8328824799
 10
-1.1234178427
 20
0.822683154
 10
-1.1164161691
 20
0.8126102126
 10
-1.0983832227
 20
0.8041971697
 10
-1.0720643563
 20
0.7987248349
  0
LWPOLYLINE
  5
5A1
330
573
100
AcDbEntity
  8
0
  6
Continuous
 62
     7
370
    25
100
AcDbPolyline
 90
       17
 70
   128
 43
0.0
 10
-3.6499998292
 20
0.4108175322
 10
-3.6194018516
 20
0.4091190187
 10
-3.5891830274
 20
0.4114529099
 10
-3.5639438987
 20
0.4174638921
 10
-3.5475268941
 20
0.4262368475
 10
-3.5424313537
 20
0.4364361734
 10
-3.5494330274
 20
0.4465091148
 10
-3.5674659737
 20
0.4549221577
 10
-3.5937848401
 20
0.4603944926
 10
-3.6243828178
 20
0.462093006
 10
-3.654601642
 20
0.4597591148
 10
-3.6798407707
 20
0.4537481327
 10
-3.6962577753
 20
0.4449751772
 10
-3.7013533156
 20
0.4347758513
 10
-3.694351642
 20
0.4247029099
 10
-3.6763186957
 20
0.416289867
 10
-3.6499998292
 20
0.4108175322
  0
LWPOLYLINE
  5
5A2
330
573
100
AcDbEntity
  8
0
  6
Continuous
 62
     7
370
    25
100
AcDbPolyline
 90
       17
 70
   128
 43
0.0
 10
-2.2357862702
 20
1.6580366582
 10
-2.2051882926
 20
1.6563381447
 10
-2.1749694684
 20
1.6586720359
 10
-2.1497303397
 20
1.664683018
 10
-2.1333133351
 20
1.6734559735
 10
-2.1282177948
 20
1.6836552994
 10
-2.1352194684
 20
1.6937282408
 10
-2.1532524147
 20
1.7021412837
 10
-2.1795712812
 20
1.7076136185
 10
-2.2101692588
 20
1.709312132
 10
-2.240388083
 20
1.7069782408
 10
-2.2656272117
 20
1.7009672587
 10
-2.2820442163
 20
1.6921943032
 10
-2.2871397567
 20
1.6819949773
 10
-2.280138083
 20
1.6719220359
 10
-2.2621051367
 20
1.663508993
 10
-2.2357862702
 20
1.6580366582
  0
LWPOLYLINE
  5
5A3
330
573
100
AcDbEntity
  8
0
  6
Continuous
 62
     7
370
    25
100
AcDbPolyline
 90
       17
 70
   128
 43
0.0
 10
-0.3542493633
 20
1.4317781545
 10
-0.3353084075
 20
1.4307267299
 10
-0.3166021577
 20
1.4321714701
 10
-0.3009784708
 20
1.4358924267
 10
-0.2908159116
 20
1.4413231177
 10
-0.2876616377
 20
1.4476367696
 10
-0.2919958584
 20
1.4538721862
 10
-0.3031587282
 20
1.4590800819
 10
-0.3194508012
 20
1.4624676016
 10
-0.338391757
 20
1.4635190262
 10
-0.3570980069
 20
1.462074286
 10
-0.3727216937
 20
1.4583533294
 10
-0.3828842529
 20
1.4529226384
 10
-0.3860385269
 20
1.4466089865
 10
-0.3817043061
 20
1.4403735699
 10
-0.3705414363
 20
1.4351656742
 10
-0.3542493633
 20
1.4317781545
  0
LWPOLYLINE
  5
5A4
330
573
100
AcDbEntity
  8
0
  6
Continuous
 62
     7
370
    25
100
AcDbPolyline
 90
       17
 70
   128
 43
0.0
 10
-2.9321848362
 20
1.0438708518
 10
-2.9132438804
 20
1.0428194272
 10
-2.8945376306
 20
1.0442641674
 10
-2.8789139438
 20
1.047985124
 10
-2.8687513846
 20
1.053415815
 10
-2.8655971106
 20
1.0597294669
 10
-2.8699313314
 20
1.0659648836
 10
-2.8810942012
 20
1.0711727792
 10
-2.8973862742
 20
1.0745602989
 10
-2.91632723
 20
1.0756117236
 10
-2.9350334798
 20
1.0741669833
 10
-2.9506571666
 20
1.0704460267
 10
-2.9608197258
 20
1.0650153357
 10
-2.9639739998
 20
1.0587016838
 10
-2.959639779
 20
1.0524662672
 10
-2.9484769092
 20
1.0472583715
 10
-2.9321848362
 20
1.0438708518
  0
LWPOLYLINE
  5
5A5
330
573
100
AcDbEntity
  8
0
  6
Continuous
 62
     7
370
    25
100
AcDbPolyline
 90
       17
 70
   128
 43
0.0
 10
-1.7684629223
 20
0.1845590286
 10
-1.7495219665
 20
0.1835076039
 10
-1.7308157166
 20
0.1849523442
 10
-1.7151920298
 20
0.1886733007
 10
-1.7050294706
 20
0.1941039917
 10
-1.7018751966
 20
0.2004176437
 10
-1.7062094174
 20
0.2066530603
 10
-1.7173722872
 20
0.2118609559
 10
-1.7336643602
 20
0.2152484756
 10
-1.752605316
 20
0.2162999003
 10
-1.7713115658
 20
0.21485516
 10
-1.7869352527
 20
0.2111342034
 10
-1.7970978118
 20
0.2057035124
 10
-1.8002520858
 20
0.1993898605
 10
-1.795917865
 20
0.1931544439
 10
-1.7847549953
 20
0.1879465483
 10
-1.7684629223
 20
0.1845590286
  0
LWPOLYLINE
  5
5A6
330
573
100
AcDbEntity
  8
0
  6
Continuous
 62
     7
370
    25
100
AcDbPolyline
 90
       17
 70
   128
 43
0.0
 10
0.8094725507
 20
0.5724663313
 10
0.8284135065
 20
0.5714149066
 10
0.8471197563
 20
0.5728596469
 10
0.8627434431
 20
0.5765806034
 10
0.8729060023
 20
0.5820112944
 10
0.8760602763
 20
0.5883249464
 10
0.8717260555
 20
0.594560363
 10
0.8605631857
 20
0.5997682586
 10
0.8442711127
 20
0.6031557783
 10
0.8253301569
 20
0.604207203
 10
0.8066239071
 20
0.6027624627
 10
0.7910002203
 20
0.5990415061
 10
0.7808376611
 20
0.5936108151
 10
0.7776833871
 20
0.5872971632
 10
0.7820176079
 20
0.5810617466
 10
0.7931804777
 20
0.575853851
 10
0.8094725507
 20
0.5724663313
  0
SPLINE
  5
5E0
330
573
100
AcDbEntity
  8
0
  6
Continuous
 62
     7
370
    25
100
AcDbSpline
210
0.0
220
0.0
230
1.0
 70
     8
 71
     3
 72
    12
 73
     8
 74
     0
 42
0.00000001
 43
0.00000001
 40
0.0
 40
0.0
 40
0.0
 40
0.0
 40
0.25
 40
0.25
 40
0.5
 40
0.5
 40
1.0
 40
1.0
 40
1.0
 40
1.0
 10
-8.751400386286724
 20
-3.421158075740609
 30
0.0
 10
-8.744328148977369
 20
-3.4196368673645
 30
0.0
 10
-8.737183028417045
 20
-3.418495010631081
 30
0.0
 10
-8.722654297998915
 20
-3.417452615375867
 30
0.0
 10
-8.715207570281164
 20
-3.417575442349322
 30
0.0
 10
-8.692783355960087
 20
-3.420424132986653
 30
0.0
 10
-8.67840391148638
 20
-3.425539543352511
 30
0.0
 10
-8.664286495573279
 20
-3.43213339433355
 30
0.0
  0
LWPOLYLINE
  5
5E2
330
573
100
AcDbEntity
  8
0
  6
Continuous
 62
     7
370
    25
100
AcDbPolyline
 90
       19
 70
   128
 43
0.0
 10
-7.6330100141
 20
-3.7317676457
 10
-7.6396728946
 20
-3.6928424123
 10
-7.6588578942
 20
-3.6569332484
 10
-7.6882510189
 20
-3.6283713292
 10
-7.724307024
 20
-3.6106016437
 10
-7.7626770232
 20
-3.6057674782
 10
-7.7987330283
 20
-3.6144519044
 10
-7.828126153
 20
-3.6356074523
 10
-7.8473111526
 20
-3.6666824507
 10
-7.8539740331
 20
-3.7039287961
 10
-7.8473111526
 20
-3.7428540295
 10
-7.828126153
 20
-3.7787631933
 10
-7.7987330283
 20
-3.8073251125
 10
-7.7626770232
 20
-3.825094798
 10
-7.724307024
 20
-3.8299289635
 10
-7.6882510189
 20
-3.8212445373
 10
-7.6588578942
 20
-3.8000889894
 10
-7.6396728946
 20
-3.7690139911
 10
-7.6330100141
 20
-3.7317676457
  0
LWPOLYLINE
  5
5E3
330
573
100
AcDbEntity
  8
0
  6
Continuous
 62
     7
370
    25
100
AcDbPolyline
 90
       19
 70
   128
 43
0.0
 10
-3.8913526272
 20
-4.2031721663
 10
-3.8980155077
 20
-4.1642469328
 10
-3.9172005073
 20
-4.128337769
 10
-3.946593632
 20
-4.0997758498
 10
-3.9826496371
 20
-4.0820061643
 10
-4.0210196363
 20
-4.0771719988
 10
-4.0570756414
 20
-4.085856425
 10
-4.0864687661
 20
-4.1070119729
 10
-4.1056537657
 20
-4.1380869713
 10
-4.1123166462
 20
-4.1753333166
 10
-4.1056537657
 20
-4.2142585501
 10
-4.0864687661
 20
-4.2501677139
 10
-4.0570756414
 20
-4.2787296331
 10
-4.0210196363
 20
-4.2964993186
 10
-3.9826496371
 20
-4.3013334841
 10
-3.946593632
 20
-4.2926490579
 10
-3.9172005073
 20
-4.27149351
 10
-3.8980155077
 20
-4.2404185116
 10
-3.8913526272
 20
-4.2031721663
  0
LWPOLYLINE
  5
5E4
330
573
100
AcDbEntity
  8
0
  6
Continuous
 62
     7
370
    25
100
AcDbPolyline
 90
       19
 70
   128
 43
0.0
 10
-0.1496952404
 20
-4.6745766868
 10
-0.1563581208
 20
-4.6356514534
 10
-0.1755431204
 20
-4.5997422896
 10
-0.2049362451
 20
-4.5711803704
 10
-0.2409922502
 20
-4.5534106849
 10
-0.2793622494
 20
-4.5485765194
 10
-0.3154182545
 20
-4.5572609456
 10
-0.3448113792
 20
-4.5784164935
 10
-0.3639963788
 20
-4.6094914918
 10
-0.3706592593
 20
-4.6467378372
 10
-0.3639963788
 20
-4.6856630706
 10
-0.3448113792
 20
-4.7215722345
 10
-0.3154182545
 20
-4.7501341537
 10
-0.2793622494
 20
-4.7679038392
 10
-0.2409922502
 20
-4.7727380047
 10
-0.2049362451
 20
-4.7640535785
 10
-0.1755431204
 20
-4.7428980306
 10
-0.1563581208
 20
-4.7118230322
 10
-0.1496952404
 20
-4.6745766868
  0
LWPOLYLINE
  5
5E9
330
573
100
AcDbEntity
  8
0
  6
Continuous
 62
     7
370
    25
100
AcDbPolyline
 90
       17
 70
   128
 43
0.0
 10
8.1207519342
 20
1.4578353242
 10
8.1181030514
 20
1.4910107843
 10
8.1105596714
 20
1.5144633912
 10
8.0992702053
 20
1.5246226981
 10
8.0859533721
 20
1.5199420427
 10
8.072636539
 20
1.5011340122
 10
8.0613470729
 20
1.4710619589
 10
8.0538036929
 20
1.4343040803
 10
8.0511548101
 20
1.3964564301
 10
8.0538036929
 20
1.36328097
 10
8.0613470729
 20
1.3398283631
 10
8.072636539
 20
1.3296690562
 10
8.0859533721
 20
1.3343497116
 10
8.0992702053
 20
1.3531577421
 10
8.1105596714
 20
1.3832297954
 10
8.1181030514
 20
1.419987674
 10
8.1207519342
 20
1.4578353242
  0
LWPOLYLINE
  5
5EA
330
573
100
AcDbEntity
  8
0
  6
Continuous
 62
     7
370
    25
100
AcDbPolyline
 90
       17
 70
   128
 43
0.0
 10
5.179577469
 20
-1.1360367416
 10
5.1769285862
 20
-1.1028612815
 10
5.1693852062
 20
-1.0794086746
 10
5.1580957402
 20
-1.0692493677
 10
5.144778907
 20
-1.0739300232
 10
5.1314620738
 20
-1.0927380536
 10
5.1201726078
 20
-1.1228101069
 10
5.1126292277
 20
-1.1595679855
 10
5.1099803449
 20
-1.1974156357
 10
5.1126292277
 20
-1.2305910958
 10
5.1201726078
 20
-1.2540437027
 10
5.1314620738
 20
-1.2642030096
 10
5.144778907
 20
-1.2595223542
 10
5.1580957402
 20
-1.2407143237
 10
5.1693852062
 20
-1.2106422704
 10
5.1769285862
 20
-1.1738843918
 10
5.179577469
 20
-1.1360367416
  0
LWPOLYLINE
  5
5EB
330
573
100
AcDbEntity
  8
0
  6
Continuous
 62
     7
370
    25
100
AcDbPolyline
 90
        8
 70
   128
 43
0.0
 10
-7.297365273
 20
-2.6110631348
 10
-7.2972425716
 20
-2.6136737042
 10
-7.290913359
 20
-2.6298730903
 10
-7.27522473
 20
-2.6453496205
 10
-7.2507795898
 20
-2.6595085402
 10
-7.2185173515
 20
-2.6718057302
 10
-7.1796778349
 20
-2.6817686163
 10
-7.1357536207
 20
-2.6890143304
  0
LWPOLYLINE
  5
5ED
330
573
100
AcDbEntity
  8
0
  6
Continuous
 62
     7
370
    25
100
AcDbPolyline
 90
        9
 70
   128
 43
0.0
 10
-7.1357536207
 20
-2.6418738783
 10
-7.1796778349
 20
-2.6346281642
 10
-7.2185173515
 20
-2.6246652781
 10
-7.2507795898
 20
-2.6123680881
 10
-7.27522473
 20
-2.5982091684
 10
-7.290913359
 20
-2.5827326383
 10
-7.2972425716
 20
-2.5665332521
 10
-7.2939691398
 20
-2.5502335432
 10
-7.2812188597
 20
-2.5344599002
  0
LWPOLYLINE
  5
5F3
330
573
100
AcDbEntity
  8
0
  6
Continuous
 62
     7
370
    25
100
AcDbPolyline
 90
       17
 70
   128
 43
0.0
 10
2.7101221417
 20
-3.8565658884
 10
2.7125504015
 20
-3.8218705334
 10
2.7194655005
 20
-3.788174184
 10
2.7298146775
 20
-3.7606068037
 10
2.7420223642
 20
-3.7433652765
 10
2.7542300508
 20
-3.7390744684
 10
2.7645792278
 20
-3.7483876162
 10
2.7714943268
 20
-3.7698868775
 10
2.7739225867
 20
-3.8002991847
 10
2.7714943268
 20
-3.8349945397
 10
2.7645792278
 20
-3.8686908891
 10
2.7542300508
 20
-3.8962582694
 10
2.7420223642
 20
-3.9134997966
 10
2.7298146775
 20
-3.9177906047
 10
2.7194655005
 20
-3.9084774569
 10
2.7125504015
 20
-3.8869781956
 10
2.7101221417
 20
-3.8565658884
  0
LWPOLYLINE
  5
5F4
330
573
100
AcDbEntity
  8
0
  6
Continuous
 62
     7
370
    25
100
AcDbPolyline
 90
        8
 70
   128
 43
0.0
 10
2.5873493602
 20
-3.8557135471
 10
2.5898635033
 20
-3.8133191258
 10
2.597133486
 20
-3.7710842663
 10
2.608371493
 20
-3.7335857711
 10
2.6223597119
 20
-3.7048871839
 10
2.637582302
 20
-3.6880984419
 10
2.6523896595
 20
-3.6850388658
 10
2.6554642906
 20
-3.6862896194
  0
LWPOLYLINE
  5
5F5
330
573
100
AcDbEntity
  8
0
  6
Continuous
 62
     7
370
    25
100
AcDbPolyline
 90
        6
 70
   128
 43
0.0
 10
2.6229122171
 20
-3.9446636935
 10
2.6223597119
 20
-3.9447874544
 10
2.608371493
 20
-3.9407617661
 10
2.597133486
 20
-3.923085252
 10
2.5898635033
 20
-3.8936734369
 10
2.5873493602
 20
-3.8557135471
  0
LWPOLYLINE
  5
5F6
330
573
100
AcDbEntity
  8
0
  6
Continuous
 62
     7
370
    25
100
AcDbPolyline
 90
        7
 70
   128
 43
0.0
 10
2.4831774251
 20
-3.8425891169
 10
2.4856915682
 20
-3.8001946956
 10
2.4929615509
 20
-3.7579598362
 10
2.504199558
 20
-3.7204613409
 10
2.5181877768
 20
-3.6917627537
 10
2.5334103669
 20
-3.6749740117
 10
2.545983878
 20
-3.6714541932
  0
LWPOLYLINE
  5
5F7
330
573
100
AcDbEntity
  8
0
  6
Continuous
 62
     7
370
    25
100
AcDbPolyline
 90
        5
 70
   128
 43
0.0
 10
2.5131733003
 20
-3.9318800803
 10
2.504199558
 20
-3.9276373359
 10
2.4929615509
 20
-3.9099608219
 10
2.4856915682
 20
-3.8805490067
 10
2.4831774251
 20
-3.8425891169
  0
LWPOLYLINE
  5
5F8
330
573
100
AcDbEntity
  8
0
  6
Continuous
 62
     7
370
    25
100
AcDbPolyline
 90
       17
 70
   128
 43
0.0
 10
2.7246230831
 20
-3.8437772601
 10
2.7259475245
 20
-3.824853435
 10
2.7297192146
 20
-3.8064744957
 10
2.7353639476
 20
-3.791438469
 10
2.7420223642
 20
-3.7820344538
 10
2.7486807808
 20
-3.7796941261
 10
2.7543255138
 20
-3.7847737795
 10
2.7580972038
 20
-3.796500083
 10
2.7594216452
 20
-3.813087813
 10
2.7580972038
 20
-3.8320116381
 10
2.7543255138
 20
-3.8503905774
 10
2.7486807808
 20
-3.8654266041
 10
2.7420223642
 20
-3.8748306193
 10
2.7353639476
 20
-3.877170947
 10
2.7297192146
 20
-3.8720912936
 10
2.7259475245
 20
-3.8603649901
 10
2.7246230831
 20
-3.8437772601
  0
LWPOLYLINE
  5
5F9
330
573
100
AcDbEntity
  8
0
  6
Continuous
 62
     7
370
    25
100
AcDbPolyline
 90
       13
 70
   128
 43
0.0
 10
2.209955358
 20
-3.8370883399
 10
2.212514202
 20
-3.7830013852
 10
2.2200163531
 20
-3.7280869904
 10
2.231950552
 20
-3.6760874809
 10
2.2475035027
 20
-3.6305465372
 10
2.2656152975
 20
-3.5945676995
 10
2.2850516475
 20
-3.570602866
 10
2.3044879974
 20
-3.5602852006
 10
2.3225997922
 20
-3.5643178352
 10
2.3381527429
 20
-3.5824259522
 10
2.3500869418
 20
-3.6133755135
 10
2.3575890929
 20
-3.6550573576
 10
2.3582342475
 20
-3.6613981992
  0
LWPOLYLINE
  5
5FA
330
573
100
AcDbEntity
  8
0
  6
Continuous
 62
     7
370
    25
100
AcDbPolyline
 90
       10
 70
   128
 43
0.0
 10
2.3287965652
 20
-3.8950525591
 10
2.3225997922
 20
-3.9111727385
 10
2.3044879974
 20
-3.9471515763
 10
2.2850516475
 20
-3.9711164097
 10
2.2656152975
 20
-3.9814340751
 10
2.2475035027
 20
-3.9774014406
 10
2.231950552
 20
-3.9592933236
 10
2.2200163531
 20
-3.9283437622
 10
2.212514202
 20
-3.8866619181
 10
2.209955358
 20
-3.8370883399
  0
LWPOLYLINE
  5
5FB
330
573
100
AcDbEntity
  8
0
  6
Continuous
 62
     7
370
    25
100
AcDbPolyline
 90
        9
 70
   128
 43
0.0
 10
2.1285081524
 20
-3.8268269566
 10
2.1310669964
 20
-3.7727400018
 10
2.1385691475
 20
-3.717825607
 10
2.1505033463
 20
-3.6658260975
 10
2.1660562971
 20
-3.6202851538
 10
2.1841680919
 20
-3.5843063161
 10
2.2036044418
 20
-3.5603414827
 10
2.2230407917
 20
-3.5500238173
 10
2.2301549896
 20
-3.5498598149
  0
LWPOLYLINE
  5
5FC
330
573
100
AcDbEntity
  8
0
  6
Continuous
 62
     7
370
    25
100
AcDbPolyline
 90
        6
 70
   128
 43
0.0
 10
2.1770538941
 20
-3.9713366941
 10
2.1660562971
 20
-3.9671400572
 10
2.1505033463
 20
-3.9490319402
 10
2.1385691475
 20
-3.9180823789
 10
2.1310669964
 20
-3.8764005347
 10
2.1285081524
 20
-3.8268269566
  0
LWPOLYLINE
  5
5FD
330
573
100
AcDbEntity
  8
0
  6
Continuous
 62
     7
370
    25
100
AcDbPolyline
 90
        7
 70
   128
 43
0.0
 10
2.2434204778
 20
-3.8075748784
 10
2.2459311446
 20
-3.7673908155
 10
2.2531603213
 20
-3.7276251438
 10
2.2642360626
 20
-3.6930741902
 10
2.2778224707
 20
-3.6679053095
 10
2.2922808242
 20
-3.6551542403
 10
2.2997704886
 20
-3.6540324579
  0
LWPOLYLINE
  5
5FE
330
573
100
AcDbEntity
  8
0
  6
Continuous
 62
     7
370
    25
100
AcDbPolyline
 90
        5
 70
   128
 43
0.0
 10
2.2703328063
 20
-3.8876868179
 10
2.2642360626
 20
-3.8853603261
 10
2.2531603213
 20
-3.8703451439
 10
2.2459311446
 20
-3.8433305414
 10
2.2434204778
 20
-3.8075748784
  0
LINE
  5
601
330
573
100
AcDbEntity
  8
0
  6
Continuous
 62
     7
370
    25
100
AcDbLine
 10
-7.7173823366
 20
-2.636277218
 30
0.0
 11
-7.6843104452
 21
-2.673777218
 31
0.0
  0
LINE
  5
602
330
573
100
AcDbEntity
  8
0
  6
Continuous
 62
     7
370
    25
100
AcDbLine
 10
0.9341523916
 20
4.9269925654
 30
0.0
 11
0.9010805002
 21
4.9644925654
 31
0.0
  0
LINE
  5
603
330
573
100
AcDbEntity
  8
0
  6
Continuous
 62
     7
370
    25
100
AcDbLine
 10
-7.297365273
 20
-2.5639226828
 30
0.0
 11
-7.297365273
 21
-2.6110631348
 31
0.0
  0
LINE
  5
604
330
573
100
AcDbEntity
  8
0
  6
Continuous
 62
     7
370
    25
100
AcDbLine
 10
2.6229122171
 20
-3.9446636935
 30
0.0
 11
2.734571163
 21
-3.9177180066
 31
0.0
  0
LINE
  5
605
330
573
100
AcDbEntity
  8
0
  6
Continuous
 62
     7
370
    25
100
AcDbLine
 10
2.7569503082
 20
-3.7400890476
 30
0.0
 11
2.6554642906
 21
-3.6862896194
 31
0.0
  0
LINE
  5
606
330
573
100
AcDbEntity
  8
0
  6
Continuous
 62
     7
370
    25
100
AcDbLine
 10
2.5131733003
 20
-3.9318800803
 30
0.0
 11
2.6173452353
 21
-3.9450045105
 31
0.0
  0
LINE
  5
607
330
573
100
AcDbEntity
  8
0
  6
Continuous
 62
     7
370
    25
100
AcDbLine
 10
2.6501558131
 20
-3.6845786234
 30
0.0
 11
2.545983878
 21
-3.6714541932
 31
0.0
  0
LINE
  5
608
330
573
100
AcDbEntity
  8
0
  6
Continuous
 62
     7
370
    25
100
AcDbLine
 10
2.1770538941
 20
-3.9713366941
 30
0.0
 11
2.2585010997
 21
-3.9815980774
 31
0.0
  0
LINE
  5
609
330
573
100
AcDbEntity
  8
0
  6
Continuous
 62
     7
370
    25
100
AcDbLine
 10
2.3116021952
 20
-3.5601211983
 30
0.0
 11
2.2301549896
 21
-3.5498598149
 31
0.0
  0
LINE
  5
60A
330
573
100
AcDbEntity
  8
0
  6
Continuous
 62
     7
370
    25
100
AcDbLine
 10
2.5295785891
 20
-3.6779306994
 30
0.0
 11
2.5169583702
 21
-3.6890606863
 31
0.0
  0
LINE
  5
60B
330
573
100
AcDbEntity
  8
0
  6
Continuous
 62
     7
370
    25
100
AcDbLine
 10
2.4894219398
 20
-3.9076243268
 30
0.0
 11
2.498887104
 21
-3.9215368105
 31
0.0
  0
LINE
  5
60C
330
573
100
AcDbEntity
  8
0
  6
Continuous
 62
     7
370
    25
100
AcDbLine
 10
2.2703328063
 20
-3.8876868179
 30
0.0
 11
2.4951256957
 21
-3.9160080598
 31
0.0
  0
LINE
  5
60D
330
573
100
AcDbEntity
  8
0
  6
Continuous
 62
     7
370
    25
100
AcDbLine
 10
2.524563378
 20
-3.6823536999
 30
0.0
 11
2.2997704886
 21
-3.6540324579
 31
0.0
  0
LINE
  5
60E
330
573
100
AcDbEntity
  8
0
  6
Continuous
 62
     7
370
    25
100
AcDbLine
 10
-1.9830631405
 20
2.7785244287
 30
0.0
 11
3.5410373404
 21
2.0825531867
 31
0.0
  0
LINE
  5
60F
330
573
100
AcDbEntity
  8
0
  6
Continuous
 62
     7
370
    25
100
AcDbLine
 10
3.5410373404
 20
2.0825531867
 30
0.0
 11
3.5410373404
 21
1.9229356159
 31
0.0
  0
LINE
  5
610
330
573
100
AcDbEntity
  8
0
  6
Continuous
 62
     7
370
    25
100
AcDbLine
 10
-2.3388682029
 20
2.0388664227
 30
0.0
 11
-1.9830631405
 21
2.3526569929
 31
0.0
  0
LINE
  5
611
330
573
100
AcDbEntity
  8
0
  6
Continuous
 62
     7
370
    25
100
AcDbLine
 10
-1.9830631405
 20
2.3526569929
 30
0.0
 11
-1.9830631405
 21
2.7785244287
 31
0.0
  0
LINE
  5
612
330
573
100
AcDbEntity
  8
0
  6
Continuous
 62
     7
370
    25
100
AcDbLine
 10
3.5410373404
 20
2.0825531867
 30
0.0
 11
5.6289510639
 21
3.9239200105
 31
0.0
  0
LINE
  5
613
330
573
100
AcDbEntity
  8
0
  6
Continuous
 62
     7
370
    25
100
AcDbLine
 10
5.6289510639
 20
3.9239200105
 30
0.0
 11
5.6289510639
 21
3.7643024397
 31
0.0
  0
LINE
  5
614
330
573
100
AcDbEntity
  8
0
  6
Continuous
 62
     7
370
    25
100
AcDbLine
 10
-1.9830631405
 20
2.7785244287
 30
0.0
 11
0.104850583
 21
4.6198912525
 31
0.0
  0
LINE
  5
615
330
573
100
AcDbEntity
  8
0
  6
Continuous
 62
     7
370
    25
100
AcDbLine
 10
0.104850583
 20
4.6198912525
 30
0.0
 11
5.6289510639
 21
3.9239200105
 31
0.0
  0
LINE
  5
616
330
573
100
AcDbEntity
  8
0
  6
Continuous
 62
     7
370
    25
100
AcDbLine
 10
-4.8499639639
 20
0.2508155242
 30
0.0
 11
0.6741365169
 21
-0.4451557179
 31
0.0
  0
LINE
  5
617
330
573
100
AcDbEntity
  8
0
  6
Continuous
 62
     7
370
    25
100
AcDbLine
 10
0.6741365169
 20
-0.4451557179
 30
0.0
 11
0.6741365169
 21
-0.6054332549
 31
0.0
  0
LINE
  5
618
330
573
100
AcDbEntity
  8
0
  6
Continuous
 62
     7
370
    25
100
AcDbLine
 10
-0.8499340782
 20
-1.9495371801
 30
0.0
 11
-5.97246118
 21
-1.3041594282
 31
0.0
  0
LINE
  5
619
330
573
100
AcDbEntity
  8
0
  6
Continuous
 62
     7
370
    25
100
AcDbLine
 10
-5.97246118
 20
-1.3041594282
 30
0.0
 11
-5.97246118
 21
-1.1650014054
 31
0.0
  0
LINE
  5
61A
330
573
100
AcDbEntity
  8
0
  6
Continuous
 62
     7
370
    25
100
AcDbLine
 10
-5.97246118
 20
-1.1650014054
 30
0.0
 11
-4.8499639639
 21
-0.1750519116
 31
0.0
  0
LINE
  5
61B
330
573
100
AcDbEntity
  8
0
  6
Continuous
 62
     7
370
    25
100
AcDbLine
 10
-4.8499639639
 20
-0.1750519116
 30
0.0
 11
-4.8499639639
 21
0.2508155242
 31
0.0
  0
LINE
  5
61C
330
573
100
AcDbEntity
  8
0
  6
Continuous
 62
     7
370
    25
100
AcDbLine
 10
0.6741365169
 20
-0.4451557179
 30
0.0
 11
2.7620502404
 21
1.396211106
 31
0.0
  0
LINE
  5
61D
330
573
100
AcDbEntity
  8
0
  6
Continuous
 62
     7
370
    25
100
AcDbLine
 10
-4.8499639639
 20
0.2508155242
 30
0.0
 11
-2.7620502404
 21
2.092182348
 31
0.0
  0
LINE
  5
61E
330
573
100
AcDbEntity
  8
0
  6
Continuous
 62
     7
370
    25
100
AcDbLine
 10
-2.7620502404
 20
2.092182348
 30
0.0
 11
2.7620502404
 21
1.396211106
 31
0.0
  0
LINE
  5
61F
330
573
100
AcDbEntity
  8
0
  6
Continuous
 62
     7
370
    25
100
AcDbLine
 10
2.7620502404
 20
1.396211106
 30
0.0
 11
2.7620502404
 21
1.2359335689
 31
0.0
  0
LINE
  5
620
330
573
100
AcDbEntity
  8
0
  6
Continuous
 62
     7
370
    25
100
AcDbLine
 10
-0.2075299236
 20
5.6623918687
 30
0.0
 11
1.2210761093
 21
5.4824044267
 31
0.0
  0
LINE
  5
621
330
573
100
AcDbEntity
  8
0
  6
Continuous
 62
     7
370
    25
100
AcDbLine
 10
1.2210761093
 20
5.4824044267
 30
0.0
 11
0.2257996581
 21
4.6046531014
 31
0.0
  0
LINE
  5
622
330
573
100
AcDbEntity
  8
0
  6
Continuous
 62
     7
370
    25
100
AcDbLine
 10
-1.9830631405
 20
2.6566192196
 30
0.0
 11
-2.6404463754
 21
2.0768617011
 31
0.0
  0
LINE
  5
623
330
573
100
AcDbEntity
  8
0
  6
Continuous
 62
     7
370
    25
100
AcDbLine
 10
-4.8499639639
 20
0.1282503488
 30
0.0
 11
-6.7825931641
 21
-1.576168398
 31
0.0
  0
LINE
  5
624
330
573
100
AcDbEntity
  8
0
  6
Continuous
 62
     7
370
    25
100
AcDbLine
 10
-8.211199197
 20
-1.3961809559
 30
0.0
 11
-6.7825931641
 21
-1.576168398
 31
0.0
  0
LINE
  5
625
330
573
100
AcDbEntity
  8
0
  6
Continuous
 62
     7
370
    25
100
AcDbLine
 10
-0.2075299236
 20
5.6623918687
 30
0.0
 11
-9.1466135437
 21
-2.2211388674
 31
0.0
  0
LINE
  5
626
330
573
100
AcDbEntity
  8
0
  6
Continuous
 62
     7
370
    25
100
AcDbLine
 10
-6.7825931641
 20
-1.576168398
 30
0.0
 11
-6.7825931641
 21
-1.8118706584
 31
0.0
  0
LINE
  5
627
330
573
100
AcDbEntity
  8
0
  6
Continuous
 62
     7
370
    25
100
AcDbLine
 10
-4.8499639639
 20
-0.1074519116
 30
0.0
 11
-7.9050903801
 21
-2.8018201521
 31
0.0
  0
LINE
  5
628
330
573
100
AcDbEntity
  8
0
  6
Continuous
 62
     7
370
    25
100
AcDbLine
 10
-7.9050903801
 20
-2.8018201521
 30
0.0
 11
-7.9050903801
 21
-3.0375224125
 31
0.0
  0
LINE
  5
629
330
573
100
AcDbEntity
  8
0
  6
Continuous
 62
     7
370
    25
100
AcDbLine
 10
-8.1390176175
 20
-3.1023312551
 30
0.0
 11
-8.1390176175
 21
-3.0080503509
 31
0.0
  0
LINE
  5
62A
330
573
100
AcDbEntity
  8
0
  6
Continuous
 62
     7
370
    25
100
AcDbLine
 10
-9.1466135437
 20
-2.9753861007
 30
0.0
 11
-8.1390176175
 21
-3.1023312551
 31
0.0
  0
LINE
  5
62B
330
573
100
AcDbEntity
  8
0
  6
Continuous
 62
     7
370
    25
100
AcDbLine
 10
-9.1466135437
 20
-2.2211388674
 30
0.0
 11
-9.1466135437
 21
-3.8239142382
 31
0.0
  0
LINE
  5
62C
330
573
100
AcDbEntity
  8
0
  6
Continuous
 62
     7
370
    25
100
AcDbLine
 10
1.2210761093
 20
5.4824044267
 30
0.0
 11
1.2210761093
 21
5.2467021663
 31
0.0
  0
LINE
  5
62D
330
573
100
AcDbEntity
  8
0
  6
Continuous
 62
     7
370
    25
100
AcDbLine
 10
1.2210761093
 20
5.2467021663
 30
0.0
 11
0.4596532448
 21
4.5751903188
 31
0.0
  0
LINE
  5
62E
330
573
100
AcDbEntity
  8
0
  6
Continuous
 62
     7
370
    25
100
AcDbLine
 10
-1.9830631405
 20
2.4209169592
 30
0.0
 11
-2.4065927887
 21
2.0473989185
 31
0.0
  0
LINE
  5
62F
330
573
100
AcDbEntity
  8
0
  6
Continuous
 62
     7
370
    25
100
AcDbLine
 10
-7.6843104452
 20
-2.673777218
 30
0.0
 11
-4.8499639639
 21
-0.1741185783
 31
0.0
  0
LINE
  5
630
330
573
100
AcDbEntity
  8
0
  6
Continuous
 62
     7
370
    25
100
AcDbLine
 10
-6.991851839
 20
-2.0630861295
 30
0.0
 11
-7.0249237303
 21
-2.0255861295
 31
0.0
  0
LINE
  5
631
330
573
100
AcDbEntity
  8
0
  6
Continuous
 62
     7
370
    25
100
AcDbLine
 10
-6.7381040344
 20
-1.8393016006
 30
0.0
 11
-6.7711759258
 21
-1.8018016006
 31
0.0
  0
LINE
  5
632
330
573
100
AcDbEntity
  8
0
  6
Continuous
 62
     7
370
    25
100
AcDbLine
 10
-7.5851987928
 20
-2.5863689566
 30
0.0
 11
-7.6182706842
 21
-2.5488689566
 31
0.0
  0
LINE
  5
633
330
573
100
AcDbEntity
  8
0
  6
Continuous
 62
     7
370
    25
100
AcDbLine
 10
0.9120118485
 20
4.9074664418
 30
0.0
 11
0.8789399571
 21
4.9449664418
 31
0.0
  0
LINE
  5
634
330
573
100
AcDbEntity
  8
0
  6
Continuous
 62
     7
370
    25
100
AcDbLine
 10
-2.3404490059
 20
2.0390655852
 30
0.0
 11
-1.9830631405
 21
2.3542502925
 31
0.0
  0
LINE
  5
635
330
573
100
AcDbEntity
  8
0
  6
Continuous
 62
     7
370
    25
100
AcDbLine
 10
0.5257970275
 20
4.5668569855
 30
0.0
 11
0.9341523916
 21
4.9269925654
 31
0.0
  0
LINE
  5
636
330
573
100
AcDbEntity
  8
0
  6
Continuous
 62
     7
370
    25
100
AcDbLine
 10
-5.9437439596
 20
-1.3077774579
 30
0.0
 11
-7.9050903801
 21
-3.0375224125
 31
0.0
  0
LINE
  5
637
330
573
100
AcDbEntity
  8
0
  6
Continuous
 62
     7
370
    25
100
AcDbLine
 10
1.1429442703
 20
-3.517501299
 30
0.0
 11
0.2075299236
 21
-2.4568411272
 31
0.0
  0
LINE
  5
638
330
573
100
AcDbEntity
  8
0
  6
Continuous
 62
     7
370
    25
100
AcDbLine
 10
0.2075299236
 20
-2.4568411272
 30
0.0
 11
8.211199197
 21
4.6017316974
 31
0.0
  0
LINE
  5
639
330
573
100
AcDbEntity
  8
0
  6
Continuous
 62
     7
370
    25
100
AcDbLine
 10
9.1466135437
 20
3.5410715257
 30
0.0
 11
8.211199197
 21
4.6017316974
 31
0.0
  0
LINE
  5
63A
330
573
100
AcDbEntity
  8
0
  6
Continuous
 62
     7
370
    25
100
AcDbLine
 10
1.1429442703
 20
-3.517501299
 30
0.0
 11
9.1466135437
 21
3.5410715257
 31
0.0
  0
LINE
  5
63B
330
573
100
AcDbEntity
  8
0
  6
Continuous
 62
     7
370
    25
100
AcDbLine
 10
0.135348344
 20
-4.1448033779
 30
0.0
 11
1.1429442703
 21
-4.2717485323
 31
0.0
  0
LINE
  5
63C
330
573
100
AcDbEntity
  8
0
  6
Continuous
 62
     7
370
    25
100
AcDbLine
 10
0.135348344
 20
-4.1448033779
 30
0.0
 11
0.135348344
 21
-4.0505224738
 31
0.0
  0
LINE
  5
63D
330
573
100
AcDbEntity
  8
0
  6
Continuous
 62
     7
370
    25
100
AcDbLine
 10
0.135348344
 20
-4.0505224738
 30
0.0
 11
-8.1390176175
 21
-3.0080503509
 31
0.0
  0
LINE
  5
63E
330
573
100
AcDbEntity
  8
0
  6
Continuous
 62
     7
370
    25
100
AcDbLine
 10
-0.0985788933
 20
-3.7853481517
 30
0.0
 11
-0.0985788933
 21
-4.0210504121
 31
0.0
  0
LINE
  5
63F
330
573
100
AcDbEntity
  8
0
  6
Continuous
 62
     7
370
    25
100
AcDbLine
 10
-1.2210761093
 20
-2.5125559456
 30
0.0
 11
-0.0985788933
 21
-3.7853481517
 31
0.0
  0
LINE
  5
640
330
573
100
AcDbEntity
  8
0
  6
Continuous
 62
     7
370
    25
100
AcDbLine
 10
-1.2210761093
 20
-2.2768536852
 30
0.0
 11
-1.2210761093
 21
-2.5125559456
 31
0.0
  0
LINE
  5
641
330
573
100
AcDbEntity
  8
0
  6
Continuous
 62
     7
370
    25
100
AcDbLine
 10
0.2075299236
 20
-2.4568411272
 30
0.0
 11
-1.2210761093
 21
-2.2768536852
 31
0.0
  0
LINE
  5
642
330
573
100
AcDbEntity
  8
0
  6
Continuous
 62
     7
370
    25
100
AcDbLine
 10
1.1429442703
 20
-5.1202766697
 30
0.0
 11
1.1429442703
 21
-3.517501299
 31
0.0
  0
LINE
  5
643
330
573
100
AcDbEntity
  8
0
  6
Continuous
 62
     7
370
    25
100
AcDbLine
 10
9.1466135437
 20
1.9382961549
 30
0.0
 11
9.1466135437
 21
3.5410715257
 31
0.0
  0
LINE
  5
644
330
573
100
AcDbEntity
  8
0
  6
Continuous
 62
     7
370
    25
100
AcDbLine
 10
1.1429442703
 20
-4.2717485323
 30
0.0
 11
9.1466135437
 21
2.7868242924
 31
0.0
  0
LINE
  5
645
330
573
100
AcDbEntity
  8
0
  6
Continuous
 62
     7
370
    25
100
AcDbLine
 10
-1.2210761093
 20
-2.2768536852
 30
0.0
 11
6.7825931641
 21
4.7817191394
 31
0.0
  0
LINE
  5
646
330
573
100
AcDbEntity
  8
0
  6
Continuous
 62
     7
370
    25
100
AcDbLine
 10
8.211199197
 20
4.6017316974
 30
0.0
 11
6.7825931641
 21
4.7817191394
 31
0.0
  0
LINE
  5
647
330
573
100
AcDbEntity
  8
0
  6
Continuous
 62
     7
370
    25
100
AcDbLine
 10
-9.1466135437
 20
-3.8239142382
 30
0.0
 11
-8.7514003863
 21
-3.8737064157
 31
0.0
  0
LINE
  5
648
330
573
100
AcDbEntity
  8
0
  6
Continuous
 62
     7
370
    25
100
AcDbLine
 10
-8.6642864956
 20
-3.8846817343
 30
0.0
 11
1.1429442703
 21
-5.1202766697
 31
0.0
  0
LINE
  5
649
330
573
100
AcDbEntity
  8
0
  6
Continuous
 62
     7
370
    25
100
AcDbLine
 10
-8.6642864956
 20
-3.8846817343
 30
0.0
 11
-8.6642864956
 21
-3.4321333943
 31
0.0
  0
LINE
  5
64A
330
573
100
AcDbEntity
  8
0
  6
Continuous
 62
     7
370
    25
100
AcDbLine
 10
-8.7514003863
 20
-3.4211580757
 30
0.0
 11
-8.7514003863
 21
-3.8737064157
 31
0.0
  0
LINE
  5
64B
330
573
100
AcDbEntity
  8
0
  6
Continuous
 62
     7
370
    25
100
AcDbLine
 10
1.1429442703
 20
-5.1202766697
 30
0.0
 11
2.5001710195
 21
-3.923315186
 31
0.0
  0
LINE
  5
64C
330
573
100
AcDbEntity
  8
0
  6
Continuous
 62
     7
370
    25
100
AcDbLine
 10
2.7263335415
 20
-3.7238585896
 30
0.0
 11
9.1466135437
 21
1.9382961549
 31
0.0
  0
LINE
  5
64D
330
573
100
AcDbEntity
  8
0
  6
Continuous
 62
     7
370
    25
100
AcDbLine
 10
-7.1357536207
 20
-2.6890143304
 30
0.0
 11
-0.3066670447
 21
-3.5493983662
 31
0.0
  0
LINE
  5
64E
330
573
100
AcDbEntity
  8
0
  6
Continuous
 62
     7
370
    25
100
AcDbLine
 10
-7.2812188597
 20
-2.5344599002
 30
0.0
 11
-5.8969732422
 21
-1.3136700144
 31
0.0
  0
LINE
  5
64F
330
573
100
AcDbEntity
  8
0
  6
Continuous
 62
     7
370
    25
100
AcDbLine
 10
-0.353437762
 20
-3.4963653576
 30
0.0
 11
-7.1357536207
 21
-2.6418738783
 31
0.0
  0
LINE
  5
650
330
573
100
AcDbEntity
  8
0
  6
Continuous
 62
     7
370
    25
100
AcDbLine
 10
-7.1357536207
 20
-2.6418738783
 30
0.0
 11
-7.1357536207
 21
-2.6890143304
 31
0.0
  0
ARC
  5
651
330
573
100
AcDbEntity
  8
0
  6
Continuous
 62
     7
370
    25
100
AcDbCircle
 10
-8.7307174007
 20
-3.6082021621
 30
0.0
 40
0.1881841548842494
100
AcDbArc
 50
69.3284635272
 51
96.310024917
  0
ARC
  5
652
330
573
100
AcDbEntity
  8
0
  6
Continuous
 62
     7
370
    25
100
AcDbCircle
 10
-8.7307174007
 20
-4.0607505021
 30
0.0
 40
0.1881841548842499
100
AcDbArc
 50
69.3284635272
 51
96.310024917
  0
ARC
  5
653
330
573
100
AcDbEntity
  8
0
  6
Continuous
 62
     7
370
    25
100
AcDbCircle
 10
2.6876334717
 20
-3.8168890988
 30
0.0
 40
0.2132371762080682
100
AcDbArc
 50
143.1683459675
 51
185.355709312
  0
ARC
  5
654
330
573
100
AcDbEntity
  8
0
  6
Continuous
 62
     7
370
    25
100
AcDbCircle
 10
2.6018979889
 20
-3.8484245736
 30
0.0
 40
0.1271041792925299
100
AcDbArc
 50
174.7491144315
 51
207.7592716512
  0
VIEWPORT
  5
665
330
573
100
AcDbEntity
  8
0
100
AcDbViewport
 10
0.0
 20
0.0
 30
0.0
 40
8.4
 41
6.4
 68
     1
 69
     1
 12
-0.0309744178
 22
0.1777086351
 13
0.0
 23
0.0
 14
0.5
 24
0.5
 15
0.5
 25
0.5
 16
0.0
 26
0.0
 36
1.0
 17
0.0
 27
0.0
 37
0.0
 42
50.0
 43
0.0
 44
0.0
 45
13.0078768576
 50
0.0
 51
0.0
 72
   100
 90
   557152
  1

281
     0
 71
     1
 74
     0
110
0.0
120
0.0
130
0.0
111
1.0
121
0.0
131
0.0
112
0.0
122
1.0
132
0.0
 79
     0
146
0.0
  0
ENDBLK
  5
576
330
573
100
AcDbEntity
  8
0
100
AcDbBlockEnd
  0
ENDSEC
  0
SECTION
  2
ENTITIES
  0
LWPOLYLINE
  5
7D
330
1F
100
AcDbEntity
  8
0
  6
Continuous
 62
     7
370
    25
100
AcDbPolyline
 90
       17
 70
   128
 43
0.0
 10
-2.3206909807
 20
1.3492198103
 10
-2.3509461726
 20
1.3560626235
 10
-2.3798195729
 20
1.3583012219
 10
-2.402915468
 20
1.3555947992
 10
-2.4167177174
 20
1.3483553837
 10
-2.4191250537
 20
1.3376851108
 10
-2.4097709817
 20
1.3252084328
 10
-2.3900795741
 20
1.3128248108
 10
-2.3630486693
 20
1.3024195391
 10
-2.3327934773
 20
1.2955767259
 10
-2.3039200771
 20
1.2933381275
 10
-2.2808241819
 20
1.2960445502
 10
-2.2670219325
 20
1.3032839657
 10
-2.2646145962
 20
1.3139542386
 10
-2.2739686682
 20
1.3264309166
 10
-2.2936600758
 20
1.3388145385
 10
-2.3206909807
 20
1.3492198103
  0
LWPOLYLINE
  5
7E
330
1F
100
AcDbEntity
  8
0
  6
Continuous
 62
     7
370
    25
100
AcDbPolyline
 90
       17
 70
   128
 43
0.0
 10
-3.3862932068
 20
0.1718545004
 10
-3.4165483987
 20
0.1786973136
 10
-3.445421799
 20
0.180935912
 10
-3.4685176942
 20
0.1782294893
 10
-3.4823199436
 20
0.1709900738
 10
-3.4847272798
 20
0.1603198009
 10
-3.4753732078
 20
0.1478431229
 10
-3.4556818002
 20
0.135459501
 10
-3.4286508954
 20
0.1250542292
 10
-3.3983957035
 20
0.118211416
 10
-3.3695223032
 20
0.1159728176
 10
-3.346426408
 20
0.1186792403
 10
-3.3326241586
 20
0.1259186558
 10
-3.3302168224
 20
0.1365889287
 10
-3.3395708944
 20
0.1490656067
 10
-3.3592623019
 20
0.1614492287
 10
-3.3862932068
 20
0.1718545004
  0
LWPOLYLINE
  5
7F
330
1F
100
AcDbEntity
  8
0
  6
Continuous
 62
     7
370
    25
100
AcDbPolyline
 90
       17
 70
   128
 43
0.0
 10
-0.9705262457
 20
0.19360108
 10
-1.0007814376
 20
0.2004438932
 10
-1.0296548379
 20
0.2026824916
 10
-1.0527507331
 20
0.1999760689
 10
-1.0665529824
 20
0.1927366534
 10
-1.0689603187
 20
0.1820663805
 10
-1.0596062467
 20
0.1695897025
 10
-1.0399148391
 20
0.1572060806
 10
-1.0128839343
 20
0.1468008089
 10
-0.9826287424
 20
0.1399579956
 10
-0.9537553421
 20
0.1377193972
 10
-0.9306594469
 20
0.1404258199
 10
-0.9168571975
 20
0.1476652354
 10
-0.9144498613
 20
0.1583355084
 10
-0.9238039333
 20
0.1708121863
 10
-0.9434953408
 20
0.1831958083
 10
-0.9705262457
 20
0.19360108
  0
LWPOLYLINE
  5
80
330
1F
100
AcDbEntity
  8
0
  6
Continuous
 62
     7
370
    25
100
AcDbPolyline
 90
       17
 70
   128
 43
0.0
 10
1.4452407154
 20
0.2153476596
 10
1.4149855235
 20
0.2221904729
 10
1.3861121232
 20
0.2244290713
 10
1.3630162281
 20
0.2217226486
 10
1.3492139787
 20
0.2144832331
 10
1.3468066424
 20
0.2038129602
 10
1.3561607144
 20
0.1913362822
 10
1.375852122
 20
0.1789526602
 10
1.4028830268
 20
0.1685473885
 10
1.4331382188
 20
0.1617045753
 10
1.462011619
 20
0.1594659769
 10
1.4851075142
 20
0.1621723996
 10
1.4989097636
 20
0.1694118151
 10
1.5013170998
 20
0.180082088
 10
1.4919630279
 20
0.192558766
 10
1.4722716203
 20
0.2049423879
 10
1.4452407154
 20
0.2153476596
  0
LWPOLYLINE
  5
81
330
1F
100
AcDbEntity
  8
0
  6
Continuous
 62
     7
370
    25
100
AcDbPolyline
 90
       17
 70
   128
 43
0.0
 10
0.3796384893
 20
-0.9620176502
 10
0.3493832974
 20
-0.955174837
 10
0.3205098971
 20
-0.9529362386
 10
0.2974140019
 20
-0.9556426613
 10
0.2836117525
 20
-0.9628820768
 10
0.2812044163
 20
-0.9735523497
 10
0.2905584883
 20
-0.9860290277
 10
0.3102498958
 20
-0.9984126497
 10
0.3372808007
 20
-1.0088179214
 10
0.3675359926
 20
-1.0156607346
 10
0.3964093929
 20
-1.017899333
 10
0.4195052881
 20
-1.0151929103
 10
0.4333075375
 20
-1.0079534948
 10
0.4357148737
 20
-0.9972832219
 10
0.4263608017
 20
-0.9848065439
 10
0.4066693942
 20
-0.9724229219
 10
0.3796384893
 20
-0.9620176502
  0
LWPOLYLINE
  5
82
330
1F
100
AcDbEntity
  8
0
  6
Continuous
 62
     7
370
    25
100
AcDbPolyline
 90
       17
 70
   128
 43
0.0
 10
-1.5113959394
 20
-0.4039964089
 10
-1.5301247018
 20
-0.3997605269
 10
-1.5479980987
 20
-0.3983747754
 10
-1.5622950674
 20
-0.4000501225
 10
-1.5708390241
 20
-0.4045315118
 10
-1.5723292288
 20
-0.4111366924
 10
-1.5665388113
 20
-0.4188600854
 10
-1.5543493103
 20
-0.4265258742
 10
-1.5376164667
 20
-0.4329670121
 10
-1.5188877043
 20
-0.4372028941
 10
-1.5010143074
 20
-0.4385886456
 10
-1.4867173387
 20
-0.4369132985
 10
-1.478173382
 20
-0.4324319092
 10
-1.4766831773
 20
-0.4258267286
 10
-1.4824735948
 20
-0.4181033356
 10
-1.4946630958
 20
-0.4104375468
 10
-1.5113959394
 20
-0.4039964089
  0
LWPOLYLINE
  5
83
330
1F
100
AcDbEntity
  8
0
  6
Continuous
 62
     7
370
    25
100
AcDbPolyline
 90
       17
 70
   128
 43
0.0
 10
0.9043710217
 20
-0.3822498293
 10
0.8856422593
 20
-0.3780139473
 10
0.8677688624
 20
-0.3766281958
 10
0.8534718937
 20
-0.3783035429
 10
0.844927937
 20
-0.3827849322
 10
0.8434377323
 20
-0.3893901127
 10
0.8492281498
 20
-0.3971135057
 10
0.8614176508
 20
-0.4047792946
 10
0.8781504944
 20
-0.4112204324
 10
0.8968792568
 20
-0.4154563144
 10
0.9147526537
 20
-0.4168420659
 10
0.9290496224
 20
-0.4151667188
 10
0.9375935791
 20
-0.4106853296
 10
0.9390837838
 20
-0.404080149
 10
0.9332933663
 20
-0.396356756
 10
0.9211038653
 20
-0.3886909671
 10
0.9043710217
 20
-0.3822498293
  0
LWPOLYLINE
  5
84
330
1F
100
AcDbEntity
  8
0
  6
Continuous
 62
     7
370
    25
100
AcDbPolyline
 90
       17
 70
   128
 43
0.0
 10
-0.4457937133
 20
0.7733689009
 10
-0.4645224757
 20
0.7776047829
 10
-0.4823958726
 20
0.7789905344
 10
-0.4966928413
 20
0.7773151874
 10
-0.505236798
 20
0.7728337981
 10
-0.5067270027
 20
0.7662286175
 10
-0.5009365852
 20
0.7585052245
 10
-0.4887470842
 20
0.7508394356
 10
-0.4720142406
 20
0.7443982978
 10
-0.4532854782
 20
0.7401624158
 10
-0.4354120813
 20
0.7387766643
 10
-0.4211151125
 20
0.7404520114
 10
-0.4125711559
 20
0.7449334007
 10
-0.4110809512
 20
0.7515385812
 10
-0.4168713686
 20
0.7592619742
 10
-0.4290608697
 20
0.7669277631
 10
-0.4457937133
 20
0.7733689009
  0
LWPOLYLINE
  5
85
330
1F
100
AcDbEntity
  8
0
  6
Continuous
 62
     7
370
    25
100
AcDbPolyline
 90
       17
 70
   128
 43
0.0
 10
-2.8615606744
 20
0.7516223213
 10
-2.8802894368
 20
0.7558582033
 10
-2.8981628337
 20
0.7572439548
 10
-2.9124598024
 20
0.7555686077
 10
-2.9210037591
 20
0.7510872184
 10
-2.9224939638
 20
0.7444820379
 10
-2.9167035463
 20
0.7367586449
 10
-2.9045140453
 20
0.729092856
 10
-2.8877812017
 20
0.7226517182
 10
-2.8690524393
 20
0.7184158362
 10
-2.8511790424
 20
0.7170300847
 10
-2.8368820737
 20
0.7187054318
 10
-2.828338117
 20
0.723186821
 10
-2.8268479123
 20
0.7297920016
 10
-2.8326383297
 20
0.7375153946
 10
-2.8448278308
 20
0.7451811835
 10
-2.8615606744
 20
0.7516223213
  0
LWPOLYLINE
  5
8E
330
1F
100
AcDbEntity
  8
0
  6
Continuous
 62
     7
370
    25
100
AcDbPolyline
 90
       17
 70
   128
 43
0.0
 10
-0.1603522533
 20
3.7366195599
 10
-0.1906074452
 20
3.7434623731
 10
-0.2194808455
 20
3.7457009715
 10
-0.2425767406
 20
3.7429945488
 10
-0.25637899
 20
3.7357551333
 10
-0.2587863263
 20
3.7250848604
 10
-0.2494322543
 20
3.7126081824
 10
-0.2297408467
 20
3.7002245604
 10
-0.2027099419
 20
3.6898192887
 10
-0.1724547499
 20
3.6829764755
 10
-0.1435813497
 20
3.6807378771
 10
-0.1204854545
 20
3.6834442998
 10
-0.1066832051
 20
3.6906837153
 10
-0.1042758688
 20
3.7013539882
 10
-0.1136299408
 20
3.7138306662
 10
-0.1333213484
 20
3.7262142881
 10
-0.1603522533
 20
3.7366195599
  0
LWPOLYLINE
  5
8F
330
1F
100
AcDbEntity
  8
0
  6
Continuous
 62
     7
370
    25
100
AcDbPolyline
 90
       17
 70
   128
 43
0.0
 10
-1.2259544794
 20
2.55925425
 10
-1.2562096713
 20
2.5660970632
 10
-1.2850830716
 20
2.5683356616
 10
-1.3081789668
 20
2.5656292389
 10
-1.3219812162
 20
2.5583898234
 10
-1.3243885524
 20
2.5477195505
 10
-1.3150344804
 20
2.5352428725
 10
-1.2953430728
 20
2.5228592506
 10
-1.268312168
 20
2.5124539788
 10
-1.2380569761
 20
2.5056111656
 10
-1.2091835758
 20
2.5033725672
 10
-1.1860876806
 20
2.5060789899
 10
-1.1722854312
 20
2.5133184054
 10
-1.169878095
 20
2.5239886783
 10
-1.179232167
 20
2.5364653563
 10
-1.1989235745
 20
2.5488489783
 10
-1.2259544794
 20
2.55925425
  0
LWPOLYLINE
  5
90
330
1F
100
AcDbEntity
  8
0
  6
Continuous
 62
     7
370
    25
100
AcDbPolyline
 90
       17
 70
   128
 43
0.0
 10
1.1898124817
 20
2.5810008296
 10
1.1595572898
 20
2.5878436428
 10
1.1306838895
 20
2.5900822412
 10
1.1075879943
 20
2.5873758185
 10
1.093785745
 20
2.580136403
 10
1.0913784087
 20
2.5694661301
 10
1.1007324807
 20
2.5569894521
 10
1.1204238883
 20
2.5446058302
 10
1.1474547931
 20
2.5342005585
 10
1.177709985
 20
2.5273577453
 10
1.2065833853
 20
2.5251191468
 10
1.2296792805
 20
2.5278255696
 10
1.2434815299
 20
2.5350649851
 10
1.2458888661
 20
2.545735258
 10
1.2365347941
 20
2.558211936
 10
1.2168433866
 20
2.5705955579
 10
1.1898124817
 20
2.5810008296
  0
LWPOLYLINE
  5
91
330
1F
100
AcDbEntity
  8
0
  6
Continuous
 62
     7
370
    25
100
AcDbPolyline
 90
       17
 70
   128
 43
0.0
 10
3.6055794428
 20
2.6027474093
 10
3.5753242509
 20
2.6095902225
 10
3.5464508506
 20
2.6118288209
 10
3.5233549555
 20
2.6091223982
 10
3.5095527061
 20
2.6018829827
 10
3.5071453698
 20
2.5912127098
 10
3.5164994418
 20
2.5787360318
 10
3.5361908494
 20
2.5663524098
 10
3.5632217542
 20
2.5559471381
 10
3.5934769462
 20
2.5491043249
 10
3.6223503464
 20
2.5468657265
 10
3.6454462416
 20
2.5495721492
 10
3.659248491
 20
2.5568115647
 10
3.6616558272
 20
2.5674818376
 10
3.6523017553
 20
2.5799585156
 10
3.6326103477
 20
2.5923421375
 10
3.6055794428
 20
2.6027474093
  0
LWPOLYLINE
  5
92
330
1F
100
AcDbEntity
  8
0
  6
Continuous
 62
     7
370
    25
100
AcDbPolyline
 90
       17
 70
   128
 43
0.0
 10
2.5399772167
 20
1.4253820994
 10
2.5097220248
 20
1.4322249126
 10
2.4808486245
 20
1.434463511
 10
2.4577527293
 20
1.4317570883
 10
2.4439504799
 20
1.4245176728
 10
2.4415431437
 20
1.4138473999
 10
2.4508972157
 20
1.4013707219
 10
2.4705886232
 20
1.3889871
 10
2.4976195281
 20
1.3785818282
 10
2.52787472
 20
1.371739015
 10
2.5567481203
 20
1.3695004166
 10
2.5798440155
 20
1.3722068393
 10
2.5936462649
 20
1.3794462548
 10
2.5960536011
 20
1.3901165277
 10
2.5866995291
 20
1.4025932057
 10
2.5670081216
 20
1.4149768277
 10
2.5399772167
 20
1.4253820994
  0
LWPOLYLINE
  5
93
330
1F
100
AcDbEntity
  8
0
  6
Continuous
 62
     7
370
    25
100
AcDbPolyline
 90
       17
 70
   128
 43
0.0
 10
0.648942788
 20
1.9834033407
 10
0.6302140256
 20
1.9876392227
 10
0.6123406287
 20
1.9890249742
 10
0.59804366
 20
1.9873496271
 10
0.5894997033
 20
1.9828682378
 10
0.5880094986
 20
1.9762630572
 10
0.5937999161
 20
1.9685396642
 10
0.6059894171
 20
1.9608738754
 10
0.6227222607
 20
1.9544327375
 10
0.6414510231
 20
1.9501968555
 10
0.65932442
 20
1.948811104
 10
0.6736213887
 20
1.9504864511
 10
0.6821653454
 20
1.9549678404
 10
0.6836555501
 20
1.961573021
 10
0.6778651326
 20
1.969296414
 10
0.6656756316
 20
1.9769622028
 10
0.648942788
 20
1.9834033407
  0
LWPOLYLINE
  5
94
330
1F
100
AcDbEntity
  8
0
  6
Continuous
 62
     7
370
    25
100
AcDbPolyline
 90
       17
 70
   128
 43
0.0
 10
3.0647097491
 20
2.0051499203
 10
3.0459809867
 20
2.0093858023
 10
3.0281075898
 20
2.0107715538
 10
3.0138106211
 20
2.0090962067
 10
3.0052666644
 20
2.0046148174
 10
3.0037764597
 20
1.9980096369
 10
3.0095668772
 20
1.9902862439
 10
3.0217563782
 20
1.982620455
 10
3.0384892218
 20
1.9761793172
 10
3.0572179842
 20
1.9719434352
 10
3.0750913811
 20
1.9705576837
 10
3.0893883498
 20
1.9722330308
 10
3.0979323065
 20
1.97671442
 10
3.0994225112
 20
1.9833196006
 10
3.0936320937
 20
1.9910429936
 10
3.0814425927
 20
1.9987087825
 10
3.0647097491
 20
2.0051499203
  0
LWPOLYLINE
  5
95
330
1F
100
AcDbEntity
  8
0
  6
Continuous
 62
     7
370
    25
100
AcDbPolyline
 90
       17
 70
   128
 43
0.0
 10
1.7145450141
 20
3.1607686506
 10
1.6958162517
 20
3.1650045326
 10
1.6779428548
 20
3.1663902841
 10
1.6636458861
 20
3.164714937
 10
1.6551019294
 20
3.1602335477
 10
1.6536117247
 20
3.1536283671
 10
1.6594021422
 20
3.1459049741
 10
1.6715916432
 20
3.1382391852
 10
1.6883244868
 20
3.1317980474
 10
1.7070532492
 20
3.1275621654
 10
1.7249266461
 20
3.1261764139
 10
1.7392236149
 20
3.127851761
 10
1.7477675715
 20
3.1323331503
 10
1.7492577762
 20
3.1389383308
 10
1.7434673588
 20
3.1466617239
 10
1.7312778577
 20
3.1543275127
 10
1.7145450141
 20
3.1607686506
  0
LWPOLYLINE
  5
96
330
1F
100
AcDbEntity
  8
0
  6
Continuous
 62
     7
370
    25
100
AcDbPolyline
 90
       17
 70
   128
 43
0.0
 10
-0.701221947
 20
3.1390220709
 10
-0.7199507094
 20
3.1432579529
 10
-0.7378241063
 20
3.1446437044
 10
-0.752121075
 20
3.1429683573
 10
-0.7606650317
 20
3.1384869681
 10
-0.7621552364
 20
3.1318817875
 10
-0.7563648189
 20
3.1241583945
 10
-0.7441753179
 20
3.1164926056
 10
-0.7274424743
 20
3.1100514678
 10
-0.7087137119
 20
3.1058155858
 10
-0.690840315
 20
3.1044298343
 10
-0.6765433463
 20
3.1061051814
 10
-0.6679993896
 20
3.1105865707
 10
-0.6665091849
 20
3.1171917512
 10
-0.6722996023
 20
3.1249151442
 10
-0.6844891034
 20
3.1325809331
 10
-0.701221947
 20
3.1390220709
  0
LWPOLYLINE
  5
C7
330
1F
100
AcDbEntity
  8
0
  6
Continuous
 62
     7
370
    25
100
AcDbPolyline
 90
       19
 70
   128
 43
0.0
 10
0.7172225472
 20
-5.1378572987
 10
0.7188580744
 20
-5.0989689475
 10
0.7068841201
 20
-5.0607328658
 10
0.6827449199
 20
-5.0277608893
 10
0.6493520174
 20
-5.0040299249
 10
0.6107330897
 20
-4.9924022773
 10
0.5715461493
 20
-4.9942804124
 10
0.5365177196
 20
-5.0094377992
 10
0.5098727462
 20
-5.0360462334
 10
0.494825006
 20
-5.0708963449
 10
0.4931894788
 20
-5.1097846961
 10
0.5051634331
 20
-5.1480207778
 10
0.5293026333
 20
-5.1809927543
 10
0.5626955358
 20
-5.2047237187
 10
0.6013144635
 20
-5.2163513663
 10
0.6405014039
 20
-5.2144732312
 10
0.6755298336
 20
-5.1993158444
 10
0.702174807
 20
-5.1727074102
 10
0.7172225472
 20
-5.1378572987
  0
LWPOLYLINE
  5
C8
330
1F
100
AcDbEntity
  8
0
  6
Continuous
 62
     7
370
    25
100
AcDbPolyline
 90
       19
 70
   128
 43
0.0
 10
-3.0487091489
 20
-4.0039851481
 10
-3.0470736217
 20
-3.9650967969
 10
-3.059047576
 20
-3.9268607152
 10
-3.0831867762
 20
-3.8938887387
 10
-3.1165796786
 20
-3.8701577743
 10
-3.1551986064
 20
-3.8585301267
 10
-3.1943855468
 20
-3.8604082618
 10
-3.2294139765
 20
-3.8755656486
 10
-3.2560589499
 20
-3.9021740828
 10
-3.27110669
 20
-3.9370241943
 10
-3.2727422173
 20
-3.9759125455
 10
-3.260768263
 20
-4.0141486272
 10
-3.2366290628
 20
-4.0471206037
 10
-3.2032361603
 20
-4.070851568
 10
-3.1646172326
 20
-4.0824792156
 10
-3.1254302922
 20
-4.0806010806
 10
-3.0904018625
 20
-4.0654436938
 10
-3.0637568891
 20
-4.0388352596
 10
-3.0487091489
 20
-4.0039851481
  0
LWPOLYLINE
  5
C9
330
1F
100
AcDbEntity
  8
0
  6
Continuous
 62
     7
370
    25
100
AcDbPolyline
 90
       19
 70
   128
 43
0.0
 10
-6.814640845
 20
-2.8701129975
 10
-6.8130053177
 20
-2.8312246463
 10
-6.824979272
 20
-2.7929885646
 10
-6.8491184723
 20
-2.760016588
 10
-6.8825113747
 20
-2.7362856237
 10
-6.9211303025
 20
-2.7246579761
 10
-6.9603172429
 20
-2.7265361112
 10
-6.9953456726
 20
-2.741693498
 10
-7.021990646
 20
-2.7683019321
 10
-7.0370383861
 20
-2.8031520437
 10
-7.0386739134
 20
-2.8420403949
 10
-7.0266999591
 20
-2.8802764766
 10
-7.0025607589
 20
-2.9132484531
 10
-6.9691678564
 20
-2.9369794174
 10
-6.9305489287
 20
-2.948607065
 10
-6.8913619883
 20
-2.94672893
 10
-6.8563335586
 20
-2.9315715431
 10
-6.8296885852
 20
-2.904963109
 10
-6.814640845
 20
-2.8701129975
  0
LWPOLYLINE
  5
CD
330
1F
100
AcDbEntity
  8
0
  6
Continuous
 62
     7
370
    25
100
AcDbPolyline
 90
       17
 70
   128
 43
0.0
 10
2.874644779
 20
-4.4806802963
 10
2.8804266794
 20
-4.4485083274
 10
2.8813365004
 20
-4.4256447608
 10
2.8772357298
 20
-4.4155703673
 10
2.8687486728
 20
-4.419818882
 10
2.857167407
 20
-4.437743507
 10
2.8442550751
 20
-4.4666153807
 10
2.8319774625
 20
-4.502039022
 10
2.8222037245
 20
-4.5386215026
 10
2.816421824
 20
-4.5707934715
 10
2.8155120031
 20
-4.5936570381
 10
2.8196127737
 20
-4.6037314315
 10
2.8280998306
 20
-4.5994829168
 10
2.8396810964
 20
-4.5815582918
 10
2.8525934284
 20
-4.5526864182
 10
2.864871041
 20
-4.5172627769
 10
2.874644779
 20
-4.4806802963
  0
LWPOLYLINE
  5
CE
330
1F
100
AcDbEntity
  8
0
  6
Continuous
 62
     7
370
    25
100
AcDbPolyline
 90
       17
 70
   128
 43
0.0
 10
5.0908037442
 20
-2.0320849172
 10
5.0965856447
 20
-1.9999129483
 10
5.0974954656
 20
-1.9770493818
 10
5.093394695
 20
-1.9669749883
 10
5.0849076381
 20
-1.971223503
 10
5.0733263723
 20
-1.989148128
 10
5.0604140403
 20
-2.0180200017
 10
5.0481364277
 20
-2.0534436429
 10
5.0383626897
 20
-2.0900261235
 10
5.0325807893
 20
-2.1221980924
 10
5.0316709683
 20
-2.145061659
 10
5.0357717389
 20
-2.1551360525
 10
5.0442587959
 20
-2.1508875378
 10
5.0558400617
 20
-2.1329629128
 10
5.0687523936
 20
-2.1040910391
 10
5.0810300062
 20
-2.0686673978
 10
5.0908037442
 20
-2.0320849172
  0
LWPOLYLINE
  5
CF
330
1F
100
AcDbEntity
  8
0
  6
Continuous
 62
     7
370
    25
100
AcDbPolyline
 90
       17
 70
   128
 43
0.0
 10
7.3069627095
 20
0.4165104618
 10
7.3127446099
 20
0.4486824307
 10
7.3136544308
 20
0.4715459973
 10
7.3095536602
 20
0.4816203908
 10
7.3010666033
 20
0.4773718761
 10
7.2894853375
 20
0.4594472511
 10
7.2765730055
 20
0.4305753774
 10
7.2642953929
 20
0.3951517361
 10
7.2545216549
 20
0.3585692555
 10
7.2487397545
 20
0.3263972866
 10
7.2478299336
 20
0.30353372
 10
7.2519307041
 20
0.2934593266
 10
7.2604177611
 20
0.2977078413
 10
7.2719990269
 20
0.3156324663
 10
7.2849113588
 20
0.3445043399
 10
7.2971889714
 20
0.3799279812
 10
7.3069627095
 20
0.4165104618
  0
LWPOLYLINE
  5
D1
330
1F
100
AcDbEntity
  8
0
  6
Continuous
 62
     7
370
    25
100
AcDbPolyline
 90
        9
 70
   128
 43
0.0
 10
-6.4586562471
 20
-1.7513103237
 10
-6.4586604037
 20
-1.7513287214
 10
-6.4577601835
 20
-1.7691655629
 10
-6.4475238781
 20
-1.7884363102
 10
-6.4283448628
 20
-1.8084003994
 10
-6.4009601766
 20
-1.8282906216
 10
-6.3664221975
 20
-1.8473426068
 10
-6.3260582007
 20
-1.8648241978
 10
-6.281419352
 20
-1.880063587
  0
LWPOLYLINE
  5
D7
330
1F
100
AcDbEntity
  8
0
  6
Continuous
 62
     7
370
    25
100
AcDbPolyline
 90
        9
 70
   128
 43
0.0
 10
-6.2710945461
 20
-1.8344289222
 10
-6.3157333948
 20
-1.819189533
 10
-6.3560973916
 20
-1.8017079419
 10
-6.3906353707
 20
-1.7826559567
 10
-6.4180200569
 20
-1.7627657345
 10
-6.4371990722
 20
-1.7428016454
 10
-6.4474353776
 20
-1.7235308981
 10
-6.4483355978
 20
-1.7056940566
 10
-6.4428782748
 20
-1.6937128993
  0
LINE
  5
DE
330
1F
100
AcDbEntity
  8
0
  6
Continuous
 62
     7
370
    25
100
AcDbLine
 10
-6.4483314412
 20
-1.7056756588
 30
0.0
 11
-6.4586562471
 21
-1.7513103237
 31
0.0
  0
LINE
  5
DF
330
1F
100
AcDbEntity
  8
0
  6
Continuous
 62
     7
370
    25
100
AcDbLine
 10
-5.6920138007
 20
-1.2746334315
 30
0.0
 11
0.2053536616
 21
-3.0502526585
 31
0.0
  0
LINE
  5
E0
330
1F
100
AcDbEntity
  8
0
  6
Continuous
 62
     7
370
    25
100
AcDbLine
 10
-4.6515646025
 20
-0.2741693619
 30
0.0
 11
-4.7635400277
 21
-0.335544843
 31
0.0
  0
LINE
  5
E1
330
1F
100
AcDbEntity
  8
0
  6
Continuous
 62
     7
370
    25
100
AcDbLine
 10
-4.5582901761
 20
0.1380947731
 30
0.0
 11
-4.6515646025
 21
-0.2741693619
 31
0.0
  0
LINE
  5
E2
330
1F
100
AcDbEntity
  8
0
  6
Continuous
 62
     7
370
    25
100
AcDbLine
 10
1.0016483597
 20
-1.5359290738
 30
0.0
 11
-4.5582901761
 21
0.1380947731
 31
0.0
  0
LINE
  5
E3
330
1F
100
AcDbEntity
  8
0
  6
Continuous
 62
     7
370
    25
100
AcDbLine
 10
0.962832444
 20
-1.707491747
 30
0.0
 11
1.0016483597
 21
-1.5359290738
 31
0.0
  0
LINE
  5
E4
330
1F
100
AcDbEntity
  8
0
  6
Continuous
 62
     7
370
    25
100
AcDbLine
 10
2.5748799962
 20
0.2023071158
 30
0.0
 11
1.0016483597
 21
-1.5359290738
 31
0.0
  0
LINE
  5
E5
330
1F
100
AcDbEntity
  8
0
  6
Continuous
 62
     7
370
    25
100
AcDbLine
 10
2.5360640805
 20
0.0307444426
 30
0.0
 11
2.5748799962
 21
0.2023071158
 31
0.0
  0
LINE
  5
E6
330
1F
100
AcDbEntity
  8
0
  6
Continuous
 62
     7
370
    25
100
AcDbLine
 10
-2.9850585397
 20
1.8763309627
 30
0.0
 11
-4.5582901761
 21
0.1380947731
 31
0.0
  0
LINE
  5
E7
330
1F
100
AcDbEntity
  8
0
  6
Continuous
 62
     7
370
    25
100
AcDbLine
 10
2.5748799962
 20
0.2023071158
 30
0.0
 11
-2.9850585397
 21
1.8763309627
 31
0.0
  0
LINE
  5
E8
330
1F
100
AcDbEntity
  8
0
  6
Continuous
 62
     7
370
    25
100
AcDbLine
 10
-2.4912258751
 20
2.1132303877
 30
0.0
 11
-2.6023406573
 21
2.0523266385
 31
0.0
  0
LINE
  5
E9
330
1F
100
AcDbEntity
  8
0
  6
Continuous
 62
     7
370
    25
100
AcDbLine
 10
-2.3979514487
 20
2.5254945227
 30
0.0
 11
-2.4912258751
 21
2.1132303877
 31
0.0
  0
LINE
  5
EA
330
1F
100
AcDbEntity
  8
0
  6
Continuous
 62
     7
370
    25
100
AcDbLine
 10
3.1619870871
 20
0.8514706758
 30
0.0
 11
-2.3979514487
 21
2.5254945227
 31
0.0
  0
LINE
  5
EB
330
1F
100
AcDbEntity
  8
0
  6
Continuous
 62
     7
370
    25
100
AcDbLine
 10
3.1230266241
 20
0.6792691173
 30
0.0
 11
3.1619870871
 21
0.8514706758
 31
0.0
  0
LINE
  5
EC
330
1F
100
AcDbEntity
  8
0
  6
Continuous
 62
     7
370
    25
100
AcDbLine
 10
4.7352187236
 20
2.5897068654
 30
0.0
 11
3.1619870871
 21
0.8514706758
 31
0.0
  0
LINE
  5
ED
330
1F
100
AcDbEntity
  8
0
  6
Continuous
 62
     7
370
    25
100
AcDbLine
 10
4.6962582606
 20
2.4175053069
 30
0.0
 11
4.7352187236
 21
2.5897068654
 31
0.0
  0
LINE
  5
EE
330
1F
100
AcDbEntity
  8
0
  6
Continuous
 62
     7
370
    25
100
AcDbLine
 10
-0.8247198123
 20
4.2637307123
 30
0.0
 11
-2.3979514487
 21
2.5254945227
 31
0.0
  0
LINE
  5
EF
330
1F
100
AcDbEntity
  8
0
  6
Continuous
 62
     7
370
    25
100
AcDbLine
 10
4.7352187236
 20
2.5897068654
 30
0.0
 11
-0.8247198123
 21
4.2637307123
 31
0.0
  0
LINE
  5
F0
330
1F
100
AcDbEntity
  8
0
  6
Continuous
 62
     7
370
    25
100
AcDbLine
 10
2.3073427285
 20
-4.2518082626
 30
0.0
 11
1.572355923
 21
-3.0556469281
 31
0.0
  0
LINE
  5
F1
330
1F
100
AcDbEntity
  8
0
  6
Continuous
 62
     7
370
    25
100
AcDbLine
 10
1.572355923
 20
-3.0556469281
 30
0.0
 11
7.6030771961
 21
3.6075917987
 31
0.0
  0
LINE
  5
F2
330
1F
100
AcDbEntity
  8
0
  6
Continuous
 62
     7
370
    25
100
AcDbLine
 10
8.3380640016
 20
2.4114304641
 30
0.0
 11
7.6030771961
 21
3.6075917987
 31
0.0
  0
LINE
  5
F3
330
1F
100
AcDbEntity
  8
0
  6
Continuous
 62
     7
370
    25
100
AcDbLine
 10
2.3073427285
 20
-4.2518082626
 30
0.0
 11
8.3380640016
 21
2.4114304641
 31
0.0
  0
LINE
  5
F4
330
1F
100
AcDbEntity
  8
0
  6
Continuous
 62
     7
370
    25
100
AcDbLine
 10
1.1280130463
 20
-4.6766209509
 30
0.0
 11
2.1421458337
 21
-4.9819629001
 31
0.0
  0
LINE
  5
F5
330
1F
100
AcDbEntity
  8
0
  6
Continuous
 62
     7
370
    25
100
AcDbLine
 10
1.1486626581
 20
-4.5853516212
 30
0.0
 11
1.1280130463
 21
-4.6766209509
 31
0.0
  0
LINE
  5
F6
330
1F
100
AcDbEntity
  8
0
  6
Continuous
 62
     7
370
    25
100
AcDbLine
 10
0.9648418283
 20
-4.2862889685
 30
0.0
 11
0.9132177987
 21
-4.5144622927
 31
0.0
  0
LINE
  5
F7
330
1F
100
AcDbEntity
  8
0
  6
Continuous
 62
     7
370
    25
100
AcDbLine
 10
0.0828576616
 20
-2.850895367
 30
0.0
 11
0.9648418283
 21
-4.2862889685
 31
0.0
  0
LINE
  5
F8
330
1F
100
AcDbEntity
  8
0
  6
Continuous
 62
     7
370
    25
100
AcDbLine
 10
0.1344816913
 20
-2.6227220428
 30
0.0
 11
0.0828576616
 21
-2.850895367
 31
0.0
  0
LINE
  5
F9
330
1F
100
AcDbEntity
  8
0
  6
Continuous
 62
     7
370
    25
100
AcDbLine
 10
1.572355923
 20
-3.0556469281
 30
0.0
 11
0.1344816913
 21
-2.6227220428
 31
0.0
  0
LINE
  5
FA
330
1F
100
AcDbEntity
  8
0
  6
Continuous
 62
     7
370
    25
100
AcDbLine
 10
2.3073427285
 20
-4.2518082626
 30
0.0
 11
1.9562993271
 21
-5.8033868673
 31
0.0
  0
LINE
  5
FB
330
1F
100
AcDbEntity
  8
0
  6
Continuous
 62
     7
370
    25
100
AcDbLine
 10
0.1344816913
 20
-2.6227220428
 30
0.0
 11
6.1652029644
 21
4.0405166839
 31
0.0
  0
LINE
  5
FC
330
1F
100
AcDbEntity
  8
0
  6
Continuous
 62
     7
370
    25
100
AcDbLine
 10
7.6030771961
 20
3.6075917987
 30
0.0
 11
6.1652029644
 21
4.0405166839
 31
0.0
  0
LINE
  5
FD
330
1F
100
AcDbEntity
  8
0
  6
Continuous
 62
     7
370
    25
100
AcDbLine
 10
8.3380640016
 20
2.4114304641
 30
0.0
 11
7.9870206002
 21
0.8598518594
 31
0.0
  0
LINE
  5
FE
330
1F
100
AcDbEntity
  8
0
  6
Continuous
 62
     7
370
    25
100
AcDbLine
 10
2.1421458337
 20
-4.9819629001
 30
0.0
 11
8.1728671068
 21
1.6812758266
 31
0.0
  0
LINE
  5
FF
330
1F
100
AcDbEntity
  8
0
  6
Continuous
 62
     7
370
    25
100
AcDbLine
 10
0.5676051116
 20
5.7258792523
 30
0.0
 11
0.5159810819
 21
5.497705928
 31
0.0
  0
LINE
  5
100
330
1F
100
AcDbEntity
  8
0
  6
Continuous
 62
     7
370
    25
100
AcDbLine
 10
0.5159810819
 20
5.497705928
 30
0.0
 11
-0.648797186
 21
4.2107627397
 31
0.0
  0
LINE
  5
101
330
1F
100
AcDbEntity
  8
0
  6
Continuous
 62
     7
370
    25
100
AcDbLine
 10
-2.4725638509
 20
2.1957147679
 30
0.0
 11
-2.8094767299
 21
1.8234656055
 31
0.0
  0
LINE
  5
102
330
1F
100
AcDbEntity
  8
0
  6
Continuous
 62
     7
370
    25
100
AcDbLine
 10
-4.632758031
 20
-0.1910460964
 30
0.0
 11
-5.5147401912
 21
-1.1655327987
 31
0.0
  0
LINE
  5
103
330
1F
100
AcDbEntity
  8
0
  6
Continuous
 62
     7
370
    25
100
AcDbLine
 10
-5.4631161616
 20
-0.9373594745
 30
0.0
 11
-5.5147401912
 21
-1.1655327987
 31
0.0
  0
LINE
  5
104
330
1F
100
AcDbEntity
  8
0
  6
Continuous
 62
     7
370
    25
100
AcDbLine
 10
0.5676051116
 20
5.7258792523
 30
0.0
 11
-0.770517364
 21
4.247411073
 31
0.0
  0
LINE
  5
105
330
1F
100
AcDbEntity
  8
0
  6
Continuous
 62
     7
370
    25
100
AcDbLine
 10
-2.4209398213
 20
2.4238880921
 30
0.0
 11
-2.9311969079
 21
1.8601139388
 31
0.0
  0
LINE
  5
106
330
1F
100
AcDbEntity
  8
0
  6
Continuous
 62
     7
370
    25
100
AcDbLine
 10
-4.5811340014
 20
0.0371272278
 30
0.0
 11
-5.4631161616
 21
-0.9373594745
 31
0.0
  0
LINE
  5
107
330
1F
100
AcDbEntity
  8
0
  6
Continuous
 62
     7
370
    25
100
AcDbLine
 10
-0.8702691201
 20
6.1588041375
 30
0.0
 11
0.5676051116
 21
5.7258792523
 31
0.0
  0
LINE
  5
108
330
1F
100
AcDbEntity
  8
0
  6
Continuous
 62
     7
370
    25
100
AcDbLine
 10
-6.9009903932
 20
-0.5044345892
 30
0.0
 11
-5.4631161616
 21
-0.9373594745
 31
0.0
  0
LINE
  5
109
330
1F
100
AcDbEntity
  8
0
  6
Continuous
 62
     7
370
    25
100
AcDbLine
 10
-0.8702691201
 20
6.1588041375
 30
0.0
 11
-6.9009903932
 21
-0.5044345892
 31
0.0
  0
LINE
  5
10A
330
1F
100
AcDbEntity
  8
0
  6
Continuous
 62
     7
370
    25
100
AcDbLine
 10
-8.0489694357
 20
-1.1336598484
 30
0.0
 11
-6.9009903932
 21
-0.5044345892
 31
0.0
  0
LINE
  5
10B
330
1F
100
AcDbEntity
  8
0
  6
Continuous
 62
     7
370
    25
100
AcDbLine
 10
-5.5147401912
 20
-1.1655327987
 30
0.0
 11
-6.8923150422
 21
-1.9206031098
 31
0.0
  0
LINE
  5
10C
330
1F
100
AcDbEntity
  8
0
  6
Continuous
 62
     7
370
    25
100
AcDbLine
 10
-6.8923150422
 20
-1.9206031098
 30
0.0
 11
-6.9439390718
 21
-2.148776434
 31
0.0
  0
LINE
  5
10D
330
1F
100
AcDbEntity
  8
0
  6
Continuous
 62
     7
370
    25
100
AcDbLine
 10
-7.1793839312
 20
-2.0778871055
 30
0.0
 11
1.1486626581
 21
-4.5853516212
 31
0.0
  0
LINE
  5
10E
330
1F
100
AcDbEntity
  8
0
  6
Continuous
 62
     7
370
    25
100
AcDbLine
 10
-7.2000335431
 20
-2.1691564352
 30
0.0
 11
-7.1793839312
 21
-2.0778871055
 31
0.0
  0
LINE
  5
10F
330
1F
100
AcDbEntity
  8
0
  6
Continuous
 62
     7
370
    25
100
AcDbLine
 10
-8.2141663305
 20
-1.863814486
 30
0.0
 11
-7.2000335431
 21
-2.1691564352
 31
0.0
  0
LINE
  5
110
330
1F
100
AcDbEntity
  8
0
  6
Continuous
 62
     7
370
    25
100
AcDbLine
 10
-8.4000128372
 20
-2.6852384532
 30
0.0
 11
-8.0489694357
 21
-1.1336598484
 31
0.0
  0
LINE
  5
111
330
1F
100
AcDbEntity
  8
0
  6
Continuous
 62
     7
370
    25
100
AcDbLine
 10
-2.0182481626
 20
5.5295788783
 30
0.0
 11
-0.8702691201
 21
6.1588041375
 31
0.0
  0
LINE
  5
112
330
1F
100
AcDbEntity
  8
0
  6
Continuous
 62
     7
370
    25
100
AcDbLine
 10
-2.0182481626
 20
5.5295788783
 30
0.0
 11
-8.0489694357
 21
-1.1336598484
 31
0.0
  0
LINE
  5
113
330
1F
100
AcDbEntity
  8
0
  6
Continuous
 62
     7
370
    25
100
AcDbLine
 10
-6.5562060655
 20
-1.755829633
 30
0.0
 11
-5.828026227
 21
-1.3567028801
 31
0.0
  0
LINE
  5
114
330
1F
100
AcDbEntity
  8
0
  6
Continuous
 62
     7
370
    25
100
AcDbLine
 10
-6.6165185162
 20
-1.7870151741
 30
0.0
 11
-6.9439390718
 21
-2.148776434
 31
0.0
  0
LINE
  5
115
330
1F
100
AcDbEntity
  8
0
  6
Continuous
 62
     7
370
    25
100
AcDbLine
 10
1.9562993271
 20
-5.8033868673
 30
0.0
 11
-8.4000128372
 21
-2.6852384532
 31
0.0
  0
LINE
  5
116
330
1F
100
AcDbEntity
  8
0
  6
Continuous
 62
     7
370
    25
100
AcDbLine
 10
7.9870206002
 20
0.8598518594
 30
0.0
 11
1.9562993271
 21
-5.8033868673
 31
0.0
  0
LINE
  5
117
330
1F
100
AcDbEntity
  8
0
  6
Continuous
 62
     7
370
    25
100
AcDbLine
 10
-0.4894153221
 20
4.3868609807
 30
0.0
 11
4.9864623527
 21
2.7381467456
 31
0.0
  0
LINE
  5
118
330
1F
100
AcDbEntity
  8
0
  6
Continuous
 62
     7
370
    25
100
AcDbLine
 10
-6.281419352
 20
-1.880063587
 30
0.0
 11
0.7956042542
 21
-4.0108616535
 31
0.0
  0
LINE
  5
119
330
1F
100
AcDbEntity
  8
0
  6
Continuous
 62
     7
370
    25
100
AcDbLine
 10
0.758854914
 20
-3.9510535867
 30
0.0
 11
-6.2710945461
 21
-1.8344289222
 31
0.0
  0
LINE
  5
11A
330
1F
100
AcDbEntity
  8
0
  6
Continuous
 62
     7
370
    25
100
AcDbLine
 10
-6.2710945461
 20
-1.8344289222
 30
0.0
 11
-6.281419352
 21
-1.880063587
 31
0.0
  0
LINE
  5
11B
330
1F
100
AcDbEntity
  8
0
  6
Continuous
 62
     8
370
    25
100
AcDbLine
 10
-5.828026227
 20
-1.3567028801
 30
0.0
 11
-5.8369678197
 21
-1.3421507992
 31
0.0
  0
LINE
  5
11C
330
1F
100
AcDbEntity
  8
0
  6
Continuous
 62
     8
370
    25
100
AcDbLine
 10
-6.5562060655
 20
-1.755829633
 30
0.0
 11
-6.5651476582
 21
-1.7412775521
 31
0.0
  0
ARC
  5
11D
330
1F
100
AcDbEntity
  8
0
  6
Continuous
 62
     7
370
    25
100
AcDbCircle
 10
-6.6904559142
 20
0.2276546379
 30
0.0
 40
1.803877409926983
100
AcDbArc
 50
298.5612350214
 51
306.6154721154
  0
ARC
  5
11E
330
1F
100
AcDbEntity
  8
0
  6
Continuous
 62
     7
370
    25
100
AcDbCircle
 10
-6.762839644
 20
-1.4587039793
 30
0.0
 40
0.3619130970817098
100
AcDbArc
 50
280.0303721938
 51
304.8163629378
  0
ARC
  5
11F
330
1F
100
AcDbEntity
  8
0
  6
Continuous
 62
     7
370
    25
100
AcDbCircle
 10
0.7436127358
 20
-4.9523571811
 30
0.0
 40
0.1269037621219239
100
AcDbArc
 50
199.5604443064
 51
256.1447307271
  0
ARC
  5
120
330
1F
100
AcDbEntity
  8
0
  6
Continuous
 62
     7
370
    25
100
AcDbCircle
 10
0.7420115046
 20
-4.9541263535
 30
0.0
 40
0.1064138556050855
100
AcDbArc
 50
207.44662207
 51
248.2585529634
  0
ARC
  5
121
330
1F
100
AcDbEntity
  8
0
  6
Continuous
 62
     7
370
    25
100
AcDbCircle
 10
-3.0223189603
 20
-3.8184850305
 30
0.0
 40
0.1269037621219241
100
AcDbArc
 50
199.5604443064
 51
256.1447307271
  0
ARC
  5
122
330
1F
100
AcDbEntity
  8
0
  6
Continuous
 62
     7
370
    25
100
AcDbCircle
 10
-3.0239201915
 20
-3.8202542029
 30
0.0
 40
0.1064138556052581
100
AcDbArc
 50
207.4466220729
 51
248.2585529608
  0
ARC
  5
123
330
1F
100
AcDbEntity
  8
0
  6
Continuous
 62
     7
370
    25
100
AcDbCircle
 10
-6.7882506564
 20
-2.6846128799
 30
0.0
 40
0.1269037621219239
100
AcDbArc
 50
199.5604443064
 51
256.1447307271
  0
ARC
  5
124
330
1F
100
AcDbEntity
  8
0
  6
Continuous
 62
     7
370
    25
100
AcDbCircle
 10
-6.7898518876
 20
-2.6863820523
 30
0.0
 40
0.1064138556054068
100
AcDbArc
 50
207.4466220757
 51
248.2585529579
  0
SPLINE
  5
15F
330
1B
100
AcDbEntity
 67
     1
  8
0
  6
Continuous
 62
     7
370
    25
100
AcDbSpline
210
0.0
220
0.0
230
1.0
 70
     8
 71
     3
 72
    12
 73
     8
 74
     0
 42
0.00000001
 43
0.00000001
 40
0.0
 40
0.0
 40
0.0
 40
0.0
 40
0.25
 40
0.25
 40
0.5
 40
0.5
 40
1.0
 40
1.0
 40
1.0
 40
1.0
 10
-5.077499362947798
 20
-0.5200000000000002
 30
0.0
 10
-5.069938823242456
 20
-0.5174414473998348
 30
0.0
 10
-5.062300368064439
 20
-0.5152755185440752
 30
0.0
 10
-5.04676850192511
 20
-0.5122284081472009
 30
0.0
 10
-5.03880761513325
 20
-0.5113635749774726
 30
0.0
 10
-5.014835121660588
 20
-0.5113885059955277
 30
0.0
 10
-4.999462848908879
 20
-0.514892683939734
 30
0.0
 10
-4.984370696471257
 20
-0.5200000000000002
 30
0.0
  0
CIRCLE
  5
167
330
1B
100
AcDbEntity
 67
     1
  8
0
  6
Continuous
 62
     7
370
    25
100
AcDbCircle
 10
4.0
 20
-0.7
 30
0.0
 40
0.1181102362204736
  0
CIRCLE
  5
169
330
1B
100
AcDbEntity
 67
     1
  8
0
  6
Continuous
 62
     7
370
    25
100
AcDbCircle
 10
-4.0
 20
-0.7
 30
0.0
 40
0.1181102362204722
  0
CIRCLE
  5
16A
330
1B
100
AcDbEntity
 67
     1
  8
0
  6
Continuous
 62
     7
370
    25
100
AcDbCircle
 10
0.0
 20
-0.7
 30
0.0
 40
0.1181102362204723
  0
CIRCLE
  5
16C
330
1B
100
AcDbEntity
 67
     1
  8
0
  6
Continuous
 62
     7
370
    25
100
AcDbCircle
 10
4.0
 20
-0.7
 30
0.0
 40
0.0984251968503949
  0
CIRCLE
  5
16D
330
1B
100
AcDbEntity
 67
     1
  8
0
  6
Continuous
 62
     7
370
    25
100
AcDbCircle
 10
-4.0
 20
-0.7
 30
0.0
 40
0.098425196850394
  0
CIRCLE
  5
16E
330
1B
100
AcDbEntity
 67
     1
  8
0
  6
Continuous
 62
     7
370
    25
100
AcDbCircle
 10
0.0
 20
-0.7
 30
0.0
 40
0.0984251968503936
  0
LINE
  5
180
330
1B
100
AcDbEntity
 67
     1
  8
0
  6
Continuous
 62
     7
370
    25
100
AcDbLine
 10
5.5
 20
-0.762404382
 30
0.0
 11
5.5870707253
 21
-0.762404382
 31
0.0
  0
LINE
  5
181
330
1B
100
AcDbEntity
 67
     1
  8
0
  6
Continuous
 62
     7
370
    25
100
AcDbLine
 10
5.5870707253
 20
-0.337595618
 30
0.0
 11
5.5
 21
-0.337595618
 31
0.0
  0
LINE
  5
182
330
1B
100
AcDbEntity
 67
     1
  8
0
  6
Continuous
 62
     7
370
    25
100
AcDbLine
 10
5.9598455047
 20
-0.6812423109
 30
0.0
 11
6.0755929704
 21
-0.6402274547
 31
0.0
  0
LINE
  5
183
330
1B
100
AcDbEntity
 67
     1
  8
0
  6
Continuous
 62
     7
370
    25
100
AcDbLine
 10
6.0755929704
 20
-0.4597725453
 30
0.0
 11
5.9598455047
 21
-0.4187576891
 31
0.0
  0
LINE
  5
184
330
1B
100
AcDbEntity
 67
     1
  8
0
  6
Continuous
 62
     7
370
    25
100
AcDbLine
 10
5.8484810218
 20
-0.4187576891
 30
0.0
 11
5.8349894402
 21
-0.4322492706
 31
0.0
  0
LINE
  5
185
330
1B
100
AcDbEntity
 67
     1
  8
0
  6
Continuous
 62
     7
370
    25
100
AcDbLine
 10
5.8349894402
 20
-0.6677507294
 30
0.0
 11
5.8484810218
 21
-0.6812423109
 31
0.0
  0
LINE
  5
186
330
1B
100
AcDbEntity
 67
     1
  8
0
  6
Continuous
 62
     7
370
    25
100
AcDbLine
 10
5.8484810218
 20
-0.6812423109
 30
0.0
 11
5.9598455047
 21
-0.6812423109
 31
0.0
  0
LINE
  5
187
330
1B
100
AcDbEntity
 67
     1
  8
0
  6
Continuous
 62
     7
370
    25
100
AcDbLine
 10
5.9598455047
 20
-0.4187576891
 30
0.0
 11
5.8484810218
 21
-0.4187576891
 31
0.0
  0
LINE
  5
188
330
1B
100
AcDbEntity
 67
     1
  8
0
  6
Continuous
 62
     7
370
    25
100
AcDbLine
 10
5.5870707253
 20
-0.6677507294
 30
0.0
 11
5.8349894402
 21
-0.6677507294
 31
0.0
  0
LINE
  5
189
330
1B
100
AcDbEntity
 67
     1
  8
0
  6
Continuous
 62
     7
370
    25
100
AcDbLine
 10
5.8349894402
 20
-0.4322492706
 30
0.0
 11
5.5870707253
 21
-0.4322492706
 31
0.0
  0
LINE
  5
18A
330
1B
100
AcDbEntity
 67
     1
  8
0
  6
Continuous
 62
     7
370
    25
100
AcDbLine
 10
-4.1527559098
 20
0.05
 30
0.0
 11
-4.1527559098
 21
0.1982993724
 31
0.0
  0
LINE
  5
18B
330
1B
100
AcDbEntity
 67
     1
  8
0
  6
Continuous
 62
     7
370
    25
100
AcDbLine
 10
4.1527559098
 20
0.1982993724
 30
0.0
 11
4.1527559098
 21
0.05
 31
0.0
  0
LINE
  5
18C
330
1B
100
AcDbEntity
 67
     1
  8
0
  6
Continuous
 62
     7
370
    25
100
AcDbLine
 10
2.9527559098
 20
1.85
 30
0.0
 11
2.9527559098
 21
1.3982993724
 31
0.0
  0
LINE
  5
18D
330
1B
100
AcDbEntity
 67
     1
  8
0
  6
Continuous
 62
     7
370
    25
100
AcDbLine
 10
2.9527559098
 20
1.3982993724
 30
0.0
 11
4.1527559098
 21
0.1982993724
 31
0.0
  0
LINE
  5
18E
330
1B
100
AcDbEntity
 67
     1
  8
0
  6
Continuous
 62
     7
370
    25
100
AcDbLine
 10
-4.1527559098
 20
0.1982993724
 30
0.0
 11
-2.9527559098
 21
1.3982993724
 31
0.0
  0
LINE
  5
18F
330
1B
100
AcDbEntity
 67
     1
  8
0
  6
Continuous
 62
     7
370
    25
100
AcDbLine
 10
-2.9527559098
 20
1.3982993724
 30
0.0
 11
-2.9527559098
 21
1.85
 31
0.0
  0
LINE
  5
190
330
1B
100
AcDbEntity
 67
     1
  8
0
  6
Continuous
 62
     7
370
    25
100
AcDbLine
 10
4.1527559098
 20
0.0507
 30
0.0
 11
-4.1527559098
 21
0.0507
 31
0.0
  0
LINE
  5
191
330
1B
100
AcDbEntity
 67
     1
  8
0
  6
Continuous
 62
     7
370
    25
100
AcDbLine
 10
-2.9527559098
 20
1.85
 30
0.0
 11
2.9527559098
 21
1.85
 31
0.0
  0
LINE
  5
192
330
1B
100
AcDbEntity
 67
     1
  8
0
  6
Continuous
 62
     7
370
    25
100
AcDbLine
 10
-4.5
 20
1.7
 30
0.0
 11
-2.9727559098
 21
1.7
 31
0.0
  0
LINE
  5
193
330
1B
100
AcDbEntity
 67
     1
  8
0
  6
Continuous
 62
     7
370
    25
100
AcDbLine
 10
-5.5
 20
0.7
 30
0.0
 11
-4.5
 21
1.7
 31
0.0
  0
LINE
  5
194
330
1B
100
AcDbEntity
 67
     1
  8
0
  6
Continuous
 62
     7
370
    25
100
AcDbLine
 10
-4.4228346457
 20
-0.1
 30
0.0
 11
-5.5
 21
-0.1
 31
0.0
  0
LINE
  5
195
330
1B
100
AcDbEntity
 67
     1
  8
0
  6
Continuous
 62
     7
370
    25
100
AcDbLine
 10
-4.4228346457
 20
-0.1
 30
0.0
 11
-4.4228346457
 21
0.0
 31
0.0
  0
LINE
  5
196
330
1B
100
AcDbEntity
 67
     1
  8
0
  6
Continuous
 62
     7
370
    25
100
AcDbLine
 10
-4.1727559098
 20
0.25
 30
0.0
 11
-4.1727559098
 21
0.0
 31
0.0
  0
LINE
  5
197
330
1B
100
AcDbEntity
 67
     1
  8
0
  6
Continuous
 62
     7
370
    25
100
AcDbLine
 10
-2.9727559098
 20
1.45
 30
0.0
 11
-4.1727559098
 21
0.25
 31
0.0
  0
LINE
  5
198
330
1B
100
AcDbEntity
 67
     1
  8
0
  6
Continuous
 62
     7
370
    25
100
AcDbLine
 10
-2.9727559098
 20
1.7
 30
0.0
 11
-2.9727559098
 21
1.45
 31
0.0
  0
LINE
  5
199
330
1B
100
AcDbEntity
 67
     1
  8
0
  6
Continuous
 62
     7
370
    25
100
AcDbLine
 10
-5.5
 20
0.7
 30
0.0
 11
-5.5
 21
-1.0
 31
0.0
  0
LINE
  5
19A
330
1B
100
AcDbEntity
 67
     1
  8
0
  6
Continuous
 62
     7
370
    25
100
AcDbLine
 10
-4.1020452317
 20
0.25
 30
0.0
 11
-3.1141772661
 21
1.2378679656
 31
0.0
  0
LINE
  5
19B
330
1B
100
AcDbEntity
 67
     1
  8
0
  6
Continuous
 62
     7
370
    25
100
AcDbLine
 10
-3.9252685364
 20
0.4267766953
 30
0.0
 11
-3.9606238755
 21
0.4621320344
 31
0.0
  0
LINE
  5
19C
330
1B
100
AcDbEntity
 67
     1
  8
0
  6
Continuous
 62
     7
370
    25
100
AcDbLine
 10
-3.2909539614
 20
1.0610912703
 30
0.0
 11
-3.3263093004
 21
1.0964466094
 31
0.0
  0
LINE
  5
19D
330
1B
100
AcDbEntity
 67
     1
  8
0
  6
Continuous
 62
     7
370
    25
100
AcDbLine
 10
-3.1141772661
 20
1.2378679656
 30
0.0
 11
-3.1495326051
 21
1.2732233047
 31
0.0
  0
LINE
  5
19E
330
1B
100
AcDbEntity
 67
     1
  8
0
  6
Continuous
 62
     7
370
    25
100
AcDbLine
 10
-4.1020452317
 20
0.25
 30
0.0
 11
-4.1374005708
 21
0.2853553391
 31
0.0
  0
LINE
  5
19F
330
1B
100
AcDbEntity
 67
     1
  8
0
  6
Continuous
 62
     7
370
    25
100
AcDbLine
 10
4.4228346457
 20
-0.1
 30
0.0
 11
5.5
 21
-0.1
 31
0.0
  0
LINE
  5
1A0
330
1B
100
AcDbEntity
 67
     1
  8
0
  6
Continuous
 62
     7
370
    25
100
AcDbLine
 10
4.4228346457
 20
-0.1
 30
0.0
 11
4.4228346457
 21
0.0
 31
0.0
  0
LINE
  5
1A1
330
1B
100
AcDbEntity
 67
     1
  8
0
  6
Continuous
 62
     7
370
    25
100
AcDbLine
 10
4.1727559098
 20
0.25
 30
0.0
 11
4.1727559098
 21
0.0
 31
0.0
  0
LINE
  5
1A2
330
1B
100
AcDbEntity
 67
     1
  8
0
  6
Continuous
 62
     7
370
    25
100
AcDbLine
 10
4.5
 20
1.7
 30
0.0
 11
2.9727559098
 21
1.7
 31
0.0
  0
LINE
  5
1A3
330
1B
100
AcDbEntity
 67
     1
  8
0
  6
Continuous
 62
     7
370
    25
100
AcDbLine
 10
5.5
 20
0.7
 30
0.0
 11
4.5
 21
1.7
 31
0.0
  0
LINE
  5
1A4
330
1B
100
AcDbEntity
 67
     1
  8
0
  6
Continuous
 62
     7
370
    25
100
AcDbLine
 10
5.5
 20
-1.0
 30
0.0
 11
5.5
 21
0.7
 31
0.0
  0
LINE
  5
1A5
330
1B
100
AcDbEntity
 67
     1
  8
0
  6
Continuous
 62
     7
370
    25
100
AcDbLine
 10
4.4228346457
 20
0.0
 30
0.0
 11
-4.4228346457
 21
0.0
 31
0.0
  0
LINE
  5
1A6
330
1B
100
AcDbEntity
 67
     1
  8
0
  6
Continuous
 62
     7
370
    25
100
AcDbLine
 10
2.9727559098
 20
1.45
 30
0.0
 11
4.1727559098
 21
0.25
 31
0.0
  0
LINE
  5
1A7
330
1B
100
AcDbEntity
 67
     1
  8
0
  6
Continuous
 62
     7
370
    25
100
AcDbLine
 10
2.9727559098
 20
1.7
 30
0.0
 11
2.9727559098
 21
1.45
 31
0.0
  0
LINE
  5
1A8
330
1B
100
AcDbEntity
 67
     1
  8
0
  6
Continuous
 62
     7
370
    25
100
AcDbLine
 10
3.1141772661
 20
1.2378679656
 30
0.0
 11
4.1020452317
 21
0.25
 31
0.0
  0
LINE
  5
1A9
330
1B
100
AcDbEntity
 67
     1
  8
0
  6
Continuous
 62
     7
370
    25
100
AcDbLine
 10
3.9252685364
 20
0.4267766953
 30
0.0
 11
3.9606238755
 21
0.4621320344
 31
0.0
  0
LINE
  5
1AA
330
1B
100
AcDbEntity
 67
     1
  8
0
  6
Continuous
 62
     7
370
    25
100
AcDbLine
 10
4.1020452317
 20
0.25
 30
0.0
 11
4.1374005708
 21
0.2853553391
 31
0.0
  0
LINE
  5
1AB
330
1B
100
AcDbEntity
 67
     1
  8
0
  6
Continuous
 62
     7
370
    25
100
AcDbLine
 10
3.2909539614
 20
1.0610912703
 30
0.0
 11
3.3263093004
 21
1.0964466094
 31
0.0
  0
LINE
  5
1AC
330
1B
100
AcDbEntity
 67
     1
  8
0
  6
Continuous
 62
     7
370
    25
100
AcDbLine
 10
3.1141772661
 20
1.2378679656
 30
0.0
 11
3.1495326051
 21
1.2732233047
 31
0.0
  0
LINE
  5
1AD
330
1B
100
AcDbEntity
 67
     1
  8
0
  6
Continuous
 62
     7
370
    25
100
AcDbLine
 10
-5.0774993629
 20
-0.52
 30
0.0
 11
-4.9843706965
 21
-0.52
 31
0.0
  0
LINE
  5
1AE
330
1B
100
AcDbEntity
 67
     1
  8
0
  6
Continuous
 62
     7
370
    25
100
AcDbLine
 10
-4.9843706965
 20
-1.0
 30
0.0
 11
-4.9843706965
 21
-0.52
 31
0.0
  0
LINE
  5
1AF
330
1B
100
AcDbEntity
 67
     1
  8
0
  6
Continuous
 62
     7
370
    25
100
AcDbLine
 10
-5.0774993629
 20
-0.52
 30
0.0
 11
-5.0774993629
 21
-1.0
 31
0.0
  0
LINE
  5
1B0
330
1B
100
AcDbEntity
 67
     1
  8
0
  6
Continuous
 62
     7
370
    25
100
AcDbLine
 10
-5.5
 20
-1.0
 30
0.0
 11
5.5
 21
-1.0
 31
0.0
  0
LINE
  5
1B1
330
1B
100
AcDbEntity
 67
     1
  8
0
  6
Continuous
 62
     7
370
    25
100
AcDbLine
 10
4.1527559098
 20
0.05
 30
0.0
 11
-4.1527559098
 21
0.05
 31
0.0
  0
LINE
  5
1B2
330
1B
100
AcDbEntity
 67
     1
  8
0
  6
Continuous
 62
     7
370
    25
100
AcDbLine
 10
3.8227559098
 20
0.05
 30
0.0
 11
3.8227559098
 21
0.0
 31
0.0
  0
LINE
  5
1B3
330
1B
100
AcDbEntity
 67
     1
  8
0
  6
Continuous
 62
     7
370
    25
100
AcDbLine
 10
-3.8227559098
 20
0.05
 30
0.0
 11
-3.8227559098
 21
0.0
 31
0.0
  0
LINE
  5
1B4
330
1B
100
AcDbEntity
 67
     1
  8
0
  6
Continuous
 62
     7
370
    25
100
AcDbLine
 10
4.0727559098
 20
0.05
 30
0.0
 11
4.0727559098
 21
0.0
 31
0.0
  0
LINE
  5
1B5
330
1B
100
AcDbEntity
 67
     1
  8
0
  6
Continuous
 62
     7
370
    25
100
AcDbLine
 10
-4.0727559098
 20
0.05
 30
0.0
 11
-4.0727559098
 21
0.0
 31
0.0
  0
LINE
  5
1B6
330
1B
100
AcDbEntity
 67
     1
  8
0
  6
Continuous
 62
     7
370
    25
100
AcDbLine
 10
5.5870707253
 20
-0.762404382
 30
0.0
 11
5.5870707253
 21
-0.337595618
 31
0.0
  0
LINE
  5
1B7
330
1B
100
AcDbEntity
 67
     1
  8
0
  6
Continuous
 62
     7
370
    25
100
AcDbLine
 10
6.0755929704
 20
-0.6402274547
 30
0.0
 11
6.0755929704
 21
-0.4597725453
 31
0.0
  0
LINE
  5
1B8
330
1B
100
AcDbEntity
 67
     1
  8
0
  6
Continuous
 62
     7
370
    25
100
AcDbLine
 10
5.9598455047
 20
-0.6812423109
 30
0.0
 11
5.9598455047
 21
-0.4187576891
 31
0.0
  0
LINE
  5
1B9
330
1B
100
AcDbEntity
 67
     1
  8
0
  6
Continuous
 62
     7
370
    25
100
AcDbLine
 10
5.8484810218
 20
-0.6812423109
 30
0.0
 11
5.8484810218
 21
-0.4187576891
 31
0.0
  0
LINE
  5
1BA
330
1B
100
AcDbEntity
 67
     1
  8
0
  6
Continuous
 62
     7
370
    25
100
AcDbLine
 10
5.8349894402
 20
-0.6677507294
 30
0.0
 11
5.8349894402
 21
-0.4322492706
 31
0.0
  0
VIEWPORT
  5
655
330
1B
100
AcDbEntity
 67
     1
  8
0
100
AcDbViewport
 10
0.0
 20
0.0
 30
0.0
 40
8.4
 41
6.4
 68
     1
 69
     1
 12
-0.0309744178
 22
0.1777086351
 13
0.0
 23
0.0
 14
0.5
 24
0.5
 15
0.5
 25
0.5
 16
0.0
 26
0.0
 36
1.0
 17
0.0
 27
0.0
 37
0.0
 42
50.0
 43
0.0
 44
0.0
 45
13.0078768576
 50
0.0
 51
0.0
 72
   100
 90
   557152
  1

281
     0
 71
     1
 74
     0
110
0.0
120
0.0
130
0.0
111
1.0
121
0.0
131
0.0
112
0.0
122
1.0
132
0.0
 79
     0
146
0.0
  0
ENDSEC
  0
SECTION
  2
OBJECTS
  0
DICTIONARY
  5
C
330
0
100
AcDbDictionary
281
     1
  3
ACAD_GROUP
350
D
  3
ACAD_LAYOUT
350
1A
  3
ACAD_MLINESTYLE
350
17
  3
ACAD_PLOTSETTINGS
350
19
  3
ACAD_PLOTSTYLENAME
350
E
  3
ACAD_SCALELIST
350
47
  3
DWGPROPS
350
667
  0
DICTIONARY
  5
D
102
{ACAD_REACTORS
330
C
102
}
330
C
100
AcDbDictionary
281
     1
  0
DICTIONARY
  5
1A
102
{ACAD_REACTORS
330
C
102
}
330
C
100
AcDbDictionary
281
     1
  3
_Back
350
26
  3
_Bottom
350
30A
  3
_Dimetric
350
574
  3
_Front
350
1E
  3
_Isometric
350
378
  3
_Left
350
24A
  3
_Right
350
279
  3
_Top
350
2A2
  3
_Trimetric
350
489
  3
Model
350
22
  0
DICTIONARY
  5
17
102
{ACAD_REACTORS
330
C
102
}
330
C
100
AcDbDictionary
281
     1
  3
Standard
350
18
  0
DICTIONARY
  5
19
102
{ACAD_REACTORS
330
C
102
}
330
C
100
AcDbDictionary
281
     1
  0
ACDBDICTIONARYWDFLT
  5
E
102
{ACAD_REACTORS
330
C
102
}
330
C
100
AcDbDictionary
281
     1
  3
Normal
350
F
100
AcDbDictionaryWithDefault
340
F
  0
DICTIONARY
  5
47
102
{ACAD_REACTORS
330
C
102
}
330
C
100
AcDbDictionary
281
     1
  3
A0
350
48
  3
A1
350
49
  3
A2
350
4A
  3
A3
350
4B
  3
A4
350
4C
  3
A5
350
4D
  3
A6
350
4E
  3
A7
350
4F
  3
A8
350
50
  3
A9
350
51
  3
B0
350
52
  3
B1
350
53
  3
B2
350
54
  3
B3
350
55
  3
B4
350
56
  3
B5
350
57
  3
B6
350
58
  3
B7
350
59
  3
B8
350
5A
  3
B9
350
5B
  3
C0
350
5C
  3
C1
350
5D
  3
C2
350
5E
  3
C3
350
5F
  3
C4
350
60
  3
C5
350
61
  3
C6
350
62
  3
C7
350
63
  3
C8
350
64
  3
C9
350
65
  3
D0
350
66
  3
D1
350
67
  3
D2
350
68
  0
XRECORD
  5
667
102
{ACAD_REACTORS
330
C
102
}
330
C
100
AcDbXrecord
280
     1
  1
DWGPROPS COOKIE
  2

  3

  4

  6

  7

  8
jeffs
  9

300
=
301
=
302
=
303
=
304
=
305
=
306
=
307
=
308
=
309
=
 40
0.0
 41
2460959.803623819
 42
2460959.803657014
  1

 90
        0
  0
LAYOUT
  5
26
102
{ACAD_REACTORS
330
1A
102
}
330
1A
100
AcDbPlotSettings
  1

  2
none_device
  4
Letter_(8.50_x_11.00_Inches)
  6

 40
6.35
 41
6.35
 42
6.35001
 43
6.35001
 44
215.9
 45
279.4
 46
0.0
 47
0.0
 48
0.0
 49
0.0
140
0.0
141
0.0
142
1.0
143
1.1024374671
 70
   688
 72
     0
 73
     1
 74
     1
  7

 75
     0
147
0.9070809274
148
139.7
149
25.4
100
AcDbLayout
  1
_Back
 70
     1
 71
     2
 10
0.0
 20
0.0
 11
0.0
 21
0.0
 12
0.0
 22
0.0
 32
0.0
 14
0.0
 24
0.0
 34
0.0
 15
0.0
 25
0.0
 35
0.0
146
0.0
 13
0.0
 23
0.0
 33
0.0
 16
1.0
 26
0.0
 36
0.0
 17
0.0
 27
1.0
 37
0.0
 76
     0
330
23
331
657
  0
LAYOUT
  5
30A
102
{ACAD_REACTORS
330
1A
102
}
330
1A
100
AcDbPlotSettings
  1

  2
none_device
  4
Letter_(8.50_x_11.00_Inches)
  6

 40
6.35
 41
6.35
 42
6.35001
 43
6.35001
 44
215.9
 45
279.4
 46
0.0
 47
0.0
 48
0.0
 49
0.0
140
0.0
141
0.0
142
1.0
143
1.1024374671
 70
   688
 72
     0
 73
     1
 74
     1
  7

 75
     0
147
0.9070809274
148
139.7
149
25.4
100
AcDbLayout
  1
_Bottom
 70
     1
 71
     6
 10
0.0
 20
0.0
 11
0.0
 21
0.0
 12
0.0
 22
0.0
 32
0.0
 14
0.0
 24
0.0
 34
0.0
 15
0.0
 25
0.0
 35
0.0
146
0.0
 13
0.0
 23
0.0
 33
0.0
 16
1.0
 26
0.0
 36
0.0
 17
0.0
 27
1.0
 37
0.0
 76
     0
330
309
331
65F
  0
LAYOUT
  5
574
102
{ACAD_REACTORS
330
1A
102
}
330
1A
100
AcDbPlotSettings
  1

  2
none_device
  4
Letter_(8.50_x_11.00_Inches)
  6

 40
6.35
 41
6.35
 42
6.35001
 43
6.35001
 44
215.9
 45
279.4
 46
0.0
 47
0.0
 48
0.0
 49
0.0
140
0.0
141
0.0
142
1.0
143
1.1024374671
 70
   688
 72
     0
 73
     1
 74
     1
  7

 75
     0
147
0.9070809274
148
139.7
149
25.4
100
AcDbLayout
  1
_Dimetric
 70
     1
 71
     9
 10
0.0
 20
0.0
 11
0.0
 21
0.0
 12
0.0
 22
0.0
 32
0.0
 14
0.0
 24
0.0
 34
0.0
 15
0.0
 25
0.0
 35
0.0
146
0.0
 13
0.0
 23
0.0
 33
0.0
 16
1.0
 26
0.0
 36
0.0
 17
0.0
 27
1.0
 37
0.0
 76
     0
330
573
331
665
  0
LAYOUT
  5
1E
102
{ACAD_REACTORS
330
1A
102
}
330
1A
100
AcDbPlotSettings
  1

  2
none_device
  4
Letter_(8.50_x_11.00_Inches)
  6

 40
6.35
 41
6.35
 42
6.35001
 43
6.35001
 44
215.9
 45
279.4
 46
0.0
 47
0.0
 48
0.0
 49
0.0
140
0.0
141
0.0
142
1.0
143
1.1024374671
 70
   688
 72
     0
 73
     1
 74
     1
  7

 75
     0
147
0.9070809274
148
139.7
149
25.4
100
AcDbLayout
  1
_Front
 70
     1
 71
     1
 10
-5.7756098008
 20
-1.2756093668
 11
6.3512023371
 21
8.0951091035
 12
0.0
 22
0.0
 32
0.0
 14
-5.5
 24
-1.0
 34
0.0
 15
6.0755929704
 25
1.85
 35
0.0
146
0.0
 13
0.0
 23
0.0
 33
0.0
 16
1.0
 26
0.0
 36
0.0
 17
0.0
 27
1.0
 37
0.0
 76
     0
330
1B
331
655
  0
LAYOUT
  5
378
102
{ACAD_REACTORS
330
1A
102
}
330
1A
100
AcDbPlotSettings
  1

  2
none_device
  4
Letter_(8.50_x_11.00_Inches)
  6

 40
6.35
 41
6.35
 42
6.35001
 43
6.35001
 44
215.9
 45
279.4
 46
0.0
 47
0.0
 48
0.0
 49
0.0
140
0.0
141
0.0
142
1.0
143
1.1024374671
 70
   688
 72
     0
 73
     1
 74
     1
  7

 75
     0
147
0.9070809274
148
139.7
149
25.4
100
AcDbLayout
  1
_Isometric
 70
     1
 71
     7
 10
0.0
 20
0.0
 11
0.0
 21
0.0
 12
0.0
 22
0.0
 32
0.0
 14
0.0
 24
0.0
 34
0.0
 15
0.0
 25
0.0
 35
0.0
146
0.0
 13
0.0
 23
0.0
 33
0.0
 16
1.0
 26
0.0
 36
0.0
 17
0.0
 27
1.0
 37
0.0
 76
     0
330
377
331
661
  0
LAYOUT
  5
24A
102
{ACAD_REACTORS
330
1A
102
}
330
1A
100
AcDbPlotSettings
  1

  2
none_device
  4
Letter_(8.50_x_11.00_Inches)
  6

 40
6.35
 41
6.35
 42
6.35001
 43
6.35001
 44
215.9
 45
279.4
 46
0.0
 47
0.0
 48
0.0
 49
0.0
140
0.0
141
0.0
142
1.0
143
1.1024374671
 70
   688
 72
     0
 73
     1
 74
     1
  7

 75
     0
147
0.9070809274
148
139.7
149
25.4
100
AcDbLayout
  1
_Left
 70
     1
 71
     3
 10
0.0
 20
0.0
 11
0.0
 21
0.0
 12
0.0
 22
0.0
 32
0.0
 14
0.0
 24
0.0
 34
0.0
 15
0.0
 25
0.0
 35
0.0
146
0.0
 13
0.0
 23
0.0
 33
0.0
 16
1.0
 26
0.0
 36
0.0
 17
0.0
 27
1.0
 37
0.0
 76
     0
330
249
331
659
  0
LAYOUT
  5
279
102
{ACAD_REACTORS
330
1A
102
}
330
1A
100
AcDbPlotSettings
  1

  2
none_device
  4
Letter_(8.50_x_11.00_Inches)
  6

 40
6.35
 41
6.35
 42
6.35001
 43
6.35001
 44
215.9
 45
279.4
 46
0.0
 47
0.0
 48
0.0
 49
0.0
140
0.0
141
0.0
142
1.0
143
1.1024374671
 70
   688
 72
     0
 73
     1
 74
     1
  7

 75
     0
147
0.9070809274
148
139.7
149
25.4
100
AcDbLayout
  1
_Right
 70
     1
 71
     4
 10
0.0
 20
0.0
 11
0.0
 21
0.0
 12
0.0
 22
0.0
 32
0.0
 14
0.0
 24
0.0
 34
0.0
 15
0.0
 25
0.0
 35
0.0
146
0.0
 13
0.0
 23
0.0
 33
0.0
 16
1.0
 26
0.0
 36
0.0
 17
0.0
 27
1.0
 37
0.0
 76
     0
330
278
331
65B
  0
LAYOUT
  5
2A2
102
{ACAD_REACTORS
330
1A
102
}
330
1A
100
AcDbPlotSettings
  1

  2
none_device
  4
Letter_(8.50_x_11.00_Inches)
  6

 40
6.35
 41
6.35
 42
6.35001
 43
6.35001
 44
215.9
 45
279.4
 46
0.0
 47
0.0
 48
0.0
 49
0.0
140
0.0
141
0.0
142
1.0
143
1.1024374671
 70
   688
 72
     0
 73
     1
 74
     1
  7

 75
     0
147
0.9070809274
148
139.7
149
25.4
100
AcDbLayout
  1
_Top
 70
     1
 71
     5
 10
0.0
 20
0.0
 11
0.0
 21
0.0
 12
0.0
 22
0.0
 32
0.0
 14
0.0
 24
0.0
 34
0.0
 15
0.0
 25
0.0
 35
0.0
146
0.0
 13
0.0
 23
0.0
 33
0.0
 16
1.0
 26
0.0
 36
0.0
 17
0.0
 27
1.0
 37
0.0
 76
     0
330
2A1
331
65D
  0
LAYOUT
  5
489
102
{ACAD_REACTORS
330
1A
102
}
330
1A
100
AcDbPlotSettings
  1

  2
none_device
  4
Letter_(8.50_x_11.00_Inches)
  6

 40
6.35
 41
6.35
 42
6.35001
 43
6.35001
 44
215.9
 45
279.4
 46
0.0
 47
0.0
 48
0.0
 49
0.0
140
0.0
141
0.0
142
1.0
143
1.1024374671
 70
   688
 72
     0
 73
     1
 74
     1
  7

 75
     0
147
0.9070809274
148
139.7
149
25.4
100
AcDbLayout
  1
_Trimetric
 70
     1
 71
     8
 10
0.0
 20
0.0
 11
0.0
 21
0.0
 12
0.0
 22
0.0
 32
0.0
 14
0.0
 24
0.0
 34
0.0
 15
0.0
 25
0.0
 35
0.0
146
0.0
 13
0.0
 23
0.0
 33
0.0
 16
1.0
 26
0.0
 36
0.0
 17
0.0
 27
1.0
 37
0.0
 76
     0
330
488
331
663
  0
LAYOUT
  5
22
102
{ACAD_REACTORS
330
1A
102
}
330
1A
100
AcDbPlotSettings
  1

  2
none_device
  4
ANSI_A_(11.00_x_8.50_Inches)
  6

 40
6.35
 41
19.05
 42
6.35000508
 43
19.05000254
 44
279.4
 45
215.9
 46
133.8618668871
 47
85.9632650066
 48
0.0
 49
0.0
140
0.0
141
0.0
142
0.6506123795
143
1.0
 70
  1696
 72
     0
 73
     0
 74
     0
  7

 75
     0
147
0.5913241897
148
-39.4088153714
149
0.0
100
AcDbLayout
  1
Model
 70
     1
 71
     0
 10
0.0
 20
0.0
 11
12.0
 21
9.0
 12
0.0
 22
0.0
 32
0.0
 14
-8.4000128372
 24
-5.8033868673
 34
0.0
 15
8.3380640016
 25
6.1588041375
 35
0.0
146
0.0
 13
0.0
 23
0.0
 33
0.0
 16
1.0
 26
0.0
 36
0.0
 17
0.0
 27
1.0
 37
0.0
 76
     0
330
1F
331
29
  0
MLINESTYLE
  5
18
102
{ACAD_REACTORS
330
17
102
}
330
17
100
AcDbMlineStyle
  2
Standard
 70
     0
  3

 62
   256
 51
90.0
 52
90.0
 71
     2
 49
0.5
 62
   256
  6
BYLAYER
 49
-0.5
 62
   256
  6
BYLAYER
  0
ACDBPLACEHOLDER
  5
F
102
{ACAD_REACTORS
330
E
102
}
330
E
  0
SCALE
  5
48
102
{ACAD_REACTORS
330
47
102
}
330
47
100
AcDbScale
 70
     0
300
1:1
140
1.0
141
1.0
290
     1
  0
SCALE
  5
49
102
{ACAD_REACTORS
330
47
102
}
330
47
100
AcDbScale
 70
     0
300
1:2
140
1.0
141
2.0
290
     0
  0
SCALE
  5
4A
102
{ACAD_REACTORS
330
47
102
}
330
47
100
AcDbScale
 70
     0
300
1:4
140
1.0
141
4.0
290
     0
  0
SCALE
  5
4B
102
{ACAD_REACTORS
330
47
102
}
330
47
100
AcDbScale
 70
     0
300
1:5
140
1.0
141
5.0
290
     0
  0
SCALE
  5
4C
102
{ACAD_REACTORS
330
47
102
}
330
47
100
AcDbScale
 70
     0
300
1:8
140
1.0
141
8.0
290
     0
  0
SCALE
  5
4D
102
{ACAD_REACTORS
330
47
102
}
330
47
100
AcDbScale
 70
     0
300
1:10
140
1.0
141
10.0
290
     0
  0
SCALE
  5
4E
102
{ACAD_REACTORS
330
47
102
}
330
47
100
AcDbScale
 70
     0
300
1:16
140
1.0
141
16.0
290
     0
  0
SCALE
  5
4F
102
{ACAD_REACTORS
330
47
102
}
330
47
100
AcDbScale
 70
     0
300
1:20
140
1.0
141
20.0
290
     0
  0
SCALE
  5
50
102
{ACAD_REACTORS
330
47
102
}
330
47
100
AcDbScale
 70
     0
300
1:30
140
1.0
141
30.0
290
     0
  0
SCALE
  5
51
102
{ACAD_REACTORS
330
47
102
}
330
47
100
AcDbScale
 70
     0
300
1:40
140
1.0
141
40.0
290
     0
  0
SCALE
  5
52
102
{ACAD_REACTORS
330
47
102
}
330
47
100
AcDbScale
 70
     0
300
1:50
140
1.0
141
50.0
290
     0
  0
SCALE
  5
53
102
{ACAD_REACTORS
330
47
102
}
330
47
100
AcDbScale
 70
     0
300
1:100
140
1.0
141
100.0
290
     0
  0
SCALE
  5
54
102
{ACAD_REACTORS
330
47
102
}
330
47
100
AcDbScale
 70
     0
300
2:1
140
2.0
141
1.0
290
     0
  0
SCALE
  5
55
102
{ACAD_REACTORS
330
47
102
}
330
47
100
AcDbScale
 70
     0
300
4:1
140
4.0
141
1.0
290
     0
  0
SCALE
  5
56
102
{ACAD_REACTORS
330
47
102
}
330
47
100
AcDbScale
 70
     0
300
8:1
140
8.0
141
1.0
290
     0
  0
SCALE
  5
57
102
{ACAD_REACTORS
330
47
102
}
330
47
100
AcDbScale
 70
     0
300
10:1
140
10.0
141
1.0
290
     0
  0
SCALE
  5
58
102
{ACAD_REACTORS
330
47
102
}
330
47
100
AcDbScale
 70
     0
300
100:1
140
100.0
141
1.0
290
     0
  0
SCALE
  5
59
102
{ACAD_REACTORS
330
47
102
}
330
47
100
AcDbScale
 70
     0
300
1/128" = 1'-0"
140
0.0078125
141
12.0
290
     0
  0
SCALE
  5
5A
102
{ACAD_REACTORS
330
47
102
}
330
47
100
AcDbScale
 70
     0
300
1/64" = 1'-0"
140
0.015625
141
12.0
290
     0
  0
SCALE
  5
5B
102
{ACAD_REACTORS
330
47
102
}
330
47
100
AcDbScale
 70
     0
300
1/32" = 1'-0"
140
0.03125
141
12.0
290
     0
  0
SCALE
  5
5C
102
{ACAD_REACTORS
330
47
102
}
330
47
100
AcDbScale
 70
     0
300
1/16" = 1'-0"
140
0.0625
141
12.0
290
     0
  0
SCALE
  5
5D
102
{ACAD_REACTORS
330
47
102
}
330
47
100
AcDbScale
 70
     0
300
3/32" = 1'-0"
140
0.09375
141
12.0
290
     0
  0
SCALE
  5
5E
102
{ACAD_REACTORS
330
47
102
}
330
47
100
AcDbScale
 70
     0
300
1/8" = 1'-0"
140
0.125
141
12.0
290
     0
  0
SCALE
  5
5F
102
{ACAD_REACTORS
330
47
102
}
330
47
100
AcDbScale
 70
     0
300
3/16" = 1'-0"
140
0.1875
141
12.0
290
     0
  0
SCALE
  5
60
102
{ACAD_REACTORS
330
47
102
}
330
47
100
AcDbScale
 70
     0
300
1/4" = 1'-0"
140
0.25
141
12.0
290
     0
  0
SCALE
  5
61
102
{ACAD_REACTORS
330
47
102
}
330
47
100
AcDbScale
 70
     0
300
3/8" = 1'-0"
140
0.375
141
12.0
290
     0
  0
SCALE
  5
62
102
{ACAD_REACTORS
330
47
102
}
330
47
100
AcDbScale
 70
     0
300
1/2" = 1'-0"
140
0.5
141
12.0
290
     0
  0
SCALE
  5
63
102
{ACAD_REACTORS
330
47
102
}
330
47
100
AcDbScale
 70
     0
300
3/4" = 1'-0"
140
0.75
141
12.0
290
     0
  0
SCALE
  5
64
102
{ACAD_REACTORS
330
47
102
}
330
47
100
AcDbScale
 70
     0
300
1" = 1'-0"
140
1.0
141
12.0
290
     0
  0
SCALE
  5
65
102
{ACAD_REACTORS
330
47
102
}
330
47
100
AcDbScale
 70
     0
300
1-1/2" = 1'-0"
140
1.5
141
12.0
290
     0
  0
SCALE
  5
66
102
{ACAD_REACTORS
330
47
102
}
330
47
100
AcDbScale
 70
     0
300
3" = 1'-0"
140
3.0
141
12.0
290
     0
  0
SCALE
  5
67
102
{ACAD_REACTORS
330
47
102
}
330
47
100
AcDbScale
 70
     0
300
6" = 1'-0"
140
6.0
141
12.0
290
     0
  0
SCALE
  5
68
102
{ACAD_REACTORS
330
47
102
}
330
47
100
AcDbScale
 70
     0
300
1'-0" = 1'-0"
140
12.0
141
12.0
290
     0
  0
ENDSEC
  0
EOF
