  0
SECTION
  2
HEADER
  9
$ACADVER
  1
AC1015
  9
$ACADMAINTVER
 70
     6
  9
$DWGCODEPAGE
  3
ANSI_1252
  9
$INSBASE
 10
0.0
 20
0.0
 30
0.0
  9
$EXTMIN
 10
-2.863749482
 20
-2.1397131551
 30
0.0
  9
$EXTMAX
 10
2.6115178108
 20
1.8927163591
 30
0.0
  9
$LIMMIN
 10
0.0
 20
0.0
  9
$LIMMAX
 10
12.0
 20
9.0
  9
$ORTHOMODE
 70
     0
  9
$REGENMODE
 70
     1
  9
$FILLMODE
 70
     1
  9
$QTEXTMODE
 70
     0
  9
$MIRRTEXT
 70
     1
  9
$LTSCALE
 40
1.0
  9
$ATTMODE
 70
     1
  9
$TEXTSIZE
 40
0.1377952756
  9
$TRACEWID
 40
0.05
  9
$TEXTSTYLE
  7
Standard
  9
$CLAYER
  8
0
  9
$CELTYPE
  6
ByLayer
  9
$CECOLOR
 62
   256
  9
$CELTSCALE
 40
1.0
  9
$DISPSILH
 70
     0
  9
$DIMSCALE
 40
1.0
  9
$DIMASZ
 40
0.13
  9
$DIMEXO
 40
0.0
  9
$DIMDLI
 40
0.38
  9
$DIMRND
 40
0.0
  9
$DIMDLE
 40
0.0
  9
$DIMEXE
 40
0.125
  9
$DIMTP
 40
0.0
  9
$DIMTM
 40
0.0
  9
$DIMTXT
 40
0.1377952756
  9
$DIMCEN
 40
0.09
  9
$DIMTSZ
 40
0.0
  9
$DIMTOL
 70
     0
  9
$DIMLIM
 70
     0
  9
$DIMTIH
 70
     1
  9
$DIMTOH
 70
     1
  9
$DIMSE1
 70
     0
  9
$DIMSE2
 70
     0
  9
$DIMTAD
 70
     1
  9
$DIMZIN
 70
     1
  9
$DIMBLK
  1

  9
$DIMASO
 70
     1
  9
$DIMSHO
 70
     1
  9
$DIMPOST
  1

  9
$DIMAPOST
  1

  9
$DIMALT
 70
     0
  9
$DIMALTD
 70
     2
  9
$DIMALTF
 40
25.4
  9
$DIMLFAC
 40
1.0
  9
$DIMTOFL
 70
     0
  9
$DIMTVP
 40
0.0
  9
$DIMTIX
 70
     0
  9
$DIMSOXD
 70
     0
  9
$DIMSAH
 70
     0
  9
$DIMBLK1
  1

  9
$DIMBLK2
  1

  9
$DIMSTYLE
  2
Standard
  9
$DIMCLRD
 70
     0
  9
$DIMCLRE
 70
     0
  9
$DIMCLRT
 70
     0
  9
$DIMTFAC
 40
1.0
  9
$DIMGAP
 40
0.06
  9
$DIMJUST
 70
     0
  9
$DIMSD1
 70
     0
  9
$DIMSD2
 70
     0
  9
$DIMTOLJ
 70
     1
  9
$DIMTZIN
 70
     1
  9
$DIMALTZ
 70
     0
  9
$DIMALTTZ
 70
     0
  9
$DIMUPT
 70
     0
  9
$DIMDEC
 70
     2
  9
$DIMTDEC
 70
     2
  9
$DIMALTU
 70
     2
  9
$DIMALTTD
 70
     2
  9
$DIMTXSTY
  7
Standard
  9
$DIMAUNIT
 70
     0
  9
$DIMADEC
 70
     2
  9
$DIMALTRND
 40
0.0
  9
$DIMAZIN
 70
     0
  9
$DIMDSEP
 70
    46
  9
$DIMATFIT
 70
     3
  9
$DIMFRAC
 70
     0
  9
$DIMLDRBLK
  1

  9
$DIMLUNIT
 70
     2
  9
$DIMLWD
 70
    -2
  9
$DIMLWE
 70
    -2
  9
$DIMTMOVE
 70
     0
  9
$LUNITS
 70
     2
  9
$LUPREC
 70
     2
  9
$SKETCHINC
 40
0.1
  9
$FILLETRAD
 40
0.5
  9
$AUNITS
 70
     0
  9
$AUPREC
 70
     2
  9
$MENU
  1
.
  9
$ELEVATION
 40
0.0
  9
$PELEVATION
 40
0.0
  9
$THICKNESS
 40
0.0
  9
$LIMCHECK
 70
     0
  9
$CHAMFERA
 40
0.0
  9
$CHAMFERB
 40
0.0
  9
$CHAMFERC
 40
0.0
  9
$CHAMFERD
 40
0.0
  9
$SKPOLY
 70
     0
  9
$TDCREATE
 40
2460952.437129317
  9
$TDUCREATE
 40
2460952.603795984
  9
$TDUPDATE
 40
2460952.437161123
  9
$TDUUPDATE
 40
2460952.603827789
  9
$TDINDWG
 40
0.0000000116
  9
$TDUSRTIMER
 40
0.0000000116
  9
$USRTIMER
 70
     1
  9
$ANGBASE
 50
0.0
  9
$ANGDIR
 70
     0
  9
$PDMODE
 70
     0
  9
$PDSIZE
 40
-1.0
  9
$PLINEWID
 40
0.0
  9
$SPLFRAME
 70
     0
  9
$SPLINETYPE
 70
     6
  9
$SPLINESEGS
 70
     8
  9
$HANDSEED
  5
63D
  9
$SURFTAB1
 70
     6
  9
$SURFTAB2
 70
     6
  9
$SURFTYPE
 70
     6
  9
$SURFU
 70
     6
  9
$SURFV
 70
     6
  9
$UCSBASE
  2

  9
$UCSNAME
  2

  9
$UCSORG
 10
0.0
 20
0.0
 30
0.0
  9
$UCSXDIR
 10
1.0
 20
0.0
 30
0.0
  9
$UCSYDIR
 10
0.0
 20
1.0
 30
0.0
  9
$UCSORTHOREF
  2

  9
$UCSORTHOVIEW
 70
     0
  9
$UCSORGTOP
 10
0.0
 20
0.0
 30
0.0
  9
$UCSORGBOTTOM
 10
0.0
 20
0.0
 30
0.0
  9
$UCSORGLEFT
 10
0.0
 20
0.0
 30
0.0
  9
$UCSORGRIGHT
 10
0.0
 20
0.0
 30
0.0
  9
$UCSORGFRONT
 10
0.0
 20
0.0
 30
0.0
  9
$UCSORGBACK
 10
0.0
 20
0.0
 30
0.0
  9
$PUCSBASE
  2

  9
$PUCSNAME
  2

  9
$PUCSORG
 10
0.0
 20
0.0
 30
0.0
  9
$PUCSXDIR
 10
1.0
 20
0.0
 30
0.0
  9
$PUCSYDIR
 10
0.0
 20
1.0
 30
0.0
  9
$PUCSORTHOREF
  2

  9
$PUCSORTHOVIEW
 70
     0
  9
$PUCSORGTOP
 10
0.0
 20
0.0
 30
0.0
  9
$PUCSORGBOTTOM
 10
0.0
 20
0.0
 30
0.0
  9
$PUCSORGLEFT
 10
0.0
 20
0.0
 30
0.0
  9
$PUCSORGRIGHT
 10
0.0
 20
0.0
 30
0.0
  9
$PUCSORGFRONT
 10
0.0
 20
0.0
 30
0.0
  9
$PUCSORGBACK
 10
0.0
 20
0.0
 30
0.0
  9
$USERI1
 70
     0
  9
$USERI2
 70
     0
  9
$USERI3
 70
     0
  9
$USERI4
 70
     0
  9
$USERI5
 70
     0
  9
$USERR1
 40
0.0
  9
$USERR2
 40
0.0
  9
$USERR3
 40
0.0
  9
$USERR4
 40
0.0
  9
$USERR5
 40
0.0
  9
$WORLDVIEW
 70
     1
  9
$SHADEDGE
 70
     3
  9
$SHADEDIF
 70
    70
  9
$TILEMODE
 70
     1
  9
$MAXACTVP
 70
    64
  9
$PINSBASE
 10
0.0
 20
0.0
 30
0.0
  9
$PLIMCHECK
 70
     0
  9
$PEXTMIN
 10
-2.9527559055
 20
-1.4173228346
 30
0.0
  9
$PEXTMAX
 10
2.9527559055
 20
1.4173228346
 30
0.0
  9
$PLIMMIN
 10
-3.0933635563
 20
-1.557930264
  9
$PLIMMAX
 10
3.0933633349
 20
3.2227223337
  9
$UNITMODE
 70
     0
  9
$VISRETAIN
 70
     1
  9
$PLINEGEN
 70
     0
  9
$PSLTSCALE
 70
     1
  9
$TREEDEPTH
 70
  3020
  9
$CMLSTYLE
  2
Standard
  9
$CMLJUST
 70
     0
  9
$CMLSCALE
 40
1.0
  9
$PROXYGRAPHICS
 70
     1
  9
$MEASUREMENT
 70
     0
  9
$CELWEIGHT
370
    -1
  9
$ENDCAPS
280
     0
  9
$JOINSTYLE
280
     0
  9
$LWDISPLAY
290
     1
  9
$INSUNITS
 70
     1
  9
$HYPERLINKBASE
  1

  9
$STYLESHEET
  1

  9
$XEDIT
290
     1
  9
$CEPSNTYPE
380
     0
  9
$PSTYLEMODE
290
     1
  9
$FINGERPRINTGUID
  2
{2a49ba38-1537-4603-8ba4-50a7861da5c2}
  9
$VERSIONGUID
  2
{FAEB1C32-E019-11D5-929B-00C0DF256EC4}
  9
$EXTNAMES
290
     1
  9
$PSVPSCALE
 40
0.0
  9
$OLESTARTUP
290
     0
  0
ENDSEC
  0
SECTION
  2
CLASSES
  0
CLASS
  1
ACDBDICTIONARYWDFLT
  2
AcDbDictionaryWithDefault
  3
ObjectDBX Classes
 90
        0
280
     0
281
     0
  0
CLASS
  1
VISUALSTYLE
  2
AcDbVisualStyle
  3
ObjectDBX Classes
 90
     4095
280
     0
281
     0
  0
CLASS
  1
MATERIAL
  2
AcDbMaterial
  3
ObjectDBX Classes
 90
     1153
280
     0
281
     0
  0
CLASS
  1
SCALE
  2
AcDbScale
  3
ObjectDBX Classes
 90
     1153
280
     0
281
     0
  0
CLASS
  1
TABLESTYLE
  2
AcDbTableStyle
  3
ObjectDBX Classes
 90
     4095
280
     0
281
     0
  0
CLASS
  1
MLEADERSTYLE
  2
AcDbMLeaderStyle
  3
ACDB_MLEADERSTYLE_CLASS
 90
     4095
280
     0
281
     0
  0
CLASS
  1
SUN
  2
AcDbSun
  3
SCENEOE
 90
     1153
280
     0
281
     0
  0
CLASS
  1
ACDBPLACEHOLDER
  2
AcDbPlaceHolder
  3
ObjectDBX Classes
 90
        0
280
     0
281
     0
  0
CLASS
  1
LAYOUT
  2
AcDbLayout
  3
ObjectDBX Classes
 90
        0
280
     0
281
     0
  0
ENDSEC
  0
SECTION
  2
TABLES
  0
TABLE
  2
VPORT
  5
8
330
0
100
AcDbSymbolTable
 70
     1
  0
VPORT
  5
29
330
8
100
AcDbSymbolTableRecord
100
AcDbViewportTableRecord
  2
*Active
 70
     0
 10
0.0
 20
0.0
 11
1.0
 21
1.0
 12
-0.1261158356
 22
-0.123498398
 13
0.0
 23
0.0
 14
0.5
 24
0.5
 15
0.5
 25
0.5
 16
0.0
 26
0.0
 36
1.0
 17
0.0
 27
0.0
 37
0.0
 40
4.1130781045
 41
1.3578085552
 42
50.0
 43
0.0
 44
0.0
 50
0.0
 51
0.0
 71
     0
 72
   100
 73
     1
 74
     3
 75
     0
 76
     0
 77
     0
 78
     0
281
     0
 65
     1
110
0.0
120
0.0
130
0.0
111
1.0
121
0.0
131
0.0
112
0.0
122
1.0
132
0.0
 79
     0
146
0.0
  0
ENDTAB
  0
TABLE
  2
LTYPE
  5
5
330
0
100
AcDbSymbolTable
 70
     6
  0
LTYPE
  5
14
330
5
100
AcDbSymbolTableRecord
100
AcDbLinetypeTableRecord
  2
ByBlock
 70
     0
  3

 72
    65
 73
     0
 40
0.0
  0
LTYPE
  5
15
330
5
100
AcDbSymbolTableRecord
100
AcDbLinetypeTableRecord
  2
ByLayer
 70
     0
  3

 72
    65
 73
     0
 40
0.0
  0
LTYPE
  5
16
330
5
100
AcDbSymbolTableRecord
100
AcDbLinetypeTableRecord
  2
Continuous
 70
     0
  3
Solid line
 72
    65
 73
     0
 40
0.0
  0
LTYPE
  5
6E
330
5
100
AcDbSymbolTableRecord
100
AcDbLinetypeTableRecord
  2
HIDDEN
 70
     0
  3
Hidden __ __ __ __ __ __ __ __ __ __ __ __ __ __
 72
    65
 73
     2
 40
0.075
 49
0.05
 74
     0
 49
-0.025
 74
     0
  0
LTYPE
  5
6F
330
5
100
AcDbSymbolTableRecord
100
AcDbLinetypeTableRecord
  2
PHANTOM
 70
     0
  3
Phantom ______  __  __  ______  __  __  ______
 72
    65
 73
     6
 40
0.5
 49
0.25
 74
     0
 49
-0.05
 74
     0
 49
0.05
 74
     0
 49
-0.05
 74
     0
 49
0.05
 74
     0
 49
-0.05
 74
     0
  0
LTYPE
  5
70
330
5
100
AcDbSymbolTableRecord
100
AcDbLinetypeTableRecord
  2
CENTER
 70
     0
  3
Center ____ _ ____ _ ____ _ ____ _ ____ _ ____
 72
    65
 73
     4
 40
0.4
 49
0.25
 74
     0
 49
-0.05
 74
     0
 49
0.05
 74
     0
 49
-0.05
 74
     0
  0
LTYPE
  5
71
330
5
100
AcDbSymbolTableRecord
100
AcDbLinetypeTableRecord
  2
CENTERX2
 70
     0
  3
Center (2x) ________  __  ________  __  _____
 72
    65
 73
     4
 40
0.8
 49
0.5
 74
     0
 49
-0.1
 74
     0
 49
0.1
 74
     0
 49
-0.1
 74
     0
  0
LTYPE
  5
72
330
5
100
AcDbSymbolTableRecord
100
AcDbLinetypeTableRecord
  2
DOT2
 70
     0
  3
Dot (.5x) ........................................
 72
    65
 73
     2
 40
0.025
 49
0.0
 74
     0
 49
-0.025
 74
     0
  0
ENDTAB
  0
TABLE
  2
LAYER
  5
2
330
0
100
AcDbSymbolTable
 70
     1
  0
LAYER
  5
10
330
2
100
AcDbSymbolTableRecord
100
AcDbLayerTableRecord
  2
0
 70
     0
 62
     7
  6
Continuous
370
    -3
390
F
  0
ENDTAB
  0
TABLE
  2
STYLE
  5
3
330
0
100
AcDbSymbolTable
 70
     1
  0
STYLE
  5
11
330
3
100
AcDbSymbolTableRecord
100
AcDbTextStyleTableRecord
  2
Standard
 70
     0
 40
0.0
 41
1.0
 50
0.0
 71
     0
 42
0.1377952756
  3
txt
  4

  0
ENDTAB
  0
TABLE
  2
VIEW
  5
6
330
0
100
AcDbSymbolTable
 70
     0
  0
ENDTAB
  0
TABLE
  2
UCS
  5
7
330
0
100
AcDbSymbolTable
 70
     0
  0
ENDTAB
  0
TABLE
  2
APPID
  5
9
330
0
100
AcDbSymbolTable
 70
     1
  0
APPID
  5
12
330
9
100
AcDbSymbolTableRecord
100
AcDbRegAppTableRecord
  2
ACAD
 70
     0
  0
ENDTAB
  0
TABLE
  2
DIMSTYLE
  5
A
330
0
100
AcDbSymbolTable
 70
     1
100
AcDbDimStyleTable
  0
DIMSTYLE
105
27
330
A
100
AcDbSymbolTableRecord
100
AcDbDimStyleTableRecord
  2
Standard
 70
     0
178
     0
340
11
  0
ENDTAB
  0
TABLE
  2
BLOCK_RECORD
  5
1
330
0
100
AcDbSymbolTable
 70
     8
  0
BLOCK_RECORD
  5
1F
330
1
100
AcDbSymbolTableRecord
100
AcDbBlockTableRecord
  2
*Model_Space
340
22
  0
BLOCK_RECORD
  5
1B
330
1
100
AcDbSymbolTableRecord
100
AcDbBlockTableRecord
  2
*Paper_Space
340
1E
  0
BLOCK_RECORD
  5
23
330
1
100
AcDbSymbolTableRecord
100
AcDbBlockTableRecord
  2
*Paper_Space0
340
26
  0
BLOCK_RECORD
  5
231
330
1
100
AcDbSymbolTableRecord
100
AcDbBlockTableRecord
  2
*Paper_Space1
340
232
  0
BLOCK_RECORD
  5
260
330
1
100
AcDbSymbolTableRecord
100
AcDbBlockTableRecord
  2
*Paper_Space2
340
261
  0
BLOCK_RECORD
  5
28F
330
1
100
AcDbSymbolTableRecord
100
AcDbBlockTableRecord
  2
*Paper_Space3
340
290
  0
BLOCK_RECORD
  5
2B8
330
1
100
AcDbSymbolTableRecord
100
AcDbBlockTableRecord
  2
*Paper_Space4
340
2B9
  0
BLOCK_RECORD
  5
2E1
330
1
100
AcDbSymbolTableRecord
100
AcDbBlockTableRecord
  2
*Paper_Space5
340
2E2
  0
BLOCK_RECORD
  5
3E5
330
1
100
AcDbSymbolTableRecord
100
AcDbBlockTableRecord
  2
*Paper_Space6
340
3E6
  0
BLOCK_RECORD
  5
50A
330
1
100
AcDbSymbolTableRecord
100
AcDbBlockTableRecord
  2
*Paper_Space7
340
50B
  0
ENDTAB
  0
ENDSEC
  0
SECTION
  2
BLOCKS
  0
BLOCK
  5
20
330
1F
100
AcDbEntity
  8
0
100
AcDbBlockBegin
  2
*Model_Space
 70
     0
 10
0.0
 20
0.0
 30
0.0
  3
*Model_Space
  1

  0
ENDBLK
  5
21
330
1F
100
AcDbEntity
  8
0
100
AcDbBlockEnd
  0
BLOCK
  5
1C
330
1B
100
AcDbEntity
 67
     1
  8
0
100
AcDbBlockBegin
  2
*Paper_Space
 70
     0
 10
0.0
 20
0.0
 30
0.0
  3
*Paper_Space
  1

  0
ENDBLK
  5
1D
330
1B
100
AcDbEntity
 67
     1
  8
0
100
AcDbBlockEnd
  0
BLOCK
  5
24
330
23
100
AcDbEntity
  8
0
100
AcDbBlockBegin
  2
*Paper_Space0
 70
     0
 10
0.0
 20
0.0
 30
0.0
  3
*Paper_Space0
  1

  0
LINE
  5
229
330
23
100
AcDbEntity
  8
0
  6
Continuous
 62
     7
370
    25
100
AcDbLine
 10
-2.7952755906
 20
1.4173228346
 30
0.0
 11
2.7952755906
 21
1.4173228346
 31
0.0
  0
LINE
  5
22A
330
23
100
AcDbEntity
  8
0
  6
Continuous
 62
     7
370
    25
100
AcDbLine
 10
2.9527559055
 20
1.2598425197
 30
0.0
 11
2.9527559055
 21
-1.2598425197
 31
0.0
  0
LINE
  5
22B
330
23
100
AcDbEntity
  8
0
  6
Continuous
 62
     7
370
    25
100
AcDbLine
 10
2.7952755906
 20
-1.4173228346
 30
0.0
 11
-2.7952755906
 21
-1.4173228346
 31
0.0
  0
LINE
  5
22C
330
23
100
AcDbEntity
  8
0
  6
Continuous
 62
     7
370
    25
100
AcDbLine
 10
-2.9527559055
 20
-1.2598425197
 30
0.0
 11
-2.9527559055
 21
1.2598425197
 31
0.0
  0
ARC
  5
22D
330
23
100
AcDbEntity
  8
0
  6
Continuous
 62
     7
370
    25
100
AcDbCircle
 10
2.7952755906
 20
1.2598425197
 30
0.0
 40
0.1574803149606305
100
AcDbArc
 50
0.0
 51
90.0
  0
ARC
  5
22E
330
23
100
AcDbEntity
  8
0
  6
Continuous
 62
     7
370
    25
100
AcDbCircle
 10
2.7952755906
 20
-1.2598425197
 30
0.0
 40
0.1574803149606299
100
AcDbArc
 50
270.0
 51
0.0
  0
ARC
  5
22F
330
23
100
AcDbEntity
  8
0
  6
Continuous
 62
     7
370
    25
100
AcDbCircle
 10
-2.7952755906
 20
1.2598425197
 30
0.0
 40
0.1574803149606299
100
AcDbArc
 50
90.0
 51
180.0
  0
ARC
  5
230
330
23
100
AcDbEntity
  8
0
  6
Continuous
 62
     7
370
    25
100
AcDbCircle
 10
-2.7952755906
 20
-1.2598425197
 30
0.0
 40
0.1574803149606305
100
AcDbArc
 50
180.0
 51
270.0
  0
VIEWPORT
  5
62C
330
23
100
AcDbEntity
  8
0
100
AcDbViewport
 10
0.0
 20
0.0
 30
0.0
 40
8.4
 41
6.4
 68
     1
 69
     1
 12
-0.1261158356
 22
-0.123498398
 13
0.0
 23
0.0
 14
0.5
 24
0.5
 15
0.5
 25
0.5
 16
0.0
 26
0.0
 36
1.0
 17
0.0
 27
0.0
 37
0.0
 42
50.0
 43
0.0
 44
0.0
 45
4.2550648675
 50
0.0
 51
0.0
 72
   100
 90
   557152
  1

281
     0
 71
     1
 74
     0
110
0.0
120
0.0
130
0.0
111
1.0
121
0.0
131
0.0
112
0.0
122
1.0
132
0.0
 79
     0
146
0.0
  0
ENDBLK
  5
25
330
23
100
AcDbEntity
  8
0
100
AcDbBlockEnd
  0
BLOCK
  5
233
330
231
100
AcDbEntity
  8
0
100
AcDbBlockBegin
  2
*Paper_Space1
 70
     0
 10
0.0
 20
0.0
 30
0.0
  3
*Paper_Space1
  1

  0
LINE
  5
254
330
231
100
AcDbEntity
  8
0
  6
Continuous
 62
     7
370
    25
100
AcDbLine
 10
0.5405511811
 20
1.4173228346
 30
0.0
 11
0.0
 21
1.4173228346
 31
0.0
  0
LINE
  5
255
330
231
100
AcDbEntity
  8
0
  6
Continuous
 62
     7
370
    25
100
AcDbLine
 10
0.5905511811
 20
1.2598425197
 30
0.0
 11
0.0
 21
1.2598425197
 31
0.0
  0
LINE
  5
256
330
231
100
AcDbEntity
  8
0
  6
Continuous
 62
     7
370
    25
100
AcDbLine
 10
0.5905511811
 20
-1.2598425197
 30
0.0
 11
0.0
 21
-1.2598425197
 31
0.0
  0
LINE
  5
257
330
231
100
AcDbEntity
  8
0
  6
Continuous
 62
     7
370
    25
100
AcDbLine
 10
0.5405511811
 20
-1.4173228346
 30
0.0
 11
0.5405511811
 21
1.4173228346
 31
0.0
  0
LINE
  5
258
330
231
100
AcDbEntity
  8
0
  6
Continuous
 62
     7
370
    25
100
AcDbLine
 10
0.5405511811
 20
-1.4173228346
 30
0.0
 11
0.0
 21
-1.4173228346
 31
0.0
  0
LINE
  5
259
330
231
100
AcDbEntity
  8
0
  6
Continuous
 62
     7
370
    25
100
AcDbLine
 10
0.15
 20
-1.4173228346
 30
0.0
 11
0.15
 21
1.4173228346
 31
0.0
  0
LINE
  5
25A
330
231
100
AcDbEntity
  8
0
  6
Continuous
 62
     7
370
    25
100
AcDbLine
 10
0.5905511811
 20
1.3673228346
 30
0.0
 11
0.5905511811
 21
-1.3673228346
 31
0.0
  0
LINE
  5
25B
330
231
100
AcDbEntity
  8
0
  6
Continuous
 62
     7
370
    25
100
AcDbLine
 10
0.5405511811
 20
1.4173228346
 30
0.0
 11
0.5905511811
 21
1.3673228346
 31
0.0
  0
LINE
  5
25C
330
231
100
AcDbEntity
  8
0
  6
Continuous
 62
     7
370
    25
100
AcDbLine
 10
0.5905511811
 20
-1.3673228346
 30
0.0
 11
0.5405511811
 21
-1.4173228346
 31
0.0
  0
LINE
  5
25D
330
231
100
AcDbEntity
  8
0
  6
Continuous
 62
     7
370
    25
100
AcDbLine
 10
0.4232283465
 20
0.0
 30
0.0
 11
0.2578740157
 21
0.0
 31
0.0
  0
LINE
  5
25E
330
231
100
AcDbEntity
  8
0
  6
Continuous
 62
     7
370
    25
100
AcDbLine
 10
0.0
 20
1.4173228346
 30
0.0
 11
0.0
 21
-1.4173228346
 31
0.0
  0
ARC
  5
25F
330
231
100
AcDbEntity
  8
0
  6
Continuous
 62
     7
370
    25
100
AcDbCircle
 10
0.3405511811
 20
0.0
 30
0.0
 40
0.0826771653543307
100
AcDbArc
 50
180.0
 51
0.0
  0
VIEWPORT
  5
62E
330
231
100
AcDbEntity
  8
0
100
AcDbViewport
 10
0.0
 20
0.0
 30
0.0
 40
8.4
 41
6.4
 68
     1
 69
     1
 12
-0.1261158356
 22
-0.123498398
 13
0.0
 23
0.0
 14
0.5
 24
0.5
 15
0.5
 25
0.5
 16
0.0
 26
0.0
 36
1.0
 17
0.0
 27
0.0
 37
0.0
 42
50.0
 43
0.0
 44
0.0
 45
4.2550648675
 50
0.0
 51
0.0
 72
   100
 90
   557152
  1

281
     0
 71
     1
 74
     0
110
0.0
120
0.0
130
0.0
111
1.0
121
0.0
131
0.0
112
0.0
122
1.0
132
0.0
 79
     0
146
0.0
  0
ENDBLK
  5
234
330
231
100
AcDbEntity
  8
0
100
AcDbBlockEnd
  0
BLOCK
  5
262
330
260
100
AcDbEntity
  8
0
100
AcDbBlockBegin
  2
*Paper_Space2
 70
     0
 10
0.0
 20
0.0
 30
0.0
  3
*Paper_Space2
  1

  0
LINE
  5
283
330
260
100
AcDbEntity
  8
0
  6
Continuous
 62
     7
370
    25
100
AcDbLine
 10
-0.5405511811
 20
-1.4173228346
 30
0.0
 11
0.0
 21
-1.4173228346
 31
0.0
  0
LINE
  5
284
330
260
100
AcDbEntity
  8
0
  6
Continuous
 62
     7
370
    25
100
AcDbLine
 10
-0.5905511811
 20
-1.2598425197
 30
0.0
 11
0.0
 21
-1.2598425197
 31
0.0
  0
LINE
  5
285
330
260
100
AcDbEntity
  8
0
  6
Continuous
 62
     7
370
    25
100
AcDbLine
 10
-0.5905511811
 20
1.2598425197
 30
0.0
 11
0.0
 21
1.2598425197
 31
0.0
  0
LINE
  5
286
330
260
100
AcDbEntity
  8
0
  6
Continuous
 62
     7
370
    25
100
AcDbLine
 10
-0.5405511811
 20
1.4173228346
 30
0.0
 11
-0.5405511811
 21
-1.4173228346
 31
0.0
  0
LINE
  5
287
330
260
100
AcDbEntity
  8
0
  6
Continuous
 62
     7
370
    25
100
AcDbLine
 10
-0.5405511811
 20
1.4173228346
 30
0.0
 11
0.0
 21
1.4173228346
 31
0.0
  0
LINE
  5
288
330
260
100
AcDbEntity
  8
0
  6
Continuous
 62
     7
370
    25
100
AcDbLine
 10
-0.15
 20
1.4173228346
 30
0.0
 11
-0.15
 21
-1.4173228346
 31
0.0
  0
LINE
  5
289
330
260
100
AcDbEntity
  8
0
  6
Continuous
 62
     7
370
    25
100
AcDbLine
 10
-0.5905511811
 20
-1.3673228346
 30
0.0
 11
-0.5905511811
 21
1.3673228346
 31
0.0
  0
LINE
  5
28A
330
260
100
AcDbEntity
  8
0
  6
Continuous
 62
     7
370
    25
100
AcDbLine
 10
-0.5905511811
 20
-1.3673228346
 30
0.0
 11
-0.5405511811
 21
-1.4173228346
 31
0.0
  0
LINE
  5
28B
330
260
100
AcDbEntity
  8
0
  6
Continuous
 62
     7
370
    25
100
AcDbLine
 10
-0.5405511811
 20
1.4173228346
 30
0.0
 11
-0.5905511811
 21
1.3673228346
 31
0.0
  0
LINE
  5
28C
330
260
100
AcDbEntity
  8
0
  6
Continuous
 62
     7
370
    25
100
AcDbLine
 10
-0.2578740157
 20
0.0
 30
0.0
 11
-0.4232283465
 21
0.0
 31
0.0
  0
LINE
  5
28D
330
260
100
AcDbEntity
  8
0
  6
Continuous
 62
     7
370
    25
100
AcDbLine
 10
0.0
 20
-1.4173228346
 30
0.0
 11
0.0
 21
1.4173228346
 31
0.0
  0
ARC
  5
28E
330
260
100
AcDbEntity
  8
0
  6
Continuous
 62
     7
370
    25
100
AcDbCircle
 10
-0.3405511811
 20
0.0
 30
0.0
 40
0.0826771653543307
100
AcDbArc
 50
180.0
 51
0.0
  0
VIEWPORT
  5
630
330
260
100
AcDbEntity
  8
0
100
AcDbViewport
 10
0.0
 20
0.0
 30
0.0
 40
8.4
 41
6.4
 68
     1
 69
     1
 12
-0.1261158356
 22
-0.123498398
 13
0.0
 23
0.0
 14
0.5
 24
0.5
 15
0.5
 25
0.5
 16
0.0
 26
0.0
 36
1.0
 17
0.0
 27
0.0
 37
0.0
 42
50.0
 43
0.0
 44
0.0
 45
4.2550648675
 50
0.0
 51
0.0
 72
   100
 90
   557152
  1

281
     0
 71
     1
 74
     0
110
0.0
120
0.0
130
0.0
111
1.0
121
0.0
131
0.0
112
0.0
122
1.0
132
0.0
 79
     0
146
0.0
  0
ENDBLK
  5
263
330
260
100
AcDbEntity
  8
0
100
AcDbBlockEnd
  0
BLOCK
  5
291
330
28F
100
AcDbEntity
  8
0
100
AcDbBlockBegin
  2
*Paper_Space3
 70
     0
 10
0.0
 20
0.0
 30
0.0
  3
*Paper_Space3
  1

  0
LINE
  5
2AE
330
28F
100
AcDbEntity
  8
0
  6
Continuous
 62
     7
370
    25
100
AcDbLine
 10
-2.7952755906
 20
-0.5905511811
 30
0.0
 11
-2.7952755906
 21
0.0
 31
0.0
  0
LINE
  5
2AF
330
28F
100
AcDbEntity
  8
0
  6
Continuous
 62
     7
370
    25
100
AcDbLine
 10
-2.9527559055
 20
-0.5405511811
 30
0.0
 11
-2.9527559055
 21
0.0
 31
0.0
  0
LINE
  5
2B0
330
28F
100
AcDbEntity
  8
0
  6
Continuous
 62
     7
370
    25
100
AcDbLine
 10
2.9527559055
 20
-0.5405511811
 30
0.0
 11
2.9527559055
 21
0.0
 31
0.0
  0
LINE
  5
2B1
330
28F
100
AcDbEntity
  8
0
  6
Continuous
 62
     7
370
    25
100
AcDbLine
 10
-2.9527559055
 20
-0.5405511811
 30
0.0
 11
2.9527559055
 21
-0.5405511811
 31
0.0
  0
LINE
  5
2B2
330
28F
100
AcDbEntity
  8
0
  6
Continuous
 62
     7
370
    25
100
AcDbLine
 10
2.7952755906
 20
-0.5905511811
 30
0.0
 11
2.7952755906
 21
0.0
 31
0.0
  0
LINE
  5
2B3
330
28F
100
AcDbEntity
  8
0
  6
Continuous
 62
     7
370
    25
100
AcDbLine
 10
-2.9527559055
 20
-0.15
 30
0.0
 11
2.9527559055
 21
-0.15
 31
0.0
  0
LINE
  5
2B4
330
28F
100
AcDbEntity
  8
0
  6
Continuous
 62
     7
370
    25
100
AcDbLine
 10
2.9527559055
 20
-0.5405511811
 30
0.0
 11
2.9027559055
 21
-0.5905511811
 31
0.0
  0
LINE
  5
2B5
330
28F
100
AcDbEntity
  8
0
  6
Continuous
 62
     7
370
    25
100
AcDbLine
 10
2.9027559055
 20
-0.5905511811
 30
0.0
 11
-2.9027559055
 21
-0.5905511811
 31
0.0
  0
LINE
  5
2B6
330
28F
100
AcDbEntity
  8
0
  6
Continuous
 62
     7
370
    25
100
AcDbLine
 10
-2.9527559055
 20
-0.5405511811
 30
0.0
 11
-2.9027559055
 21
-0.5905511811
 31
0.0
  0
LINE
  5
2B7
330
28F
100
AcDbEntity
  8
0
  6
Continuous
 62
     7
370
    25
100
AcDbLine
 10
2.9527559055
 20
0.0
 30
0.0
 11
-2.9527559055
 21
0.0
 31
0.0
  0
VIEWPORT
  5
632
330
28F
100
AcDbEntity
  8
0
100
AcDbViewport
 10
0.0
 20
0.0
 30
0.0
 40
8.4
 41
6.4
 68
     1
 69
     1
 12
-0.1261158356
 22
-0.123498398
 13
0.0
 23
0.0
 14
0.5
 24
0.5
 15
0.5
 25
0.5
 16
0.0
 26
0.0
 36
1.0
 17
0.0
 27
0.0
 37
0.0
 42
50.0
 43
0.0
 44
0.0
 45
4.2550648675
 50
0.0
 51
0.0
 72
   100
 90
   557152
  1

281
     0
 71
     1
 74
     0
110
0.0
120
0.0
130
0.0
111
1.0
121
0.0
131
0.0
112
0.0
122
1.0
132
0.0
 79
     0
146
0.0
  0
ENDBLK
  5
292
330
28F
100
AcDbEntity
  8
0
100
AcDbBlockEnd
  0
BLOCK
  5
2BA
330
2B8
100
AcDbEntity
  8
0
100
AcDbBlockBegin
  2
*Paper_Space4
 70
     0
 10
0.0
 20
0.0
 30
0.0
  3
*Paper_Space4
  1

  0
LINE
  5
2D7
330
2B8
100
AcDbEntity
  8
0
  6
Continuous
 62
     7
370
    25
100
AcDbLine
 10
2.7952755906
 20
0.5905511811
 30
0.0
 11
2.7952755906
 21
0.0
 31
0.0
  0
LINE
  5
2D8
330
2B8
100
AcDbEntity
  8
0
  6
Continuous
 62
     7
370
    25
100
AcDbLine
 10
2.9527559055
 20
0.5405511811
 30
0.0
 11
2.9527559055
 21
0.0
 31
0.0
  0
LINE
  5
2D9
330
2B8
100
AcDbEntity
  8
0
  6
Continuous
 62
     7
370
    25
100
AcDbLine
 10
-2.9527559055
 20
0.5405511811
 30
0.0
 11
-2.9527559055
 21
0.0
 31
0.0
  0
LINE
  5
2DA
330
2B8
100
AcDbEntity
  8
0
  6
Continuous
 62
     7
370
    25
100
AcDbLine
 10
2.9527559055
 20
0.5405511811
 30
0.0
 11
-2.9527559055
 21
0.5405511811
 31
0.0
  0
LINE
  5
2DB
330
2B8
100
AcDbEntity
  8
0
  6
Continuous
 62
     7
370
    25
100
AcDbLine
 10
-2.7952755906
 20
0.5905511811
 30
0.0
 11
-2.7952755906
 21
0.0
 31
0.0
  0
LINE
  5
2DC
330
2B8
100
AcDbEntity
  8
0
  6
Continuous
 62
     7
370
    25
100
AcDbLine
 10
2.9527559055
 20
0.15
 30
0.0
 11
-2.9527559055
 21
0.15
 31
0.0
  0
LINE
  5
2DD
330
2B8
100
AcDbEntity
  8
0
  6
Continuous
 62
     7
370
    25
100
AcDbLine
 10
-2.9027559055
 20
0.5905511811
 30
0.0
 11
-2.9527559055
 21
0.5405511811
 31
0.0
  0
LINE
  5
2DE
330
2B8
100
AcDbEntity
  8
0
  6
Continuous
 62
     7
370
    25
100
AcDbLine
 10
-2.9027559055
 20
0.5905511811
 30
0.0
 11
2.9027559055
 21
0.5905511811
 31
0.0
  0
LINE
  5
2DF
330
2B8
100
AcDbEntity
  8
0
  6
Continuous
 62
     7
370
    25
100
AcDbLine
 10
2.9027559055
 20
0.5905511811
 30
0.0
 11
2.9527559055
 21
0.5405511811
 31
0.0
  0
LINE
  5
2E0
330
2B8
100
AcDbEntity
  8
0
  6
Continuous
 62
     7
370
    25
100
AcDbLine
 10
-2.9527559055
 20
0.0
 30
0.0
 11
2.9527559055
 21
0.0
 31
0.0
  0
VIEWPORT
  5
634
330
2B8
100
AcDbEntity
  8
0
100
AcDbViewport
 10
0.0
 20
0.0
 30
0.0
 40
8.4
 41
6.4
 68
     1
 69
     1
 12
-0.1261158356
 22
-0.123498398
 13
0.0
 23
0.0
 14
0.5
 24
0.5
 15
0.5
 25
0.5
 16
0.0
 26
0.0
 36
1.0
 17
0.0
 27
0.0
 37
0.0
 42
50.0
 43
0.0
 44
0.0
 45
4.2550648675
 50
0.0
 51
0.0
 72
   100
 90
   557152
  1

281
     0
 71
     1
 74
     0
110
0.0
120
0.0
130
0.0
111
1.0
121
0.0
131
0.0
112
0.0
122
1.0
132
0.0
 79
     0
146
0.0
  0
ENDBLK
  5
2BB
330
2B8
100
AcDbEntity
  8
0
100
AcDbBlockEnd
  0
BLOCK
  5
2E3
330
2E1
100
AcDbEntity
  8
0
100
AcDbBlockBegin
  2
*Paper_Space5
 70
     0
 10
0.0
 20
0.0
 30
0.0
  3
*Paper_Space5
  1

  0
LWPOLYLINE
  5
2F7
330
2E1
100
AcDbEntity
  8
0
  6
Continuous
 62
     7
370
    25
100
AcDbPolyline
 90
       15
 70
   128
 43
0.0
 10
-0.9479128307
 20
0.1418424909
 10
-0.9627033605
 20
0.148456478
 10
-0.9767522313
 20
0.1508900042
 10
-0.9893549742
 20
0.1490210422
 10
-0.9998796349
 20
0.1429433098
 10
-1.0077984631
 20
0.1329615697
 10
-1.0127143756
 20
0.1195763481
 10
-1.0143808681
 20
0.1034588358
 10
-1.0127143756
 20
0.0854172324
 10
-1.0077984631
 20
0.0663562189
 10
-0.9998796349
 20
0.0472315944
 10
-0.9893549742
 20
0.0290023473
 10
-0.9767522313
 20
0.0125825682
 10
-0.9627033605
 20
-0.0012043866
 10
-0.9479128307
 20
-0.0116671817
  0
LWPOLYLINE
  5
2FD
330
2E1
100
AcDbEntity
  8
0
  6
Continuous
 62
     7
370
    25
100
AcDbPolyline
 90
        9
 70
   128
 43
0.0
 10
-2.3022109747
 20
1.8803613845
 10
-2.3120333721
 20
1.8949136366
 10
-2.3231675793
 20
1.907839697
 10
-2.3351857149
 20
1.9186428243
 10
-2.3476259287
 20
1.9269078604
 10
-2.3600101503
 20
1.9323171847
 10
-2.371862461
 20
1.9346629198
 10
-2.3827273832
 20
1.9338549205
 10
-2.3921873839
 20
1.9299242378
  0
LWPOLYLINE
  5
2FF
330
2E1
100
AcDbEntity
  8
0
  6
Continuous
 62
     7
370
    25
100
AcDbPolyline
 90
        9
 70
   128
 43
0.0
 10
-2.3960947564
 20
1.9274563222
 10
-2.4037862932
 20
1.9205540099
 10
-2.4094137845
 20
1.91094532
 10
-2.4127609692
 20
1.8989995091
 10
-2.4136992167
 20
1.8851756481
 10
-2.4121924707
 20
1.8700049801
 10
-2.4082986346
 20
1.8540705054
 10
-2.4021673464
 20
1.837984577
 10
-2.3940342279
 20
1.822365368
  0
LWPOLYLINE
  5
302
330
2E1
100
AcDbEntity
  8
0
  6
Continuous
 62
     7
370
    25
100
AcDbPolyline
 90
        9
 70
   128
 43
0.0
 10
-2.394054424
 20
-0.0225444517
 10
-2.4022391943
 20
-0.0288286593
 10
-2.4083912735
 20
-0.0379287269
 10
-2.4122708337
 20
-0.0494899042
 10
-2.4137266371
 20
-0.0630614995
 10
-2.4127019318
 20
-0.078114448
 10
-2.4092366641
 20
-0.0940619372
 10
-2.4034659214
 20
-0.1102822827
 10
-2.3956146657
 20
-0.1261431629
  0
LWPOLYLINE
  5
304
330
2E1
100
AcDbEntity
  8
0
  6
Continuous
 62
     7
370
    25
100
AcDbPolyline
 90
        9
 70
   128
 43
0.0
 10
-2.3916610099
 20
-0.1330981004
 10
-2.3821838121
 20
-0.1477779987
 10
-2.3713413972
 20
-0.1609517369
 10
-2.3595444712
 20
-0.1721202994
 10
-2.3472398966
 20
-0.1808606257
 10
-2.3348937655
 20
-0.186841636
 10
-2.3229737441
 20
-0.1898367721
 10
-2.3119313578
 20
-0.1897325797
 10
-2.3021848874
 20
-0.1865330054
  0
LWPOLYLINE
  5
307
330
2E1
100
AcDbEntity
  8
0
  6
Continuous
 62
     7
370
    25
100
AcDbPolyline
 90
        9
 70
   128
 43
0.0
 10
-0.6425851777
 20
-1.1206732731
 10
-0.6327627803
 20
-1.1352255252
 10
-0.6216285731
 20
-1.1481515855
 10
-0.6096104375
 20
-1.1589547128
 10
-0.5971702237
 20
-1.1672197489
 10
-0.5847860021
 20
-1.1726290732
 10
-0.5729336914
 20
-1.1749748084
 10
-0.5620687692
 20
-1.1741668091
 10
-0.5526087685
 20
-1.1702361263
  0
LWPOLYLINE
  5
310
330
2E1
100
AcDbEntity
  8
0
  6
Continuous
 62
     7
370
    25
100
AcDbPolyline
 90
        9
 70
   128
 43
0.0
 10
-0.5314123111
 20
0.8562973606
 10
-0.5408895089
 20
0.8709772589
 10
-0.5517319238
 20
0.8841509971
 10
-0.5635288498
 20
0.8953195595
 10
-0.5758334244
 20
0.9040598858
 10
-0.5881795555
 20
0.9100408961
 10
-0.6000995769
 20
0.9130360323
 10
-0.6111419632
 20
0.9129318399
 10
-0.6208884336
 20
0.9097322656
  0
LWPOLYLINE
  5
313
330
2E1
100
AcDbEntity
  8
0
  6
Continuous
 62
     7
370
    25
100
AcDbPolyline
 90
        9
 70
   128
 43
0.0
 10
-0.3061465926
 20
0.6170822691
 10
-0.3143313629
 20
0.6328164114
 10
-0.3204834421
 20
0.6490195184
 10
-0.3243630023
 20
0.6650599407
 10
-0.3258188057
 20
0.6803123707
 10
-0.3247941004
 20
0.6941822197
 10
-0.3213288327
 20
0.706128796
 10
-0.3155580899
 20
0.7156863837
 10
-0.3077068343
 20
0.7224823971
  0
LWPOLYLINE
  5
316
330
2E1
100
AcDbEntity
  8
0
  6
Continuous
 62
     7
370
    25
100
AcDbPolyline
 90
        9
 70
   128
 43
0.0
 10
-0.2864640936
 20
-1.319154583
 10
-0.2941556304
 20
-1.3033718114
 10
-0.2997831217
 20
-1.2872657583
 10
-0.3031303064
 20
-1.2714553703
 10
-0.3040685539
 20
-1.2565482318
 10
-0.3025618079
 20
-1.2431172157
 10
-0.2986679718
 20
-1.2316784685
 10
-0.2925366835
 20
-1.2226715747
 10
-0.2844035651
 20
-1.2164426644
  0
LWPOLYLINE
  5
318
330
2E1
100
AcDbEntity
  8
0
  6
Continuous
 62
     7
370
    25
100
AcDbPolyline
 90
        9
 70
   128
 43
0.0
 10
-0.1925803119
 20
-1.3804555525
 10
-0.2024027093
 20
-1.383667106
 10
-0.2135369164
 20
-1.3837378843
 10
-0.2255550521
 20
-1.3806651676
 10
-0.2379952659
 20
-1.3745670386
 10
-0.2503794875
 20
-1.3656778449
 10
-0.2622317982
 20
-1.3543391934
 10
-0.2730967204
 20
-1.340986822
 10
-0.2825567211
 20
-1.3261338549
  0
LWPOLYLINE
  5
31B
330
2E1
100
AcDbEntity
  8
0
  6
Continuous
 62
     7
370
    25
100
AcDbPolyline
 90
        9
 70
   128
 43
0.0
 10
1.5564955203
 20
-2.4123203507
 10
1.5470183225
 20
-2.4160581094
 10
1.5361759076
 20
-2.4167134618
 10
1.5243789816
 20
-2.4142615833
 10
1.512074407
 20
-2.4087953502
 10
1.4997282759
 20
-2.400521821
 10
1.4878082545
 20
-2.3897543934
 10
1.4767658682
 20
-2.3769009331
 10
1.4670193978
 20
-2.3624483236
  0
LWPOLYLINE
  5
324
330
2E1
100
AcDbEntity
  8
0
  6
Continuous
 62
     7
370
    25
100
AcDbPolyline
 90
        9
 70
   128
 43
0.0
 10
1.4670454851
 20
-0.2955840534
 10
1.4768678825
 20
-0.2923724999
 10
1.4880020897
 20
-0.2923017216
 10
1.5000202253
 20
-0.2953744383
 10
1.5124604391
 20
-0.3014725673
 10
1.5248446607
 20
-0.310361761
 10
1.5366969715
 20
-0.3217004125
 10
1.5475618936
 20
-0.3350527839
 10
1.5570218943
 20
-0.349905751
  0
LWPOLYLINE
  5
327
330
2E1
100
AcDbEntity
  8
0
  6
Continuous
 62
     7
370
    25
100
AcDbPolyline
 90
        9
 70
   128
 43
0.0
 10
-0.3037531785
 20
0.7248725407
 10
-0.2942759807
 20
0.7286102995
 10
-0.2834335658
 20
0.7292656518
 10
-0.2716366398
 20
0.7268137734
 10
-0.2593320652
 20
0.7213475403
 10
-0.2469859341
 20
0.7130740111
 10
-0.2350659127
 20
0.7023065835
 10
-0.2240235263
 20
0.6894531231
 10
-0.2142770559
 20
0.6750005137
  0
LWPOLYLINE
  5
32E
330
2E1
100
AcDbEntity
  8
0
  6
Continuous
 62
     7
370
    25
100
AcDbPolyline
 90
       14
 70
   128
 43
0.0
 10
1.7886460902
 20
-1.3780904643
 10
1.7903448776
 20
-1.3932658034
 10
1.7953425124
 20
-1.4055978287
 10
1.8033485503
 20
-1.4143698478
 10
1.8138977094
 20
-1.4190720629
 10
1.826376911
 20
-1.4194311982
 10
1.8400609092
 20
-1.4154263822
 10
1.8541544398
 20
-1.4072903602
 10
1.867838438
 20
-1.3954959682
 10
1.8803176395
 20
-1.3807286534
 10
1.8908667987
 20
-1.3638466385
 10
1.8988728365
 20
-1.3458310448
 10
1.9038704714
 20
-1.3277288731
 10
1.9055692587
 20
-1.3105921559
  0
LWPOLYLINE
  5
32F
330
2E1
100
AcDbEntity
  8
0
  6
Continuous
 62
     7
370
    25
100
AcDbPolyline
 90
       14
 70
   128
 43
0.0
 10
1.9055692587
 20
-1.3105921559
 10
1.9038704714
 20
-1.2954168169
 10
1.8988728365
 20
-1.2830847915
 10
1.8908667987
 20
-1.2743127724
 10
1.8803176395
 20
-1.2696105574
 10
1.867838438
 20
-1.269251422
 10
1.8541544398
 20
-1.273256238
 10
1.8400609092
 20
-1.2813922601
 10
1.826376911
 20
-1.2931866521
 10
1.8138977094
 20
-1.3079539669
 10
1.8033485503
 20
-1.3248359818
 10
1.7953425124
 20
-1.3428515755
 10
1.7903448776
 20
-1.3609537471
 10
1.7886460902
 20
-1.3780904643
  0
LWPOLYLINE
  5
336
330
2E1
100
AcDbEntity
  8
0
  6
Continuous
 62
     7
370
    25
100
AcDbPolyline
 90
        9
 70
   128
 43
0.0
 10
-0.178660887
 20
-1.3724200396
 10
-0.1884832844
 20
-1.3756315931
 10
-0.1996174916
 20
-1.3757023714
 10
-0.2116356272
 20
-1.3726296547
 10
-0.2240758411
 20
-1.3665315257
 10
-0.2364600627
 20
-1.357642332
 10
-0.2483123734
 20
-1.3463036805
 10
-0.2591772956
 20
-1.3329513091
 10
-0.2686372963
 20
-1.318098342
  0
LWPOLYLINE
  5
338
330
2E1
100
AcDbEntity
  8
0
  6
Continuous
 62
     7
370
    25
100
AcDbPolyline
 90
        9
 70
   128
 43
0.0
 10
-0.2725446688
 20
-1.3111190701
 10
-0.2802362055
 20
-1.2953362985
 10
-0.2858636969
 20
-1.2792302454
 10
-0.2892108816
 20
-1.2634198574
 10
-0.290149129
 20
-1.2485127189
 10
-0.288642383
 20
-1.2350817028
 10
-0.2847485469
 20
-1.2236429555
 10
-0.2786172587
 20
-1.2146360618
 10
-0.2756310762
 20
-1.2118303567
  0
LWPOLYLINE
  5
34A
330
2E1
100
AcDbEntity
  8
0
  6
Continuous
 62
     7
370
    25
100
AcDbPolyline
 90
        9
 70
   128
 43
0.0
 10
-2.3777415851
 20
-0.1250625875
 10
-2.3682643873
 20
-0.1397424858
 10
-2.3574219724
 20
-0.152916224
 10
-2.3456250464
 20
-0.1640847865
 10
-2.3333204718
 20
-0.1728251128
 10
-2.3209743407
 20
-0.1788061231
 10
-2.3090543193
 20
-0.1818012592
 10
-2.2980119329
 20
-0.1816970668
 10
-2.2882654625
 20
-0.1784974925
  0
LWPOLYLINE
  5
34C
330
2E1
100
AcDbEntity
  8
0
  6
Continuous
 62
     7
370
    25
100
AcDbPolyline
 90
        9
 70
   128
 43
0.0
 10
-2.3852819351
 20
-0.017932144
 10
-2.3883197695
 20
-0.0207931464
 10
-2.3944718487
 20
-0.0298932139
 10
-2.3983514089
 20
-0.0414543913
 10
-2.3998072123
 20
-0.0550259865
 10
-2.398782507
 20
-0.0700789351
 10
-2.3953172393
 20
-0.0860264243
 10
-2.3895464965
 20
-0.1022467698
 10
-2.3816952409
 20
-0.11810765
  0
LWPOLYLINE
  5
351
330
2E1
100
AcDbEntity
  8
0
  6
Continuous
 62
     7
370
    25
100
AcDbPolyline
 90
       11
 70
   128
 43
0.0
 10
-0.9874312757
 20
0.1496166648
 10
-0.9938790383
 20
0.1409970826
 10
-0.9987949508
 20
0.127611861
 10
-1.0004614433
 20
0.1114943488
 10
-0.9987949508
 20
0.0934527453
 10
-0.9938790383
 20
0.0743917319
 10
-0.9859602101
 20
0.0552671073
 10
-0.9754355493
 20
0.0370378602
 10
-0.9628328065
 20
0.0206180811
 10
-0.9487839356
 20
0.0068311263
 10
-0.9339934059
 20
-0.0036316688
  0
LINE
  5
375
330
2E1
100
AcDbEntity
  8
0
  6
Continuous
 62
     7
370
    25
100
AcDbLine
 10
1.6730646781
 20
-2.5267964995
 30
0.0
 11
2.0552920838
 21
-2.3061413149
 31
0.0
  0
LINE
  5
376
330
2E1
100
AcDbEntity
  8
0
  6
Continuous
 62
     7
370
    25
100
AcDbLine
 10
-2.0552920838
 20
2.3061413149
 30
0.0
 11
-2.4375194896
 21
2.0854861304
 31
0.0
  0
LINE
  5
377
330
2E1
100
AcDbEntity
  8
0
  6
Continuous
 62
     7
370
    25
100
AcDbLine
 10
1.7056863182
 20
-0.3972692874
 30
0.0
 11
1.6349756401
 21
-0.3972692874
 31
0.0
  0
LINE
  5
378
330
2E1
100
AcDbEntity
  8
0
  6
Continuous
 62
     7
370
    25
100
AcDbLine
 10
1.5943309196
 20
-0.2043960799
 30
0.0
 11
1.5589755806
 21
-0.2656333233
 31
0.0
  0
LINE
  5
379
330
2E1
100
AcDbEntity
  8
0
  6
Continuous
 62
     7
370
    25
100
AcDbLine
 10
1.7056863182
 20
-0.3972692874
 30
0.0
 11
2.087913724
 21
-0.1766141029
 31
0.0
  0
LINE
  5
37A
330
2E1
100
AcDbEntity
  8
0
  6
Continuous
 62
     7
370
    25
100
AcDbLine
 10
1.5943309196
 20
-0.2043960799
 30
0.0
 11
1.9765583254
 21
0.0162591047
 31
0.0
  0
LINE
  5
37B
330
2E1
100
AcDbEntity
  8
0
  6
Continuous
 62
     7
370
    25
100
AcDbLine
 10
-2.3941410702
 20
-0.2164974514
 30
0.0
 11
1.5589755806
 21
-2.4985831183
 31
0.0
  0
LINE
  5
37C
330
2E1
100
AcDbEntity
  8
0
  6
Continuous
 62
     7
370
    25
100
AcDbLine
 10
-2.4701411297
 20
2.0133845861
 30
0.0
 11
-2.4701411297
 21
-0.0848614873
 31
0.0
  0
LINE
  5
37D
330
2E1
100
AcDbEntity
  8
0
  6
Continuous
 62
     7
370
    25
100
AcDbLine
 10
1.5589755806
 20
-0.2656333233
 30
0.0
 11
-2.3941410702
 21
2.0164523436
 31
0.0
  0
LINE
  5
37E
330
2E1
100
AcDbEntity
  8
0
  6
Continuous
 62
     7
370
    25
100
AcDbLine
 10
1.6349756401
 20
-2.4546949552
 30
0.0
 11
1.6349756401
 21
-0.3972692874
 31
0.0
  0
LINE
  5
37F
330
2E1
100
AcDbEntity
  8
0
  6
Continuous
 62
     7
370
    25
100
AcDbLine
 10
-0.9479128307
 20
-0.0116671817
 30
0.0
 11
0.1127473411
 21
-0.6239732656
 31
0.0
  0
LINE
  5
380
330
2E1
100
AcDbEntity
  8
0
  6
Continuous
 62
     7
370
    25
100
AcDbLine
 10
0.1127473411
 20
-0.470463593
 30
0.0
 11
-0.9479128307
 21
0.1418424909
 31
0.0
  0
LINE
  5
381
330
2E1
100
AcDbEntity
  8
0
  6
Continuous
 62
     7
370
    25
100
AcDbLine
 10
-1.4615396068
 20
0.4677434612
 30
0.0
 11
-2.3022109747
 21
1.8803613845
 31
0.0
  0
LINE
  5
382
330
2E1
100
AcDbEntity
  8
0
  6
Continuous
 62
     7
370
    25
100
AcDbLine
 10
-2.3921873839
 20
1.9299242378
 30
0.0
 11
-2.3960947564
 21
1.9274563222
 31
0.0
  0
LINE
  5
383
330
2E1
100
AcDbEntity
  8
0
  6
Continuous
 62
     7
370
    25
100
AcDbLine
 10
-2.3940342279
 20
1.822365368
 30
0.0
 11
-1.5577679551
 21
0.4171495241
 31
0.0
  0
LINE
  5
384
330
2E1
100
AcDbEntity
  8
0
  6
Continuous
 62
     7
370
    25
100
AcDbLine
 10
-1.5577679551
 20
0.4171495241
 30
0.0
 11
-2.394054424
 21
-0.0225444517
 31
0.0
  0
LINE
  5
385
330
2E1
100
AcDbEntity
  8
0
  6
Continuous
 62
     7
370
    25
100
AcDbLine
 10
-2.3956146657
 20
-0.1261431629
 30
0.0
 11
-2.3916610099
 21
-0.1330981004
 31
0.0
  0
LINE
  5
386
330
2E1
100
AcDbEntity
  8
0
  6
Continuous
 62
     7
370
    25
100
AcDbLine
 10
-2.3021848874
 20
-0.1865330054
 30
0.0
 11
-1.4615396068
 21
0.2554527008
 31
0.0
  0
LINE
  5
387
330
2E1
100
AcDbEntity
  8
0
  6
Continuous
 62
     7
370
    25
100
AcDbLine
 10
-1.4615396068
 20
0.2554527008
 30
0.0
 11
-0.6425851777
 21
-1.1206732731
 31
0.0
  0
LINE
  5
388
330
2E1
100
AcDbEntity
  8
0
  6
Continuous
 62
     7
370
    25
100
AcDbLine
 10
-0.5526087685
 20
-1.1702361263
 30
0.0
 11
-0.548701396
 21
-1.1677682107
 31
0.0
  0
LINE
  5
389
330
2E1
100
AcDbEntity
  8
0
  6
Continuous
 62
     7
370
    25
100
AcDbLine
 10
-0.5507619245
 20
-1.0626772565
 30
0.0
 11
-1.3653112585
 21
0.306046638
 31
0.0
  0
LINE
  5
38A
330
2E1
100
AcDbEntity
  8
0
  6
Continuous
 62
     7
370
    25
100
AcDbLine
 10
-1.3653112585
 20
0.306046638
 30
0.0
 11
-0.529018897
 21
0.7457437118
 31
0.0
  0
LINE
  5
38B
330
2E1
100
AcDbEntity
  8
0
  6
Continuous
 62
     7
370
    25
100
AcDbLine
 10
-0.5274586553
 20
0.8493424231
 30
0.0
 11
-0.5314123111
 21
0.8562973606
 31
0.0
  0
LINE
  5
38C
330
2E1
100
AcDbEntity
  8
0
  6
Continuous
 62
     7
370
    25
100
AcDbLine
 10
-0.6208884336
 20
0.9097322656
 30
0.0
 11
-1.4615396068
 21
0.4677434612
 31
0.0
  0
LINE
  5
38D
330
2E1
100
AcDbEntity
  8
0
  6
Continuous
 62
     7
370
    25
100
AcDbLine
 10
-0.3077068343
 20
0.7224823971
 30
0.0
 11
-0.3037531785
 21
0.7248725407
 31
0.0
  0
LINE
  5
38E
330
2E1
100
AcDbEntity
  8
0
  6
Continuous
 62
     7
370
    25
100
AcDbLine
 10
0.5301457689
 20
-0.7881774127
 30
0.0
 11
-0.3061465926
 21
0.6170822691
 31
0.0
  0
LINE
  5
38F
330
2E1
100
AcDbEntity
  8
0
  6
Continuous
 62
     7
370
    25
100
AcDbLine
 10
-0.2844035651
 20
-1.2164426644
 30
0.0
 11
0.5301457689
 21
-0.7881774127
 31
0.0
  0
LINE
  5
390
330
2E1
100
AcDbEntity
  8
0
  6
Continuous
 62
     7
370
    25
100
AcDbLine
 10
-0.2825567211
 20
-1.3261338549
 30
0.0
 11
-0.2864640936
 21
-1.319154583
 31
0.0
  0
LINE
  5
391
330
2E1
100
AcDbEntity
  8
0
  6
Continuous
 62
     7
370
    25
100
AcDbLine
 10
0.6263741172
 20
-0.9498742359
 30
0.0
 11
-0.1925803119
 21
-1.3804555525
 31
0.0
  0
LINE
  5
392
330
2E1
100
AcDbEntity
  8
0
  6
Continuous
 62
     7
370
    25
100
AcDbLine
 10
1.4670193978
 20
-2.3624483236
 30
0.0
 11
0.6263741172
 21
-0.9498742359
 31
0.0
  0
LINE
  5
393
330
2E1
100
AcDbEntity
  8
0
  6
Continuous
 62
     7
370
    25
100
AcDbLine
 10
1.5604491761
 20
-2.409930207
 30
0.0
 11
1.5564955203
 21
-2.4123203507
 31
0.0
  0
LINE
  5
394
330
2E1
100
AcDbEntity
  8
0
  6
Continuous
 62
     7
370
    25
100
AcDbLine
 10
0.7226024655
 20
-0.8992802988
 30
0.0
 11
1.5588889344
 21
-2.304530079
 31
0.0
  0
LINE
  5
395
330
2E1
100
AcDbEntity
  8
0
  6
Continuous
 62
     7
370
    25
100
AcDbLine
 10
1.5588687384
 20
-0.4595969415
 30
0.0
 11
0.7226024655
 21
-0.8992802988
 31
0.0
  0
LINE
  5
396
330
2E1
100
AcDbEntity
  8
0
  6
Continuous
 62
     7
370
    25
100
AcDbLine
 10
1.5570218943
 20
-0.349905751
 30
0.0
 11
1.5609292668
 21
-0.3568850228
 31
0.0
  0
LINE
  5
397
330
2E1
100
AcDbEntity
  8
0
  6
Continuous
 62
     7
370
    25
100
AcDbLine
 10
0.6263741172
 20
-0.7375834755
 30
0.0
 11
1.4670454851
 21
-0.2955840534
 31
0.0
  0
LINE
  5
398
330
2E1
100
AcDbEntity
  8
0
  6
Continuous
 62
     7
370
    25
100
AcDbLine
 10
-0.2142770559
 20
0.6750005137
 30
0.0
 11
0.6263741172
 21
-0.7375834755
 31
0.0
  0
LINE
  5
399
330
2E1
100
AcDbEntity
  8
0
  6
Continuous
 62
     7
370
    25
100
AcDbLine
 10
1.7056863182
 20
-0.3972692874
 30
0.0
 11
1.7056863182
 21
-2.4546949552
 31
0.0
  0
LINE
  5
39A
330
2E1
100
AcDbEntity
  8
0
  6
Continuous
 62
     7
370
    25
100
AcDbLine
 10
1.6349756401
 20
-2.4546949552
 30
0.0
 11
1.7056863182
 21
-2.4546949552
 31
0.0
  0
LINE
  5
39B
330
2E1
100
AcDbEntity
  8
0
  6
Continuous
 62
     7
370
    25
100
AcDbLine
 10
-2.3587857311
 20
2.077689587
 30
0.0
 11
1.5943309196
 21
-0.2043960799
 31
0.0
  0
LINE
  5
39C
330
2E1
100
AcDbEntity
  8
0
  6
Continuous
 62
     7
370
    25
100
AcDbLine
 10
-2.3587857311
 20
2.077689587
 30
0.0
 11
-2.3941410702
 21
2.0164523436
 31
0.0
  0
LINE
  5
39D
330
2E1
100
AcDbEntity
  8
0
  6
Continuous
 62
     7
370
    25
100
AcDbLine
 10
1.7056863182
 20
-2.4546949552
 30
0.0
 11
2.087913724
 21
-2.2340397706
 31
0.0
  0
LINE
  5
39E
330
2E1
100
AcDbEntity
  8
0
  6
Continuous
 62
     7
370
    25
100
AcDbLine
 10
1.9818477068
 20
-0.2378447113
 30
0.0
 11
1.9818477068
 21
-2.295270379
 31
0.0
  0
LINE
  5
39F
330
2E1
100
AcDbEntity
  8
0
  6
Continuous
 62
     7
370
    25
100
AcDbLine
 10
-2.3587857311
 20
2.077689587
 30
0.0
 11
-1.9765583254
 21
2.2983447716
 31
0.0
  0
LINE
  5
3A0
330
2E1
100
AcDbEntity
  8
0
  6
Continuous
 62
     7
370
    25
100
AcDbLine
 10
-2.0826243425
 20
2.2371141632
 30
0.0
 11
1.8704923082
 21
-0.0449715037
 31
0.0
  0
LINE
  5
3A1
330
2E1
100
AcDbEntity
  8
0
  6
Continuous
 62
     7
370
    25
100
AcDbLine
 10
1.5640156743
 20
-0.4561737363
 30
0.0
 11
0.7365218903
 21
-0.8912447858
 31
0.0
  0
LINE
  5
3A2
330
2E1
100
AcDbEntity
  8
0
  6
Continuous
 62
     7
370
    25
100
AcDbLine
 10
1.4809388226
 20
-2.3544128107
 30
0.0
 11
0.640293542
 21
-0.941838723
 31
0.0
  0
LINE
  5
3A3
330
2E1
100
AcDbEntity
  8
0
  6
Continuous
 62
     7
370
    25
100
AcDbLine
 10
0.640293542
 20
-0.941838723
 30
0.0
 11
-0.178660887
 21
-1.3724200396
 31
0.0
  0
LINE
  5
3A4
330
2E1
100
AcDbEntity
  8
0
  6
Continuous
 62
     7
370
    25
100
AcDbLine
 10
-0.2686372963
 20
-1.318098342
 30
0.0
 11
-0.2725446688
 21
-1.3111190701
 31
0.0
  0
LINE
  5
3A5
330
2E1
100
AcDbEntity
  8
0
  6
Continuous
 62
     7
370
    25
100
AcDbLine
 10
0.5440651937
 20
-0.7801418998
 30
0.0
 11
-0.2922271677
 21
0.625117782
 31
0.0
  0
LINE
  5
3A6
330
2E1
100
AcDbEntity
  8
0
  6
Continuous
 62
     7
370
    25
100
AcDbLine
 10
0.7365218903
 20
-0.8912447858
 30
0.0
 11
0.7226024655
 21
-0.8992802988
 31
0.0
  0
LINE
  5
3A7
330
2E1
100
AcDbEntity
  8
0
  6
Continuous
 62
     7
370
    25
100
AcDbLine
 10
0.640293542
 20
-0.941838723
 30
0.0
 11
0.6263741172
 21
-0.9498742359
 31
0.0
  0
LINE
  5
3A8
330
2E1
100
AcDbEntity
  8
0
  6
Continuous
 62
     7
370
    25
100
AcDbLine
 10
1.4809388226
 20
-2.3544128107
 30
0.0
 11
1.4670193978
 21
-2.3624483236
 31
0.0
  0
LINE
  5
3A9
330
2E1
100
AcDbEntity
  8
0
  6
Continuous
 62
     7
370
    25
100
AcDbLine
 10
-0.2922271677
 20
0.625117782
 30
0.0
 11
-0.3061465926
 21
0.6170822691
 31
0.0
  0
LINE
  5
3AA
330
2E1
100
AcDbEntity
  8
0
  6
Continuous
 62
     7
370
    25
100
AcDbLine
 10
0.5440651937
 20
-0.7801418998
 30
0.0
 11
0.5301457689
 21
-0.7881774127
 31
0.0
  0
LINE
  5
3AB
330
2E1
100
AcDbEntity
  8
0
  6
Continuous
 62
     7
370
    25
100
AcDbLine
 10
1.5589755806
 20
-2.4985831183
 30
0.0
 11
1.5943309196
 21
-2.5189999561
 31
0.0
  0
LINE
  5
3AC
330
2E1
100
AcDbEntity
  8
0
  6
Continuous
 62
     7
370
    25
100
AcDbLine
 10
1.5943309196
 20
-2.5189999561
 30
0.0
 11
-2.3587857311
 21
-0.2369142892
 31
0.0
  0
LINE
  5
3AD
330
2E1
100
AcDbEntity
  8
0
  6
Continuous
 62
     7
370
    25
100
AcDbLine
 10
-2.3941410702
 20
-0.2164974514
 30
0.0
 11
-2.3587857311
 21
-0.2369142892
 31
0.0
  0
LINE
  5
3AE
330
2E1
100
AcDbEntity
  8
0
  6
Continuous
 62
     7
370
    25
100
AcDbLine
 10
-0.178660887
 20
-1.3724200396
 30
0.0
 11
-0.1925803119
 21
-1.3804555525
 31
0.0
  0
LINE
  5
3AF
330
2E1
100
AcDbEntity
  8
0
  6
Continuous
 62
     7
370
    25
100
AcDbLine
 10
-1.3513918336
 20
0.3140821509
 30
0.0
 11
-0.5238719611
 21
0.749166917
 31
0.0
  0
LINE
  5
3B0
330
2E1
100
AcDbEntity
  8
0
  6
Continuous
 62
     7
370
    25
100
AcDbLine
 10
-1.447620182
 20
0.2634882137
 30
0.0
 11
-0.6286657529
 21
-1.1126377602
 31
0.0
  0
LINE
  5
3B1
330
2E1
100
AcDbEntity
  8
0
  6
Continuous
 62
     7
370
    25
100
AcDbLine
 10
-2.2882654625
 20
-0.1784974925
 30
0.0
 11
-1.447620182
 21
0.2634882137
 31
0.0
  0
LINE
  5
3B2
330
2E1
100
AcDbEntity
  8
0
  6
Continuous
 62
     7
370
    25
100
AcDbLine
 10
-2.3816952409
 20
-0.11810765
 30
0.0
 11
-2.3777415851
 21
-0.1250625875
 31
0.0
  0
LINE
  5
3B3
330
2E1
100
AcDbEntity
  8
0
  6
Continuous
 62
     7
370
    25
100
AcDbLine
 10
-2.3801148031
 20
1.8304008809
 30
0.0
 11
-1.5438485303
 21
0.425185037
 31
0.0
  0
LINE
  5
3B4
330
2E1
100
AcDbEntity
  8
0
  6
Continuous
 62
     7
370
    25
100
AcDbLine
 10
-1.3513918336
 20
0.3140821509
 30
0.0
 11
-1.3653112585
 21
0.306046638
 31
0.0
  0
LINE
  5
3B5
330
2E1
100
AcDbEntity
  8
0
  6
Continuous
 62
     7
370
    25
100
AcDbLine
 10
-0.9339934059
 20
-0.0036316688
 30
0.0
 11
0.1266667659
 21
-0.6159377527
 31
0.0
  0
LINE
  5
3B6
330
2E1
100
AcDbEntity
  8
0
  6
Continuous
 62
     7
370
    25
100
AcDbLine
 10
0.1266667659
 20
-0.6159377527
 30
0.0
 11
0.1127473411
 21
-0.6239732656
 31
0.0
  0
LINE
  5
3B7
330
2E1
100
AcDbEntity
  8
0
  6
Continuous
 62
     7
370
    25
100
AcDbLine
 10
-0.9339934059
 20
-0.0036316688
 30
0.0
 11
-0.9479128307
 21
-0.0116671817
 31
0.0
  0
LINE
  5
3B8
330
2E1
100
AcDbEntity
  8
0
  6
Continuous
 62
     7
370
    25
100
AcDbLine
 10
-1.447620182
 20
0.2634882137
 30
0.0
 11
-1.4615396068
 21
0.2554527008
 31
0.0
  0
LINE
  5
3B9
330
2E1
100
AcDbEntity
  8
0
  6
Continuous
 62
     7
370
    25
100
AcDbLine
 10
-0.6286657529
 20
-1.1126377602
 30
0.0
 11
-0.6425851777
 21
-1.1206732731
 31
0.0
  0
LINE
  5
3BA
330
2E1
100
AcDbEntity
  8
0
  6
Continuous
 62
     7
370
    25
100
AcDbLine
 10
-2.3801148031
 20
1.8304008809
 30
0.0
 11
-2.3940342279
 21
1.822365368
 31
0.0
  0
LINE
  5
3BB
330
2E1
100
AcDbEntity
  8
0
  6
Continuous
 62
     7
370
    25
100
AcDbLine
 10
-1.5438485303
 20
0.425185037
 30
0.0
 11
-1.5577679551
 21
0.4171495241
 31
0.0
  0
LINE
  5
3BC
330
2E1
100
AcDbEntity
  8
0
  6
Continuous
 62
     7
370
    25
100
AcDbLine
 10
-0.2725446688
 20
-1.3111190701
 30
0.0
 11
-0.2864640936
 21
-1.319154583
 31
0.0
  0
LINE
  5
3BD
330
2E1
100
AcDbEntity
  8
0
  6
Continuous
 62
     7
370
    25
100
AcDbLine
 10
-0.2686372963
 20
-1.318098342
 30
0.0
 11
-0.2825567211
 21
-1.3261338549
 31
0.0
  0
LINE
  5
3BE
330
2E1
100
AcDbEntity
  8
0
  6
Continuous
 62
     7
370
    25
100
AcDbLine
 10
-2.2882654625
 20
-0.1784974925
 30
0.0
 11
-2.3021848874
 21
-0.1865330054
 31
0.0
  0
LINE
  5
3BF
330
2E1
100
AcDbEntity
  8
0
  6
Continuous
 62
     7
370
    25
100
AcDbLine
 10
-2.3816952409
 20
-0.11810765
 30
0.0
 11
-2.3956146657
 21
-0.1261431629
 31
0.0
  0
LINE
  5
3C0
330
2E1
100
AcDbEntity
  8
0
  6
Continuous
 62
     7
370
    25
100
AcDbLine
 10
-2.3777415851
 20
-0.1250625875
 30
0.0
 11
-2.3916610099
 21
-0.1330981004
 31
0.0
  0
LINE
  5
3C1
330
2E1
100
AcDbEntity
  8
0
  6
Continuous
 62
     7
370
    25
100
AcDbLine
 10
2.087913724
 20
-2.2340397706
 30
0.0
 11
2.087913724
 21
-0.1766141029
 31
0.0
  0
LINE
  5
3C2
330
2E1
100
AcDbEntity
  8
0
  6
Continuous
 62
     7
370
    25
100
AcDbLine
 10
1.9765583254
 20
0.0162591047
 30
0.0
 11
-1.9765583254
 21
2.2983447716
 31
0.0
  0
LINE
  5
3C3
330
2E1
100
AcDbEntity
  8
0
  6
Continuous
 62
     8
370
    25
100
AcDbLine
 10
1.5609221218
 20
-0.4584115485
 30
0.0
 11
1.5588687384
 21
-0.4595969415
 31
0.0
  0
LINE
  5
3C4
330
2E1
100
AcDbEntity
  8
0
  6
Continuous
 62
     8
370
    25
100
AcDbLine
 10
1.8470981728
 20
-1.2768375165
 30
0.0
 11
1.9055692587
 21
-1.3105921559
 31
0.0
  0
LINE
  5
3C5
330
2E1
100
AcDbEntity
  8
0
  6
Continuous
 62
     8
370
    25
100
AcDbLine
 10
-0.3010667104
 20
0.726315659
 30
0.0
 11
-0.3077068343
 21
0.7224823971
 31
0.0
  0
LINE
  5
3C6
330
2E1
100
AcDbEntity
  8
0
  6
Continuous
 62
     8
370
    25
100
AcDbLine
 10
-0.5269655136
 20
0.7469291049
 30
0.0
 11
-0.529018897
 21
0.7457437118
 31
0.0
  0
LINE
  5
3C7
330
2E1
100
AcDbEntity
  8
0
  6
Continuous
 62
     8
370
    25
100
AcDbLine
 10
-2.3901193756
 20
1.9311180736
 30
0.0
 11
-2.3921873839
 21
1.9299242378
 31
0.0
  0
LINE
  5
3C8
330
2E1
100
AcDbEntity
  8
0
  6
Continuous
 62
     8
370
    25
100
AcDbLine
 10
-2.3880067756
 20
1.9321254141
 30
0.0
 11
-2.3960947564
 21
1.9274563222
 31
0.0
  0
ARC
  5
3C9
330
2E1
100
AcDbEntity
  8
0
  6
Continuous
 62
     7
370
    25
100
AcDbCircle
 10
1.4649417986
 20
-0.4076810625
 30
0.0
 40
0.2409695599266286
100
AcDbArc
 50
2.4763980378
 51
57.5236021078
  0
ARC
  5
3CA
330
2E1
100
AcDbEntity
  8
0
  6
Continuous
 62
     7
370
    25
100
AcDbCircle
 10
1.46997013
 20
-0.4047779538
 30
0.0
 40
0.1651762647508543
100
AcDbArc
 50
2.6054784857
 51
57.39452166
  0
ARC
  5
3CB
330
2E1
100
AcDbEntity
  8
0
  6
Continuous
 62
     7
370
    25
100
AcDbCircle
 10
1.7411031871
 20
-0.2482564864
 30
0.0
 40
0.2409695599266307
100
AcDbArc
 50
2.4763980378
 51
57.5236021078
  0
ARC
  5
3CC
330
2E1
100
AcDbEntity
  8
0
  6
Continuous
 62
     7
370
    25
100
AcDbCircle
 10
-2.3051356196
 20
-0.0773528209
 30
0.0
 40
0.1651762647508546
100
AcDbArc
 50
182.6054784857
 51
237.39452166
  0
ARC
  5
3CD
330
2E1
100
AcDbEntity
  8
0
  6
Continuous
 62
     7
370
    25
100
AcDbCircle
 10
-2.4238091209
 20
1.9800799776
 30
0.0
 40
0.0469376420858174
100
AcDbArc
 50
50.7967147643
 51
189.2140369905
  0
ARC
  5
3CE
330
2E1
100
AcDbEntity
  8
0
  6
Continuous
 62
     7
370
    25
100
AcDbCircle
 10
1.5886436313
 20
-2.4622107523
 30
0.0
 40
0.0469376420858169
100
AcDbArc
 50
230.7967147643
 51
9.2140369905
  0
ARC
  5
3CF
330
2E1
100
AcDbEntity
  8
0
  6
Continuous
 62
     7
370
    25
100
AcDbCircle
 10
0.138694388
 20
-0.592162767
 30
0.0
 40
0.041050664558277
100
AcDbArc
 50
230.7967147643
 51
9.2140369905
  0
ARC
  5
3D0
330
2E1
100
AcDbEntity
  8
0
  6
Continuous
 62
     7
370
    25
100
AcDbCircle
 10
0.034905065
 20
-0.5921565307
 30
0.0
 40
0.1444596519117748
100
AcDbArc
 50
2.6054784857
 51
57.39452166
  0
ARC
  5
3D1
330
2E1
100
AcDbEntity
  8
0
  6
Continuous
 62
     7
370
    25
100
AcDbCircle
 10
-0.5768649258
 20
-1.1314219751
 30
0.0
 40
0.0459807922612648
100
AcDbArc
 50
307.7709539049
 51
5.2937807059
  0
ARC
  5
3D2
330
2E1
100
AcDbEntity
  8
0
  6
Continuous
 62
     7
370
    25
100
AcDbCircle
 10
-0.6617695763
 20
-1.1318030528
 30
0.0
 40
0.1307710766186684
100
AcDbArc
 50
2.026101075
 51
31.9110170548
  0
ARC
  5
3D3
330
2E1
100
AcDbEntity
  8
0
  6
Continuous
 62
     7
370
    25
100
AcDbCircle
 10
-0.5537033235
 20
0.7828976562
 30
0.0
 40
0.0446064624471477
100
AcDbArc
 50
303.5993632003
 51
5.9507345165
  0
ARC
  5
3D4
330
2E1
100
AcDbEntity
  8
0
  6
Continuous
 62
     7
370
    25
100
AcDbCircle
 10
-0.6386394739
 20
0.7831857855
 30
0.0
 40
0.1293749401131411
100
AcDbArc
 50
1.9207909461
 51
30.7541871474
  0
ARC
  5
3D5
330
2E1
100
AcDbEntity
  8
0
  6
Continuous
 62
     7
370
    25
100
AcDbCircle
 10
1.5331483323
 20
-2.3733698541
 30
0.0
 40
0.0456288886419077
100
AcDbArc
 50
306.749932947
 51
5.4546185524
  0
ARC
  5
3D6
330
2E1
100
AcDbEntity
  8
0
  6
Continuous
 62
     7
370
    25
100
AcDbCircle
 10
1.4478812825
 20
-2.3736558752
 30
0.0
 40
0.1307710766186463
100
AcDbArc
 50
2.026101075
 51
31.9110170548
  0
ARC
  5
3D7
330
2E1
100
AcDbEntity
  8
0
  6
Continuous
 62
     7
370
    25
100
AcDbCircle
 10
1.5341843119
 20
-0.4224429971
 30
0.0
 40
0.0446064624471472
100
AcDbArc
 50
303.5993632003
 51
5.9507345165
  0
ARC
  5
3D8
330
2E1
100
AcDbEntity
  8
0
  6
Continuous
 62
     7
370
    25
100
AcDbCircle
 10
1.44972011
 20
-0.4220598513
 30
0.0
 40
0.1289000962485962
100
AcDbArc
 50
1.8856114248
 51
30.3727043952
  0
ARC
  5
3D9
330
2E1
100
AcDbEntity
  8
0
  6
Continuous
 62
     7
370
    25
100
AcDbCircle
 10
1.5582273426
 20
-2.32437231
 30
0.0
 40
0.082921330224008
100
AcDbArc
 50
201.2401077793
 51
274.2865303873
  0
ARC
  5
3DA
330
2E1
100
AcDbEntity
  8
0
  6
Continuous
 62
     7
370
    25
100
AcDbCircle
 10
-0.2273061118
 20
0.6800385378
 30
0.0
 40
0.0850354804057253
100
AcDbArc
 50
145.9515350372
 51
220.2299569329
  0
ARC
  5
3DB
330
2E1
100
AcDbEntity
  8
0
  6
Continuous
 62
     7
370
    25
100
AcDbCircle
 10
1.6374599188
 20
-2.4651171783
 30
0.0
 40
0.0690178550641293
100
AcDbArc
 50
231.325426758
 51
8.6853249967
  0
ARC
  5
3DC
330
2E1
100
AcDbEntity
  8
0
  6
Continuous
 62
     7
370
    25
100
AcDbCircle
 10
1.9052459207
 20
-2.3040430919
 30
0.0
 40
0.0771024910500644
100
AcDbArc
 50
304.7789244315
 51
6.5332559619
  0
ARC
  5
3DD
330
2E1
100
AcDbEntity
  8
0
  6
Continuous
 62
     7
370
    25
100
AcDbCircle
 10
-0.5513511999
 20
-1.0826494562
 30
0.0
 40
0.0829267054494018
100
AcDbArc
 50
201.1999775838
 51
274.1098220096
  0
ARC
  5
3DE
330
2E1
100
AcDbEntity
  8
0
  6
Continuous
 62
     7
370
    25
100
AcDbCircle
 10
-2.315159898
 20
1.8852699852
 30
0.0
 40
0.0850279854674514
100
AcDbArc
 50
145.780657377
 51
220.1886531622
  0
ARC
  5
3DF
330
2E1
100
AcDbEntity
  8
0
  6
Continuous
 62
     7
370
    25
100
AcDbCircle
 10
0.1554252413
 20
-0.5740789527
 30
0.0
 40
0.0507859138411677
100
AcDbArc
 50
235.5095587679
 51
282.2319132248
  0
ARC
  5
3E0
330
2E1
100
AcDbEntity
  8
0
  6
Continuous
 62
     7
370
    25
100
AcDbCircle
 10
-2.4019147302
 20
2.0238068091
 30
0.0
 40
0.0690178550641291
100
AcDbArc
 50
51.325426758
 51
188.6853249967
  0
ARC
  5
3E1
330
2E1
100
AcDbEntity
  8
0
  6
Continuous
 62
     7
370
    25
100
AcDbCircle
 10
-2.1287422172
 20
2.1728371917
 30
0.0
 40
0.0791099704324299
100
AcDbArc
 50
54.3410619984
 51
114.3484795725
  0
ARC
  5
3E2
330
2E1
100
AcDbEntity
  8
0
  6
Continuous
 62
     7
370
    25
100
AcDbCircle
 10
1.8471699478
 20
-0.1870254487
 30
0.0
 40
0.2409687985712431
100
AcDbArc
 50
2.476303705
 51
57.5236964406
  0
ARC
  5
3E3
330
2E1
100
AcDbEntity
  8
0
  6
Continuous
 62
     7
370
    25
100
AcDbCircle
 10
2.0091770725
 20
-2.2418465845
 30
0.0
 40
0.0791227314218354
100
AcDbArc
 50
305.6497565293
 51
5.662423864
  0
ARC
  5
3E4
330
2E1
100
AcDbEntity
  8
0
  6
Continuous
 62
     7
370
    25
100
AcDbCircle
 10
-2.0224453671
 20
2.2363988768
 30
0.0
 40
0.0770903007963537
100
AcDbArc
 50
53.4704316722
 51
115.2191098987
  0
VIEWPORT
  5
636
330
2E1
100
AcDbEntity
  8
0
100
AcDbViewport
 10
0.0
 20
0.0
 30
0.0
 40
8.4
 41
6.4
 68
     1
 69
     1
 12
-0.1261158356
 22
-0.123498398
 13
0.0
 23
0.0
 14
0.5
 24
0.5
 15
0.5
 25
0.5
 16
0.0
 26
0.0
 36
1.0
 17
0.0
 27
0.0
 37
0.0
 42
50.0
 43
0.0
 44
0.0
 45
4.2550648675
 50
0.0
 51
0.0
 72
   100
 90
   557152
  1

281
     0
 71
     1
 74
     0
110
0.0
120
0.0
130
0.0
111
1.0
121
0.0
131
0.0
112
0.0
122
1.0
132
0.0
 79
     0
146
0.0
  0
ENDBLK
  5
2E4
330
2E1
100
AcDbEntity
  8
0
100
AcDbBlockEnd
  0
BLOCK
  5
3E7
330
3E5
100
AcDbEntity
  8
0
100
AcDbBlockBegin
  2
*Paper_Space6
 70
     0
 10
0.0
 20
0.0
 30
0.0
  3
*Paper_Space6
  1

  0
LWPOLYLINE
  5
3FB
330
3E5
100
AcDbEntity
  8
0
  6
Continuous
 62
     7
370
    25
100
AcDbPolyline
 90
       15
 70
   128
 43
0.0
 10
-0.9389211044
 20
-0.0081532347
 10
-0.9574204498
 20
-0.0051456606
 10
-0.9749921607
 20
-0.0063292018
 10
-0.9907551183
 20
-0.0116445108
 10
-1.0039189019
 20
-0.0208250557
 10
-1.0138234246
 20
-0.0334104857
 10
-1.0199720322
 20
-0.0487697147
 10
-1.0220564078
 20
-0.0661325669
 10
-1.0199720322
 20
-0.0846283963
 10
-1.0138234246
 20
-0.1033297449
 10
-1.0039189019
 20
-0.1212988489
 10
-0.9907551183
 20
-0.1376346625
 10
-0.9749921607
 20
-0.1515180397
 10
-0.9574204498
 20
-0.16225281
 10
-0.9389211044
 20
-0.1693006872
  0
LWPOLYLINE
  5
434
330
3E5
100
AcDbEntity
  8
0
  6
Continuous
 62
     7
370
    25
100
AcDbPolyline
 90
       14
 70
   128
 43
0.0
 10
2.413952114
 20
-0.9025261388
 10
2.4150733254
 20
-0.9183916634
 10
2.4183717992
 20
-0.9311464679
 10
2.4236558398
 20
-0.9400492893
 10
2.4306183581
 20
-0.944582728
 10
2.4388547179
 20
-0.9444833171
 10
2.4478862518
 20
-0.9397568339
 10
2.4571880799
 20
-0.9306779645
 10
2.4662196138
 20
-0.9177743398
 10
2.4744559735
 20
-0.9017958715
 10
2.4814184918
 20
-0.8836711701
 10
2.4867025325
 20
-0.8644535774
 10
2.4900010062
 20
-0.84525995
 10
2.4911222177
 20
-0.8272057518
  0
LWPOLYLINE
  5
435
330
3E5
100
AcDbEntity
  8
0
  6
Continuous
 62
     7
370
    25
100
AcDbPolyline
 90
       14
 70
   128
 43
0.0
 10
2.4911222177
 20
-0.8272057518
 10
2.4900010062
 20
-0.8113402272
 10
2.4867025325
 20
-0.7985854227
 10
2.4814184918
 20
-0.7896826013
 10
2.4744559735
 20
-0.7851491625
 10
2.4662196138
 20
-0.7852485735
 10
2.4571880799
 20
-0.7899750566
 10
2.4478862518
 20
-0.799053926
 10
2.4388547179
 20
-0.8119575508
 10
2.4306183581
 20
-0.8279360191
 10
2.4236558398
 20
-0.8460607205
 10
2.4183717992
 20
-0.8652783132
 10
2.4150733254
 20
-0.8844719406
 10
2.413952114
 20
-0.9025261388
  0
LWPOLYLINE
  5
45D
330
3E5
100
AcDbEntity
  8
0
  6
Continuous
 62
     7
370
    25
100
AcDbPolyline
 90
       11
 70
   128
 43
0.0
 10
-0.9997177024
 20
-0.0172477002
 10
-1.0046365075
 20
-0.0244437729
 10
-1.0107851151
 20
-0.0398030019
 10
-1.0128694907
 20
-0.0571658541
 10
-1.0107851151
 20
-0.0756616836
 10
-1.0046365075
 20
-0.0943630322
 10
-0.9947319848
 20
-0.1123321362
 10
-0.9815682012
 20
-0.1286679498
 10
-0.9658052436
 20
-0.142551327
 10
-0.9482335327
 20
-0.1532860973
 10
-0.9297341873
 20
-0.1603339745
  0
LINE
  5
481
330
3E5
100
AcDbEntity
  8
0
  6
Continuous
 62
     7
370
    25
100
AcDbLine
 10
2.3299162041
 20
-2.1107085158
 30
0.0
 11
2.5821889478
 21
-1.8644825841
 31
0.0
  0
LINE
  5
482
330
3E5
100
AcDbEntity
  8
0
  6
Continuous
 62
     7
370
    25
100
AcDbLine
 10
-2.5821889478
 20
1.8644825841
 30
0.0
 11
-2.8344616915
 21
1.6182566525
 31
0.0
  0
LINE
  5
483
330
3E5
100
AcDbEntity
  8
0
  6
Continuous
 62
     7
370
    25
100
AcDbLine
 10
2.359198088
 20
0.1239280653
 30
0.0
 11
2.2916424125
 21
0.1131709097
 31
0.0
  0
LINE
  5
484
330
3E5
100
AcDbEntity
  8
0
  6
Continuous
 62
     7
370
    25
100
AcDbLine
 10
2.2199196437
 20
0.2967679386
 30
0.0
 11
2.1965848742
 21
0.2311341232
 31
0.0
  0
LINE
  5
485
330
3E5
100
AcDbEntity
  8
0
  6
Continuous
 62
     7
370
    25
100
AcDbLine
 10
2.359198088
 20
0.1239280653
 30
0.0
 11
2.6114708317
 21
0.3701539969
 31
0.0
  0
LINE
  5
486
330
3E5
100
AcDbEntity
  8
0
  6
Continuous
 62
     7
370
    25
100
AcDbLine
 10
2.2199196437
 20
0.2967679386
 30
0.0
 11
2.4721923874
 21
0.5429938702
 31
0.0
  0
LINE
  5
487
330
3E5
100
AcDbEntity
  8
0
  6
Continuous
 62
     7
370
    25
100
AcDbLine
 10
-2.7477999005
 20
-0.7691368871
 30
0.0
 11
2.1965848742
 21
-2.1129147235
 31
0.0
  0
LINE
  5
488
330
3E5
100
AcDbEntity
  8
0
  6
Continuous
 62
     7
370
    25
100
AcDbLine
 10
-2.8428574388
 20
1.5086179502
 30
0.0
 11
-2.8428574388
 21
-0.6511736736
 31
0.0
  0
LINE
  5
489
330
3E5
100
AcDbEntity
  8
0
  6
Continuous
 62
     7
370
    25
100
AcDbLine
 10
2.1965848742
 20
0.2311341232
 30
0.0
 11
-2.7477999005
 21
1.5749119596
 31
0.0
  0
LINE
  5
48A
330
3E5
100
AcDbEntity
  8
0
  6
Continuous
 62
     7
370
    25
100
AcDbLine
 10
2.2916424125
 20
-2.0466207142
 30
0.0
 11
2.2916424125
 21
0.1131709097
 31
0.0
  0
LINE
  5
48B
330
3E5
100
AcDbEntity
  8
0
  6
Continuous
 62
     7
370
    25
100
AcDbLine
 10
-0.9389211044
 20
-0.1693006872
 30
0.0
 11
0.3877060781
 21
-0.5298495292
 31
0.0
  0
LINE
  5
48C
330
3E5
100
AcDbEntity
  8
0
  6
Continuous
 62
     7
370
    25
100
AcDbLine
 10
0.3877060781
 20
-0.3687020767
 30
0.0
 11
-0.9389211044
 21
-0.0081532347
 31
0.0
  0
LINE
  5
48D
330
3E5
100
AcDbEntity
  8
0
  6
Continuous
 62
     7
370
    25
100
AcDbLine
 10
-1.581342929
 20
0.1972961042
 30
0.0
 11
-2.6328177726
 21
1.4565107851
 31
0.0
  0
LINE
  5
48E
330
3E5
100
AcDbEntity
  8
0
  6
Continuous
 62
     7
370
    25
100
AcDbLine
 10
-2.7453563155
 20
1.4845985407
 30
0.0
 11
-2.7502434855
 21
1.4809681556
 31
0.0
  0
LINE
  5
48F
330
3E5
100
AcDbEntity
  8
0
  6
Continuous
 62
     7
370
    25
100
AcDbLine
 10
-2.747666267
 20
1.3711967339
 30
0.0
 11
-1.7017011229
 21
0.1185803037
 31
0.0
  0
LINE
  5
490
330
3E5
100
AcDbEntity
  8
0
  6
Continuous
 62
     7
370
    25
100
AcDbLine
 10
-1.7017011229
 20
0.1185803037
 30
0.0
 11
-2.7476915273
 21
-0.5655108195
 31
0.0
  0
LINE
  5
491
330
3E5
100
AcDbEntity
  8
0
  6
Continuous
 62
     7
370
    25
100
AcDbLine
 10
-2.7496430091
 20
-0.6746791729
 30
0.0
 11
-2.74469795
 21
-0.680928154
 31
0.0
  0
LINE
  5
492
330
3E5
100
AcDbEntity
  8
0
  6
Continuous
 62
     7
370
    25
100
AcDbLine
 10
-2.6327851437
 20
-0.7132137301
 30
0.0
 11
-1.581342929
 21
-0.0255570531
 31
0.0
  0
LINE
  5
493
330
3E5
100
AcDbEntity
  8
0
  6
Continuous
 62
     7
370
    25
100
AcDbLine
 10
-1.581342929
 20
-0.0255570531
 30
0.0
 11
-0.5570306792
 21
-1.2522426278
 31
0.0
  0
LINE
  5
494
330
3E5
100
AcDbEntity
  8
0
  6
Continuous
 62
     7
370
    25
100
AcDbLine
 10
-0.4444921363
 20
-1.2803303835
 30
0.0
 11
-0.4396049663
 21
-1.2766999983
 31
0.0
  0
LINE
  5
495
330
3E5
100
AcDbEntity
  8
0
  6
Continuous
 62
     7
370
    25
100
AcDbLine
 10
-0.4421821848
 20
-1.1669285767
 30
0.0
 11
-1.4609847351
 21
0.0531587474
 31
0.0
  0
LINE
  5
496
330
3E5
100
AcDbEntity
  8
0
  6
Continuous
 62
     7
370
    25
100
AcDbLine
 10
-1.4609847351
 20
0.0531587474
 30
0.0
 11
-0.4149869606
 21
0.7372546907
 31
0.0
  0
LINE
  5
497
330
3E5
100
AcDbEntity
  8
0
  6
Continuous
 62
     7
370
    25
100
AcDbLine
 10
-0.4130354787
 20
0.8464230442
 30
0.0
 11
-0.4179805379
 21
0.8526720252
 31
0.0
  0
LINE
  5
498
330
3E5
100
AcDbEntity
  8
0
  6
Continuous
 62
     7
370
    25
100
AcDbLine
 10
-0.5298933441
 20
0.8849576014
 30
0.0
 11
-1.581342929
 21
0.1972961042
 31
0.0
  0
LINE
  5
499
330
3E5
100
AcDbEntity
  8
0
  6
Continuous
 62
     7
370
    25
100
AcDbLine
 10
-0.1381795476
 20
0.7717230915
 30
0.0
 11
-0.1332344884
 21
0.7752841503
 31
0.0
  0
LINE
  5
49A
330
3E5
100
AcDbEntity
  8
0
  6
Continuous
 62
     7
370
    25
100
AcDbLine
 10
0.9097697088
 20
-0.5911615113
 30
0.0
 11
-0.1362280657
 21
0.6614939962
 31
0.0
  0
LINE
  5
49B
330
3E5
100
AcDbEntity
  8
0
  6
Continuous
 62
     7
370
    25
100
AcDbLine
 10
-0.1090328415
 20
-1.2574714297
 30
0.0
 11
0.9097697088
 21
-0.5911615113
 31
0.0
  0
LINE
  5
49C
330
3E5
100
AcDbEntity
  8
0
  6
Continuous
 62
     7
370
    25
100
AcDbLine
 10
-0.10672289
 20
-1.3721288271
 30
0.0
 11
-0.11161006
 21
-1.3658419858
 31
0.0
  0
LINE
  5
49D
330
3E5
100
AcDbEntity
  8
0
  6
Continuous
 62
     7
370
    25
100
AcDbLine
 10
1.0301279027
 20
-0.7352988682
 30
0.0
 11
0.0058156529
 21
-1.4052122005
 31
0.0
  0
LINE
  5
49E
330
3E5
100
AcDbEntity
  8
0
  6
Continuous
 62
     7
370
    25
100
AcDbLine
 10
2.0815701174
 20
-1.9944744737
 30
0.0
 11
1.0301279027
 21
-0.7352988682
 31
0.0
  0
LINE
  5
49F
330
3E5
100
AcDbEntity
  8
0
  6
Continuous
 62
     7
370
    25
100
AcDbLine
 10
2.1984279828
 20
-2.0194588442
 30
0.0
 11
2.1934829237
 21
-2.023019903
 31
0.0
  0
LINE
  5
4A0
330
3E5
100
AcDbEntity
  8
0
  6
Continuous
 62
     7
370
    25
100
AcDbLine
 10
1.1504860966
 20
-0.6565830676
 30
0.0
 11
2.196476501
 21
-1.9092297489
 31
0.0
  0
LINE
  5
4A1
330
3E5
100
AcDbEntity
  8
0
  6
Continuous
 62
     7
370
    25
100
AcDbLine
 10
2.1964512407
 20
0.027491535
 30
0.0
 11
1.1504860966
 21
-0.6565830676
 31
0.0
  0
LINE
  5
4A2
330
3E5
100
AcDbEntity
  8
0
  6
Continuous
 62
     7
370
    25
100
AcDbLine
 10
2.1941412892
 20
0.1421489324
 30
0.0
 11
2.1990284592
 21
0.1358620911
 31
0.0
  0
LINE
  5
4A3
330
3E5
100
AcDbEntity
  8
0
  6
Continuous
 62
     7
370
    25
100
AcDbLine
 10
1.0301279027
 20
-0.5124457108
 30
0.0
 11
2.0816027463
 21
0.1752323059
 31
0.0
  0
LINE
  5
4A4
330
3E5
100
AcDbEntity
  8
0
  6
Continuous
 62
     7
370
    25
100
AcDbLine
 10
-0.0213216821
 20
0.746738721
 30
0.0
 11
1.0301279027
 21
-0.5124457108
 31
0.0
  0
LINE
  5
4A5
330
3E5
100
AcDbEntity
  8
0
  6
Continuous
 62
     7
370
    25
100
AcDbLine
 10
-2.7244651311
 20
1.640545775
 30
0.0
 11
2.2199196437
 21
0.2967679386
 31
0.0
  0
LINE
  5
4A6
330
3E5
100
AcDbEntity
  8
0
  6
Continuous
 62
     7
370
    25
100
AcDbLine
 10
-2.7244651311
 20
1.640545775
 30
0.0
 11
-2.7477999005
 21
1.5749119596
 31
0.0
  0
LINE
  5
4A7
330
3E5
100
AcDbEntity
  8
0
  6
Continuous
 62
     7
370
    25
100
AcDbLine
 10
2.359198088
 20
0.1239280653
 30
0.0
 11
2.359198088
 21
-2.0358635586
 31
0.0
  0
LINE
  5
4A8
330
3E5
100
AcDbEntity
  8
0
  6
Continuous
 62
     7
370
    25
100
AcDbLine
 10
2.2916424125
 20
-2.0466207142
 30
0.0
 11
2.359198088
 21
-2.0358635586
 31
0.0
  0
LINE
  5
4A9
330
3E5
100
AcDbEntity
  8
0
  6
Continuous
 62
     7
370
    25
100
AcDbLine
 10
-2.7244651311
 20
1.640545775
 30
0.0
 11
-2.4721923874
 21
1.8867717066
 31
0.0
  0
LINE
  5
4AA
330
3E5
100
AcDbEntity
  8
0
  6
Continuous
 62
     7
370
    25
100
AcDbLine
 10
-2.5421966957
 20
1.8184453556
 30
0.0
 11
2.402188079
 21
0.4746675192
 31
0.0
  0
LINE
  5
4AB
330
3E5
100
AcDbEntity
  8
0
  6
Continuous
 62
     7
370
    25
100
AcDbLine
 10
2.359198088
 20
-2.0358635586
 30
0.0
 11
2.6114708317
 21
-1.7896376269
 31
0.0
  0
LINE
  5
4AC
330
3E5
100
AcDbEntity
  8
0
  6
Continuous
 62
     7
370
    25
100
AcDbLine
 10
2.5414665234
 20
0.3018276459
 30
0.0
 11
2.5414665234
 21
-1.8579639779
 31
0.0
  0
LINE
  5
4AD
330
3E5
100
AcDbEntity
  8
0
  6
Continuous
 62
     7
370
    25
100
AcDbLine
 10
2.2086482674
 20
0.0385806833
 30
0.0
 11
2.2056381578
 21
0.0364582477
 31
0.0
  0
LINE
  5
4AE
330
3E5
100
AcDbEntity
  8
0
  6
Continuous
 62
     7
370
    25
100
AcDbLine
 10
2.2056381578
 20
0.0364582477
 30
0.0
 11
1.1596730137
 21
-0.6476163549
 31
0.0
  0
LINE
  5
4AF
330
3E5
100
AcDbEntity
  8
0
  6
Continuous
 62
     7
370
    25
100
AcDbLine
 10
2.2076148999
 20
-2.0104921315
 30
0.0
 11
2.2026698408
 21
-2.0140531903
 31
0.0
  0
LINE
  5
4B0
330
3E5
100
AcDbEntity
  8
0
  6
Continuous
 62
     7
370
    25
100
AcDbLine
 10
2.0907570345
 20
-1.9855077609
 30
0.0
 11
1.0393148198
 21
-0.7263321554
 31
0.0
  0
LINE
  5
4B1
330
3E5
100
AcDbEntity
  8
0
  6
Continuous
 62
     7
370
    25
100
AcDbLine
 10
1.0393148198
 20
-0.7263321554
 30
0.0
 11
0.01500257
 21
-1.3962454878
 31
0.0
  0
LINE
  5
4B2
330
3E5
100
AcDbEntity
  8
0
  6
Continuous
 62
     7
370
    25
100
AcDbLine
 10
-0.0975359729
 20
-1.3631621143
 30
0.0
 11
-0.1024231429
 21
-1.356875273
 31
0.0
  0
LINE
  5
4B3
330
3E5
100
AcDbEntity
  8
0
  6
Continuous
 62
     7
370
    25
100
AcDbLine
 10
0.9189566259
 20
-0.5821947986
 30
0.0
 11
-0.1270411486
 21
0.6704607089
 31
0.0
  0
LINE
  5
4B4
330
3E5
100
AcDbEntity
  8
0
  6
Continuous
 62
     7
370
    25
100
AcDbLine
 10
2.2056381578
 20
0.0364582477
 30
0.0
 11
2.1964512407
 21
0.027491535
 31
0.0
  0
LINE
  5
4B5
330
3E5
100
AcDbEntity
  8
0
  6
Continuous
 62
     7
370
    25
100
AcDbLine
 10
1.1596730137
 20
-0.6476163549
 30
0.0
 11
1.1504860966
 21
-0.6565830676
 31
0.0
  0
LINE
  5
4B6
330
3E5
100
AcDbEntity
  8
0
  6
Continuous
 62
     7
370
    25
100
AcDbLine
 10
-0.1270411486
 20
0.6704607089
 30
0.0
 11
-0.1362280657
 21
0.6614939962
 31
0.0
  0
LINE
  5
4B7
330
3E5
100
AcDbEntity
  8
0
  6
Continuous
 62
     7
370
    25
100
AcDbLine
 10
0.9189566259
 20
-0.5821947986
 30
0.0
 11
0.9097697088
 21
-0.5911615113
 31
0.0
  0
LINE
  5
4B8
330
3E5
100
AcDbEntity
  8
0
  6
Continuous
 62
     7
370
    25
100
AcDbLine
 10
1.0393148198
 20
-0.7263321554
 30
0.0
 11
1.0301279027
 21
-0.7352988682
 31
0.0
  0
LINE
  5
4B9
330
3E5
100
AcDbEntity
  8
0
  6
Continuous
 62
     7
370
    25
100
AcDbLine
 10
2.0907570345
 20
-1.9855077609
 30
0.0
 11
2.0815701174
 21
-1.9944744737
 31
0.0
  0
LINE
  5
4BA
330
3E5
100
AcDbEntity
  8
0
  6
Continuous
 62
     7
370
    25
100
AcDbLine
 10
-0.4058000435
 20
0.7462214035
 30
0.0
 11
-0.4027899339
 21
0.7483438391
 31
0.0
  0
LINE
  5
4BB
330
3E5
100
AcDbEntity
  8
0
  6
Continuous
 62
     7
370
    25
100
AcDbLine
 10
-1.451797818
 20
0.0621254601
 30
0.0
 11
-0.4058000435
 21
0.7462214035
 31
0.0
  0
LINE
  5
4BC
330
3E5
100
AcDbEntity
  8
0
  6
Continuous
 62
     7
370
    25
100
AcDbLine
 10
-0.4353052192
 20
-1.2713636707
 30
0.0
 11
-0.4304180492
 21
-1.2677332856
 31
0.0
  0
LINE
  5
4BD
330
3E5
100
AcDbEntity
  8
0
  6
Continuous
 62
     7
370
    25
100
AcDbLine
 10
-1.5721560119
 20
-0.0165903404
 30
0.0
 11
-0.5478437621
 21
-1.2432759151
 31
0.0
  0
LINE
  5
4BE
330
3E5
100
AcDbEntity
  8
0
  6
Continuous
 62
     7
370
    25
100
AcDbLine
 10
-2.6235982266
 20
-0.7042470174
 30
0.0
 11
-1.5721560119
 21
-0.0165903404
 31
0.0
  0
LINE
  5
4BF
330
3E5
100
AcDbEntity
  8
0
  6
Continuous
 62
     7
370
    25
100
AcDbLine
 10
-2.740456092
 20
-0.6657124602
 30
0.0
 11
-2.7355110329
 21
-0.6719614412
 31
0.0
  0
LINE
  5
4C0
330
3E5
100
AcDbEntity
  8
0
  6
Continuous
 62
     7
370
    25
100
AcDbLine
 10
-2.7384793499
 20
1.3801634467
 30
0.0
 11
-1.6925142058
 21
0.1275470164
 31
0.0
  0
LINE
  5
4C1
330
3E5
100
AcDbEntity
  8
0
  6
Continuous
 62
     7
370
    25
100
AcDbLine
 10
-0.4058000435
 20
0.7462214035
 30
0.0
 11
-0.4149869606
 21
0.7372546907
 31
0.0
  0
LINE
  5
4C2
330
3E5
100
AcDbEntity
  8
0
  6
Continuous
 62
     7
370
    25
100
AcDbLine
 10
2.1965848742
 20
-2.1129147235
 30
0.0
 11
2.2199196437
 21
-2.1329976382
 31
0.0
  0
LINE
  5
4C3
330
3E5
100
AcDbEntity
  8
0
  6
Continuous
 62
     7
370
    25
100
AcDbLine
 10
0.01500257
 20
-1.3962454878
 30
0.0
 11
0.0058156529
 21
-1.4052122005
 31
0.0
  0
LINE
  5
4C4
330
3E5
100
AcDbEntity
  8
0
  6
Continuous
 62
     7
370
    25
100
AcDbLine
 10
-1.451797818
 20
0.0621254601
 30
0.0
 11
-1.4609847351
 21
0.0531587474
 31
0.0
  0
LINE
  5
4C5
330
3E5
100
AcDbEntity
  8
0
  6
Continuous
 62
     7
370
    25
100
AcDbLine
 10
2.2076148999
 20
-2.0104921315
 30
0.0
 11
2.1984279828
 21
-2.0194588442
 31
0.0
  0
LINE
  5
4C6
330
3E5
100
AcDbEntity
  8
0
  6
Continuous
 62
     7
370
    25
100
AcDbLine
 10
2.2026698408
 20
-2.0140531903
 30
0.0
 11
2.1934829237
 21
-2.023019903
 31
0.0
  0
LINE
  5
4C7
330
3E5
100
AcDbEntity
  8
0
  6
Continuous
 62
     7
370
    25
100
AcDbLine
 10
2.2199196437
 20
-2.1329976382
 30
0.0
 11
-2.7244651311
 21
-0.7892198018
 31
0.0
  0
LINE
  5
4C8
330
3E5
100
AcDbEntity
  8
0
  6
Continuous
 62
     7
370
    25
100
AcDbLine
 10
-2.7477999005
 20
-0.7691368871
 30
0.0
 11
-2.7244651311
 21
-0.7892198018
 31
0.0
  0
LINE
  5
4C9
330
3E5
100
AcDbEntity
  8
0
  6
Continuous
 62
     7
370
    25
100
AcDbLine
 10
-0.9297341873
 20
-0.1603339745
 30
0.0
 11
0.3968929952
 21
-0.5208828165
 31
0.0
  0
LINE
  5
4CA
330
3E5
100
AcDbEntity
  8
0
  6
Continuous
 62
     7
370
    25
100
AcDbLine
 10
0.3968929952
 20
-0.5208828165
 30
0.0
 11
0.3877060781
 21
-0.5298495292
 31
0.0
  0
LINE
  5
4CB
330
3E5
100
AcDbEntity
  8
0
  6
Continuous
 62
     7
370
    25
100
AcDbLine
 10
-0.9297341873
 20
-0.1603339745
 30
0.0
 11
-0.9389211044
 21
-0.1693006872
 31
0.0
  0
LINE
  5
4CC
330
3E5
100
AcDbEntity
  8
0
  6
Continuous
 62
     7
370
    25
100
AcDbLine
 10
-2.7384793499
 20
1.3801634467
 30
0.0
 11
-2.747666267
 21
1.3711967339
 31
0.0
  0
LINE
  5
4CD
330
3E5
100
AcDbEntity
  8
0
  6
Continuous
 62
     7
370
    25
100
AcDbLine
 10
-1.6925142058
 20
0.1275470164
 30
0.0
 11
-1.7017011229
 21
0.1185803037
 31
0.0
  0
LINE
  5
4CE
330
3E5
100
AcDbEntity
  8
0
  6
Continuous
 62
     7
370
    25
100
AcDbLine
 10
-1.5721560119
 20
-0.0165903404
 30
0.0
 11
-1.581342929
 21
-0.0255570531
 31
0.0
  0
LINE
  5
4CF
330
3E5
100
AcDbEntity
  8
0
  6
Continuous
 62
     7
370
    25
100
AcDbLine
 10
-0.5478437621
 20
-1.2432759151
 30
0.0
 11
-0.5570306792
 21
-1.2522426278
 31
0.0
  0
LINE
  5
4D0
330
3E5
100
AcDbEntity
  8
0
  6
Continuous
 62
     7
370
    25
100
AcDbLine
 10
-2.8637435754
 20
1.5434116953
 30
0.0
 11
-2.8428574388
 21
1.5086179502
 31
0.0
  0
LINE
  5
4D1
330
3E5
100
AcDbEntity
  8
0
  6
Continuous
 62
     7
370
    25
100
AcDbLine
 10
-0.1024231429
 20
-1.356875273
 30
0.0
 11
-0.11161006
 21
-1.3658419858
 31
0.0
  0
LINE
  5
4D2
330
3E5
100
AcDbEntity
  8
0
  6
Continuous
 62
     7
370
    25
100
AcDbLine
 10
-0.0975359729
 20
-1.3631621143
 30
0.0
 11
-0.10672289
 21
-1.3721288271
 31
0.0
  0
LINE
  5
4D3
330
3E5
100
AcDbEntity
  8
0
  6
Continuous
 62
     7
370
    25
100
AcDbLine
 10
-2.8428574388
 20
-0.6511736736
 30
0.0
 11
-2.8637435754
 21
-0.6163799285
 31
0.0
  0
LINE
  5
4D4
330
3E5
100
AcDbEntity
  8
0
  6
Continuous
 62
     7
370
    25
100
AcDbLine
 10
-2.8637435754
 20
-0.6163799285
 30
0.0
 11
-2.8637435754
 21
1.5434116953
 31
0.0
  0
LINE
  5
4D5
330
3E5
100
AcDbEntity
  8
0
  6
Continuous
 62
     7
370
    25
100
AcDbLine
 10
-2.6235982266
 20
-0.7042470174
 30
0.0
 11
-2.6327851437
 21
-0.7132137301
 31
0.0
  0
LINE
  5
4D6
330
3E5
100
AcDbEntity
  8
0
  6
Continuous
 62
     7
370
    25
100
AcDbLine
 10
-0.4304180492
 20
-1.2677332856
 30
0.0
 11
-0.4396049663
 21
-1.2766999983
 31
0.0
  0
LINE
  5
4D7
330
3E5
100
AcDbEntity
  8
0
  6
Continuous
 62
     7
370
    25
100
AcDbLine
 10
-0.4353052192
 20
-1.2713636707
 30
0.0
 11
-0.4444921363
 21
-1.2803303835
 31
0.0
  0
LINE
  5
4D8
330
3E5
100
AcDbEntity
  8
0
  6
Continuous
 62
     7
370
    25
100
AcDbLine
 10
-2.740456092
 20
-0.6657124602
 30
0.0
 11
-2.7496430091
 21
-0.6746791729
 31
0.0
  0
LINE
  5
4D9
330
3E5
100
AcDbEntity
  8
0
  6
Continuous
 62
     7
370
    25
100
AcDbLine
 10
-2.7355110329
 20
-0.6719614412
 30
0.0
 11
-2.74469795
 21
-0.680928154
 31
0.0
  0
LINE
  5
4DA
330
3E5
100
AcDbEntity
  8
0
  6
Continuous
 62
     7
370
    25
100
AcDbLine
 10
2.4721923874
 20
0.5429938702
 30
0.0
 11
-2.4721923874
 21
1.8867717066
 31
0.0
  0
LINE
  5
4DB
330
3E5
100
AcDbEntity
  8
0
  6
Continuous
 62
     7
370
    25
100
AcDbLine
 10
2.6114708317
 20
-1.7896376269
 30
0.0
 11
2.6114708317
 21
0.3701539969
 31
0.0
  0
LINE
  5
4DC
330
3E5
100
AcDbEntity
  8
0
  6
Continuous
 62
     8
370
    25
100
AcDbLine
 10
2.4383225541
 20
-0.8128559346
 30
0.0
 11
2.4911222177
 21
-0.8272057518
 31
0.0
  0
ARC
  5
4DD
330
3E5
100
AcDbEntity
  8
0
  6
Continuous
 62
     7
370
    25
100
AcDbCircle
 10
2.1689510114
 20
0.1131593497
 30
0.0
 40
0.1905516081888754
100
AcDbArc
 50
3.2397042434
 51
74.4856678949
  0
ARC
  5
4DE
330
3E5
100
AcDbEntity
  8
0
  6
Continuous
 62
     7
370
    25
100
AcDbCircle
 10
2.1613362671
 20
0.1054485553
 30
0.0
 40
0.1305347703591761
100
AcDbArc
 50
3.391562315
 51
74.3338098233
  0
ARC
  5
4DF
330
3E5
100
AcDbEntity
  8
0
  6
Continuous
 62
     7
370
    25
100
AcDbCircle
 10
2.3512194468
 20
0.2910589303
 30
0.0
 40
0.1905516081888754
100
AcDbArc
 50
3.2397042434
 51
74.4856678949
  0
ARC
  5
4E0
330
3E5
100
AcDbEntity
  8
0
  6
Continuous
 62
     7
370
    25
100
AcDbCircle
 10
-2.7125512934
 20
-0.6434513192
 30
0.0
 40
0.1305347703591762
100
AcDbArc
 50
183.391562315
 51
254.3338098233
  0
ARC
  5
4E1
330
3E5
100
AcDbEntity
  8
0
  6
Continuous
 62
     7
370
    25
100
AcDbCircle
 10
-2.7729959576
 20
1.5097425648
 30
0.0
 40
0.0698705324652116
100
AcDbArc
 50
68.862298024
 51
180.9222550965
  0
ARC
  5
4E2
330
3E5
100
AcDbEntity
  8
0
  6
Continuous
 62
     7
370
    25
100
AcDbCircle
 10
2.2217809313
 20
-2.0477453288
 30
0.0
 40
0.0698705324652112
100
AcDbArc
 50
248.862298024
 51
0.9222550965
  0
ARC
  5
4E3
330
3E5
100
AcDbEntity
  8
0
  6
Continuous
 62
     7
370
    25
100
AcDbCircle
 10
0.4097420144
 20
-0.4728537612
 30
0.0
 40
0.0611072832651786
100
AcDbArc
 50
248.862298024
 51
0.9222550965
  0
ARC
  5
4E4
330
3E5
100
AcDbEntity
  8
0
  6
Continuous
 62
     7
370
    25
100
AcDbCircle
 10
0.3568783952
 20
-0.4786240041
 30
0.0
 40
0.1141629368899525
100
AcDbArc
 50
3.391562315
 51
74.3338098233
  0
ARC
  5
4E5
330
3E5
100
AcDbEntity
  8
0
  6
Continuous
 62
     7
370
    25
100
AcDbCircle
 10
-2.7047455818
 20
1.4078159719
 30
0.0
 40
0.0868607769017413
100
AcDbArc
 50
34.0978289071
 51
117.8746159008
  0
ARC
  5
4E6
330
3E5
100
AcDbEntity
  8
0
  6
Continuous
 62
     7
370
    25
100
AcDbCircle
 10
-2.6961428078
 20
1.427322369
 30
0.0
 40
0.0761889345482088
100
AcDbArc
 50
135.2418936308
 51
227.4479981532
  0
ARC
  5
4E7
330
3E5
100
AcDbEntity
  8
0
  6
Continuous
 62
     7
370
    25
100
AcDbCircle
 10
-2.698346898
 20
-0.6209945178
 30
0.0
 40
0.0742518229548381
100
AcDbArc
 50
131.6484111465
 51
226.3033804975
  0
ARC
  5
4E8
330
3E5
100
AcDbEntity
  8
0
  6
Continuous
 62
     7
370
    25
100
AcDbCircle
 10
-2.6700676441
 20
-0.6323408332
 30
0.0
 40
0.0890528511195148
100
AcDbArc
 50
213.0657404857
 51
294.7497570936
  0
ARC
  5
4E9
330
3E5
100
AcDbEntity
  8
0
  6
Continuous
 62
     7
370
    25
100
AcDbCircle
 10
-0.48510287
 20
-1.2035478147
 30
0.0
 40
0.0868607769017423
100
AcDbArc
 50
214.0978289071
 51
297.8746159008
  0
ARC
  5
4EA
330
3E5
100
AcDbEntity
  8
0
  6
Continuous
 62
     7
370
    25
100
AcDbCircle
 10
-0.4749168603
 20
-1.2314615473
 30
0.0
 40
0.0573885642543153
100
AcDbArc
 50
307.9746217891
 51
2.0553202065
  0
ARC
  5
4EB
330
3E5
100
AcDbEntity
  8
0
  6
Continuous
 62
     7
370
    25
100
AcDbCircle
 10
-0.5173728724
 20
-1.2326433099
 30
0.0
 40
0.0998602305864614
100
AcDbArc
 50
1.8592904745
 51
41.1526255965
  0
ARC
  5
4EC
330
3E5
100
AcDbEntity
  8
0
  6
Continuous
 62
     7
370
    25
100
AcDbCircle
 10
-0.4472344805
 20
0.7841431956
 30
0.0
 40
0.0569072441014457
100
AcDbArc
 50
304.5182075525
 51
2.221143959
  0
ARC
  5
4ED
330
3E5
100
AcDbEntity
  8
0
  6
Continuous
 62
     7
370
    25
100
AcDbCircle
 10
-0.4892980705
 20
0.783336972
 30
0.0
 40
0.098973912713841
100
AcDbArc
 50
1.743766335
 51
39.5982913938
  0
ARC
  5
4EE
330
3E5
100
AcDbEntity
  8
0
  6
Continuous
 62
     7
370
    25
100
AcDbCircle
 10
-0.4926108437
 20
0.8040847044
 30
0.0
 40
0.0890528511195109
100
AcDbArc
 50
33.0657404857
 51
114.7497570936
  0
ARC
  5
4EF
330
3E5
100
AcDbEntity
  8
0
  6
Continuous
 62
     7
370
    25
100
AcDbCircle
 10
-0.0850169499
 20
0.7175324533
 30
0.0
 40
0.0759136816109066
100
AcDbArc
 50
134.451338525
 51
227.5771639232
  0
ARC
  5
4F0
330
3E5
100
AcDbEntity
  8
0
  6
Continuous
 62
     7
370
    25
100
AcDbCircle
 10
-0.0599933402
 20
-1.3128535876
 30
0.0
 40
0.0739733472268998
100
AcDbArc
 50
131.524078202
 51
225.7512718115
  0
ARC
  5
4F1
330
3E5
100
AcDbEntity
  8
0
  6
Continuous
 62
     7
370
    25
100
AcDbCircle
 10
-0.0314575392
 20
-1.3240522215
 30
0.0
 40
0.0893097589265161
100
AcDbArc
 50
212.5688720923
 51
294.6672281385
  0
ARC
  5
4F2
330
3E5
100
AcDbEntity
  8
0
  6
Continuous
 62
     7
370
    25
100
AcDbCircle
 10
2.1536757875
 20
-1.9454337326
 30
0.0
 40
0.0872021899633244
100
AcDbArc
 50
214.2205298413
 51
297.1609985075
  0
ARC
  5
4F3
330
3E5
100
AcDbEntity
  8
0
  6
Continuous
 62
     7
370
    25
100
AcDbCircle
 10
2.1638688803
 20
-1.9738001771
 30
0.0
 40
0.0572629500079253
100
AcDbArc
 50
307.1221247709
 51
2.0973345891
  0
ARC
  5
4F4
330
3E5
100
AcDbEntity
  8
0
  6
Continuous
 62
     7
370
    25
100
AcDbCircle
 10
2.1212858135
 20
-1.9749444821
 30
0.0
 40
0.0998602305864497
100
AcDbArc
 50
1.8592904745
 51
41.1526255965
  0
ARC
  5
4F5
330
3E5
100
AcDbEntity
  8
0
  6
Continuous
 62
     7
370
    25
100
AcDbCircle
 10
2.1642037207
 20
0.0743800399
 30
0.0
 40
0.0569072441014434
100
AcDbArc
 50
304.5182075525
 51
2.221143959
  0
ARC
  5
4F6
330
3E5
100
AcDbEntity
  8
0
  6
Continuous
 62
     7
370
    25
100
AcDbCircle
 10
2.1224354873
 20
0.0736482808
 30
0.0
 40
0.0986764487652813
100
AcDbArc
 50
1.7057676615
 51
39.0857565504
  0
ARC
  5
4F7
330
3E5
100
AcDbEntity
  8
0
  6
Continuous
 62
     7
370
    25
100
AcDbCircle
 10
2.1188759384
 20
0.0940723269
 30
0.0
 40
0.0893097589265139
100
AcDbArc
 50
32.5688720923
 51
114.6672281385
  0
ARC
  5
4F8
330
3E5
100
AcDbEntity
  8
0
  6
Continuous
 62
     7
370
    25
100
AcDbCircle
 10
-0.0934273522
 20
0.6976979799
 30
0.0
 40
0.0872021899633235
100
AcDbArc
 50
34.2205298413
 51
117.1609985075
  0
ARC
  5
4F9
330
3E5
100
AcDbEntity
  8
0
  6
Continuous
 62
     7
370
    25
100
AcDbCircle
 10
2.1628627046
 20
-1.9364670199
 30
0.0
 40
0.0872021899633252
100
AcDbArc
 50
214.2205298413
 51
297.1609985075
  0
ARC
  5
4FA
330
3E5
100
AcDbEntity
  8
0
  6
Continuous
 62
     7
370
    25
100
AcDbCircle
 10
-0.0222706221
 20
-1.3150855088
 30
0.0
 40
0.0893097589265163
100
AcDbArc
 50
212.5688720923
 51
294.6672281385
  0
ARC
  5
4FB
330
3E5
100
AcDbEntity
  8
0
  6
Continuous
 62
     7
370
    25
100
AcDbCircle
 10
-0.0463728181
 20
-1.3022163202
 30
0.0
 40
0.0782894630465518
100
AcDbArc
 50
147.0148706074
 51
224.2799560487
  0
ARC
  5
4FC
330
3E5
100
AcDbEntity
  8
0
  6
Continuous
 62
     7
370
    25
100
AcDbCircle
 10
-0.0719095463
 20
0.7281331368
 30
0.0
 40
0.0797847260191696
100
AcDbArc
 50
147.5519936819
 51
226.290325938
  0
ARC
  5
4FD
330
3E5
100
AcDbEntity
  8
0
  6
Continuous
 62
     7
370
    25
100
AcDbCircle
 10
-0.4759159529
 20
-1.1945811019
 30
0.0
 40
0.0868607769017421
100
AcDbArc
 50
214.0978289071
 51
297.8746159008
  0
ARC
  5
4FE
330
3E5
100
AcDbEntity
  8
0
  6
Continuous
 62
     7
370
    25
100
AcDbCircle
 10
-2.660880727
 20
-0.6233741205
 30
0.0
 40
0.0890528511195154
100
AcDbArc
 50
213.0657404857
 51
294.7497570936
  0
ARC
  5
4FF
330
3E5
100
AcDbEntity
  8
0
  6
Continuous
 62
     7
370
    25
100
AcDbCircle
 10
-2.6805687295
 20
-0.6098817723
 30
0.0
 40
0.0818752825957742
100
AcDbArc
 50
148.9349683175
 51
222.9922303446
  0
ARC
  5
500
330
3E5
100
AcDbEntity
  8
0
  6
Continuous
 62
     7
370
    25
100
AcDbCircle
 10
-2.6832309589
 20
1.4378500512
 30
0.0
 40
0.0798757100359755
100
AcDbArc
 50
147.6055227496
 51
226.2367968703
  0
ARC
  5
501
330
3E5
100
AcDbEntity
  8
0
  6
Continuous
 62
     7
370
    25
100
AcDbCircle
 10
2.2564560957
 20
-2.0369652562
 30
0.0
 40
0.1027478988627289
100
AcDbArc
 50
249.1701966397
 51
0.6143564808
  0
ARC
  5
502
330
3E5
100
AcDbEntity
  8
0
  6
Continuous
 62
     7
370
    25
100
AcDbCircle
 10
2.4391010206
 20
-1.8610656351
 30
0.0
 40
0.1024124818405772
100
AcDbArc
 50
315.5302358236
 51
1.7355213222
  0
ARC
  5
503
330
3E5
100
AcDbEntity
  8
0
  6
Continuous
 62
     7
370
    25
100
AcDbCircle
 10
0.4183913417
 20
-0.4568393075
 30
0.0
 40
0.067555532334012
100
AcDbArc
 50
251.4439498239
 51
305.5714501197
  0
ARC
  5
504
330
3E5
100
AcDbEntity
  8
0
  6
Continuous
 62
     7
370
    25
100
AcDbCircle
 10
-2.7610015831
 20
1.544513393
 30
0.0
 40
0.1027478988627294
100
AcDbArc
 50
69.1701966397
 51
180.6143564808
  0
ARC
  5
505
330
3E5
100
AcDbEntity
  8
0
  6
Continuous
 62
     7
370
    25
100
AcDbCircle
 10
-2.5780935876
 20
1.713035665
 30
0.0
 40
0.1113543430689225
100
AcDbArc
 50
71.1939084543
 51
131.7161136168
  0
ARC
  5
506
330
3E5
100
AcDbEntity
  8
0
  6
Continuous
 62
     7
370
    25
100
AcDbCircle
 10
-2.6734964988
 20
-0.6056112129
 30
0.0
 40
0.1905516081888756
100
AcDbArc
 50
183.2397042434
 51
254.4856678949
  0
ARC
  5
507
330
3E5
100
AcDbEntity
  8
0
  6
Continuous
 62
     7
370
    25
100
AcDbCircle
 10
2.4207308739
 20
0.358988106
 30
0.0
 40
0.1910665031811224
100
AcDbArc
 50
3.3502635313
 51
74.3751086071
  0
ARC
  5
508
330
3E5
100
AcDbEntity
  8
0
  6
Continuous
 62
     7
370
    25
100
AcDbCircle
 10
2.5091053289
 20
-1.7927392841
 30
0.0
 40
0.1024124818405794
100
AcDbArc
 50
315.5302358236
 51
1.7355213222
  0
ARC
  5
509
330
3E5
100
AcDbEntity
  8
0
  6
Continuous
 62
     7
370
    25
100
AcDbCircle
 10
-2.5080892793
 20
1.781362016
 30
0.0
 40
0.1113543430689316
100
AcDbArc
 50
71.1939084543
 51
131.7161136168
  0
VIEWPORT
  5
638
330
3E5
100
AcDbEntity
  8
0
100
AcDbViewport
 10
0.0
 20
0.0
 30
0.0
 40
8.4
 41
6.4
 68
     1
 69
     1
 12
-0.1261158356
 22
-0.123498398
 13
0.0
 23
0.0
 14
0.5
 24
0.5
 15
0.5
 25
0.5
 16
0.0
 26
0.0
 36
1.0
 17
0.0
 27
0.0
 37
0.0
 42
50.0
 43
0.0
 44
0.0
 45
4.2550648675
 50
0.0
 51
0.0
 72
   100
 90
   557152
  1

281
     0
 71
     1
 74
     0
110
0.0
120
0.0
130
0.0
111
1.0
121
0.0
131
0.0
112
0.0
122
1.0
132
0.0
 79
     0
146
0.0
  0
ENDBLK
  5
3E8
330
3E5
100
AcDbEntity
  8
0
100
AcDbBlockEnd
  0
BLOCK
  5
50C
330
50A
100
AcDbEntity
  8
0
100
AcDbBlockBegin
  2
*Paper_Space7
 70
     0
 10
0.0
 20
0.0
 30
0.0
  3
*Paper_Space7
  1

  0
LWPOLYLINE
  5
51D
330
50A
100
AcDbEntity
  8
0
  6
Continuous
 62
     7
370
    25
100
AcDbPolyline
 90
       15
 70
   128
 43
0.0
 10
-0.9103521324
 20
-0.0071242849
 10
-0.9299181642
 20
-0.0068811865
 10
-0.9485030734
 20
-0.0110942581
 10
-0.9651749351
 20
-0.0195522385
 10
-0.9790977526
 20
-0.0318310094
 10
-0.9895733777
 20
-0.0473148619
 10
-0.9960765187
 20
-0.0652273709
 10
-0.998281081
 20
-0.0846703285
 10
-0.9960765187
 20
-0.1046687836
 10
-0.9895733777
 20
-0.1242199302
 10
-0.9790977526
 20
-0.1423433921
 10
-0.9651749351
 20
-0.1581303832
 10
-0.9485030734
 20
-0.1707892779
 10
-0.9299181642
 20
-0.1796853064
 10
-0.9103521324
 20
-0.1843723847
  0
LWPOLYLINE
  5
557
330
50A
100
AcDbEntity
  8
0
  6
Continuous
 62
     7
370
    25
100
AcDbPolyline
 90
       14
 70
   128
 43
0.0
 10
2.6124164195
 20
-0.4799502429
 10
2.6132658132
 20
-0.4978555119
 10
2.6157646306
 20
-0.5132220021
 10
2.6197676496
 20
-0.5251566689
 10
2.6250422291
 20
-0.5329659129
 10
2.6312818299
 20
-0.5361958893
 10
2.638123829
 20
-0.5346588834
 10
2.6451705943
 20
-0.5284442206
 10
2.6520125934
 20
-0.5179130744
 10
2.6582521942
 20
-0.5036774768
 10
2.6635267738
 20
-0.4865647489
 10
2.6675297927
 20
-0.4675694203
 10
2.6700286101
 20
-0.4477954305
 10
2.6708780038
 20
-0.4283919718
  0
LWPOLYLINE
  5
558
330
50A
100
AcDbEntity
  8
0
  6
Continuous
 62
     7
370
    25
100
AcDbPolyline
 90
       14
 70
   128
 43
0.0
 10
2.6708780038
 20
-0.4283919718
 10
2.6700286101
 20
-0.4104867028
 10
2.6675297927
 20
-0.3951202126
 10
2.6635267738
 20
-0.3831855458
 10
2.6582521942
 20
-0.3753763017
 10
2.6520125934
 20
-0.3721463254
 10
2.6451705943
 20
-0.3736833313
 10
2.638123829
 20
-0.3798979941
 10
2.6312818299
 20
-0.3904291403
 10
2.6250422291
 20
-0.4046647379
 10
2.6197676496
 20
-0.4217774658
 10
2.6157646306
 20
-0.4407727944
 10
2.6132658132
 20
-0.4605467842
 10
2.6124164195
 20
-0.4799502429
  0
LINE
  5
5A3
330
50A
100
AcDbEntity
  8
0
  6
Continuous
 62
     7
370
    25
100
AcDbLine
 10
2.5277906251
 20
-1.8038739855
 30
0.0
 11
2.7189043279
 21
-1.6353275422
 31
0.0
  0
LINE
  5
5A4
330
50A
100
AcDbEntity
  8
0
  6
Continuous
 62
     7
370
    25
100
AcDbLine
 10
-2.7189043279
 20
1.6353275422
 30
0.0
 11
-2.9100180307
 21
1.4667810989
 31
0.0
  0
LINE
  5
5A5
330
50A
100
AcDbEntity
  8
0
  6
Continuous
 62
     7
370
    25
100
AcDbLine
 10
2.5709365336
 20
0.6712588548
 30
0.0
 11
2.5064881467
 21
0.6615611722
 31
0.0
  0
LINE
  5
5A6
330
50A
100
AcDbEntity
  8
0
  6
Continuous
 62
     7
370
    25
100
AcDbLine
 10
2.4236271876
 20
0.8382919527
 30
0.0
 11
2.4059495181
 21
0.7755612615
 31
0.0
  0
LINE
  5
5A7
330
50A
100
AcDbEntity
  8
0
  6
Continuous
 62
     7
370
    25
100
AcDbLine
 10
-2.8235322628
 20
-1.1438346263
 30
0.0
 11
2.4059495181
 21
-1.8026874011
 31
0.0
  0
LINE
  5
5A8
330
50A
100
AcDbEntity
  8
0
  6
Continuous
 62
     7
370
    25
100
AcDbLine
 10
-2.9240708914
 20
1.3457473002
 30
0.0
 11
-2.9240708914
 21
-1.029834537
 31
0.0
  0
LINE
  5
5A9
330
50A
100
AcDbEntity
  8
0
  6
Continuous
 62
     7
370
    25
100
AcDbLine
 10
2.4059495181
 20
0.7755612615
 30
0.0
 11
-2.8235322628
 21
1.4344140363
 31
0.0
  0
LINE
  5
5AA
330
50A
100
AcDbEntity
  8
0
  6
Continuous
 62
     7
370
    25
100
AcDbLine
 10
2.5064881467
 20
-1.7140206649
 30
0.0
 11
2.5064881467
 21
0.6615611722
 31
0.0
  0
LINE
  5
5AB
330
50A
100
AcDbEntity
  8
0
  6
Continuous
 62
     7
370
    25
100
AcDbLine
 10
-0.9103521324
 20
-0.1843723847
 30
0.0
 11
0.4927693877
 21
-0.3611490799
 31
0.0
  0
LINE
  5
5AC
330
50A
100
AcDbEntity
  8
0
  6
Continuous
 62
     7
370
    25
100
AcDbLine
 10
0.4927693877
 20
-0.1839009801
 30
0.0
 11
-0.9103521324
 21
-0.0071242849
 31
0.0
  0
LINE
  5
5AD
330
50A
100
AcDbEntity
  8
0
  6
Continuous
 62
     7
370
    25
100
AcDbLine
 10
-1.5898164905
 20
0.1124156163
 30
0.0
 11
-2.7019201775
 21
1.3232333327
 31
0.0
  0
LINE
  5
5AE
330
50A
100
AcDbEntity
  8
0
  6
Continuous
 62
     7
370
    25
100
AcDbLine
 10
-2.8209477788
 20
1.3354820296
 30
0.0
 11
-2.8261167468
 21
1.3306792176
 31
0.0
  0
LINE
  5
5AF
330
50A
100
AcDbEntity
  8
0
  6
Continuous
 62
     7
370
    25
100
AcDbLine
 10
-2.8233909238
 20
1.2103672505
 30
0.0
 11
-1.7171146299
 21
0.0058941859
 31
0.0
  0
LINE
  5
5B0
330
50A
100
AcDbEntity
  8
0
  6
Continuous
 62
     7
370
    25
100
AcDbLine
 10
-1.7171146299
 20
0.0058941859
 30
0.0
 11
-2.8234176407
 21
-0.9198458108
 31
0.0
  0
LINE
  5
5B1
330
50A
100
AcDbEntity
  8
0
  6
Continuous
 62
     7
370
    25
100
AcDbLine
 10
-2.8254816465
 20
-1.0402447704
 30
0.0
 11
-2.8202514514
 21
-1.0462988058
 31
0.0
  0
LINE
  5
5B2
330
50A
100
AcDbEntity
  8
0
  6
Continuous
 62
     7
370
    25
100
AcDbLine
 10
-2.7018856672
 20
-1.06326841
 30
0.0
 11
-1.5898164905
 21
-0.1327033605
 31
0.0
  0
LINE
  5
5B3
330
50A
100
AcDbEntity
  8
0
  6
Continuous
 62
     7
370
    25
100
AcDbLine
 10
-1.5898164905
 20
-0.1327033605
 30
0.0
 11
-0.5064416133
 21
-1.3122422023
 31
0.0
  0
LINE
  5
5B4
330
50A
100
AcDbEntity
  8
0
  6
Continuous
 62
     7
370
    25
100
AcDbLine
 10
-0.387414012
 20
-1.3244908993
 30
0.0
 11
-0.382245044
 21
-1.3196880873
 31
0.0
  0
LINE
  5
5B5
330
50A
100
AcDbEntity
  8
0
  6
Continuous
 62
     7
370
    25
100
AcDbLine
 10
-0.384970867
 20
-1.1993761202
 30
0.0
 11
-1.4625183512
 21
-0.0261819302
 31
0.0
  0
LINE
  5
5B6
330
50A
100
AcDbEntity
  8
0
  6
Continuous
 62
     7
370
    25
100
AcDbLine
 10
-1.4625183512
 20
-0.0261819302
 30
0.0
 11
-0.3562075453
 21
0.8995645894
 31
0.0
  0
LINE
  5
5B7
330
50A
100
AcDbEntity
  8
0
  6
Continuous
 62
     7
370
    25
100
AcDbLine
 10
-0.3541435395
 20
1.0199635489
 30
0.0
 11
-0.3593737345
 21
1.0260175844
 31
0.0
  0
LINE
  5
5B8
330
50A
100
AcDbEntity
  8
0
  6
Continuous
 62
     7
370
    25
100
AcDbLine
 10
-0.4777395188
 20
1.0429871886
 30
0.0
 11
-1.5898164905
 21
0.1124156163
 31
0.0
  0
LINE
  5
5B9
330
50A
100
AcDbEntity
  8
0
  6
Continuous
 62
     7
370
    25
100
AcDbLine
 10
-0.0634392052
 20
0.9833382455
 30
0.0
 11
-0.0582090102
 21
0.9880743957
 31
0.0
  0
LINE
  5
5BA
330
50A
100
AcDbEntity
  8
0
  6
Continuous
 62
     7
370
    25
100
AcDbLine
 10
1.0449356065
 20
-0.3420914346
 30
0.0
 11
-0.0613751994
 21
0.8624192054
 31
0.0
  0
LINE
  5
5BB
330
50A
100
AcDbEntity
  8
0
  6
Continuous
 62
     7
370
    25
100
AcDbLine
 10
-0.0326118777
 20
-1.24376918
 30
0.0
 11
1.0449356065
 21
-0.3420914346
 31
0.0
  0
LINE
  5
5BC
330
50A
100
AcDbEntity
  8
0
  6
Continuous
 62
     7
370
    25
100
AcDbLine
 10
-0.0301687327
 20
-1.3694995738
 30
0.0
 11
-0.0353377007
 21
-1.3633943043
 31
0.0
  0
LINE
  5
5BD
330
50A
100
AcDbEntity
  8
0
  6
Continuous
 62
     7
370
    25
100
AcDbLine
 10
1.1722337458
 20
-0.480688981
 30
0.0
 11
0.0888588686
 21
-1.3872430133
 31
0.0
  0
LINE
  5
5BE
330
50A
100
AcDbEntity
  8
0
  6
Continuous
 62
     7
370
    25
100
AcDbLine
 10
2.2843029225
 20
-1.6914691239
 30
0.0
 11
1.1722337458
 21
-0.480688981
 31
0.0
  0
LINE
  5
5BF
330
50A
100
AcDbEntity
  8
0
  6
Continuous
 62
     7
370
    25
100
AcDbLine
 10
2.4078989018
 20
-1.6995887437
 30
0.0
 11
2.4026687067
 21
-1.7043248939
 31
0.0
  0
LINE
  5
5C0
330
50A
100
AcDbEntity
  8
0
  6
Continuous
 62
     7
370
    25
100
AcDbLine
 10
1.2995318852
 20
-0.3741675507
 30
0.0
 11
2.405834896
 21
-1.5786697036
 31
0.0
  0
LINE
  5
5C1
330
50A
100
AcDbEntity
  8
0
  6
Continuous
 62
     7
370
    25
100
AcDbLine
 10
2.4058081791
 20
0.5515500898
 30
0.0
 11
1.2995318852
 21
-0.3741675507
 31
0.0
  0
LINE
  5
5C2
330
50A
100
AcDbEntity
  8
0
  6
Continuous
 62
     7
370
    25
100
AcDbLine
 10
2.4033650341
 20
0.6772804835
 30
0.0
 11
2.4085340021
 21
0.671175214
 31
0.0
  0
LINE
  5
5C3
330
50A
100
AcDbEntity
  8
0
  6
Continuous
 62
     7
370
    25
100
AcDbLine
 10
1.1722337458
 20
-0.2355700042
 30
0.0
 11
2.2843374328
 21
0.695023923
 31
0.0
  0
LINE
  5
5C4
330
50A
100
AcDbEntity
  8
0
  6
Continuous
 62
     7
370
    25
100
AcDbLine
 10
0.0601567741
 20
0.9752186257
 30
0.0
 11
1.1722337458
 21
-0.2355700042
 31
0.0
  0
LINE
  5
5C5
330
50A
100
AcDbEntity
  8
0
  6
Continuous
 62
     7
370
    25
100
AcDbLine
 10
2.5709365336
 20
0.6712588548
 30
0.0
 11
2.7620502364
 21
0.8398052981
 31
0.0
  0
LINE
  5
5C6
330
50A
100
AcDbEntity
  8
0
  6
Continuous
 62
     7
370
    25
100
AcDbLine
 10
2.4236271876
 20
0.8382919527
 30
0.0
 11
2.6147408904
 21
1.006838396
 31
0.0
  0
LINE
  5
5C7
330
50A
100
AcDbEntity
  8
0
  6
Continuous
 62
     7
370
    25
100
AcDbLine
 10
2.5709365336
 20
0.6712588548
 30
0.0
 11
2.5709365336
 21
-1.7043229823
 31
0.0
  0
LINE
  5
5C8
330
50A
100
AcDbEntity
  8
0
  6
Continuous
 62
     7
370
    25
100
AcDbLine
 10
2.5064881467
 20
-1.7140206649
 30
0.0
 11
2.5709365336
 21
-1.7043229823
 31
0.0
  0
LINE
  5
5C9
330
50A
100
AcDbEntity
  8
0
  6
Continuous
 62
     7
370
    25
100
AcDbLine
 10
-2.8058545933
 20
1.4971447275
 30
0.0
 11
2.4236271876
 21
0.8382919527
 31
0.0
  0
LINE
  5
5CA
330
50A
100
AcDbEntity
  8
0
  6
Continuous
 62
     7
370
    25
100
AcDbLine
 10
-2.8058545933
 20
1.4971447275
 30
0.0
 11
-2.8235322628
 21
1.4344140363
 31
0.0
  0
LINE
  5
5CB
330
50A
100
AcDbEntity
  8
0
  6
Continuous
 62
     7
370
    25
100
AcDbLine
 10
2.5709365336
 20
-1.7043229823
 30
0.0
 11
2.7620502364
 21
-1.5357765391
 31
0.0
  0
LINE
  5
5CC
330
50A
100
AcDbEntity
  8
0
  6
Continuous
 62
     7
370
    25
100
AcDbLine
 10
2.7090172278
 20
0.7930345807
 30
0.0
 11
2.7090172278
 21
-1.5825472564
 31
0.0
  0
LINE
  5
5CD
330
50A
100
AcDbEntity
  8
0
  6
Continuous
 62
     7
370
    25
100
AcDbLine
 10
-2.8058545933
 20
1.4971447275
 30
0.0
 11
-2.6147408904
 21
1.6656911708
 31
0.0
  0
LINE
  5
5CE
330
50A
100
AcDbEntity
  8
0
  6
Continuous
 62
     7
370
    25
100
AcDbLine
 10
-2.667773899
 20
1.6189204535
 30
0.0
 11
2.5617078819
 21
0.9600676787
 31
0.0
  0
LINE
  5
5CF
330
50A
100
AcDbEntity
  8
0
  6
Continuous
 62
     7
370
    25
100
AcDbLine
 10
2.4101036891
 20
0.5554586091
 30
0.0
 11
1.3064915976
 21
-0.3680296613
 31
0.0
  0
LINE
  5
5D0
330
50A
100
AcDbEntity
  8
0
  6
Continuous
 62
     7
370
    25
100
AcDbLine
 10
2.2912626349
 20
-1.6853312345
 30
0.0
 11
1.1791934583
 21
-0.4745510916
 31
0.0
  0
LINE
  5
5D1
330
50A
100
AcDbEntity
  8
0
  6
Continuous
 62
     7
370
    25
100
AcDbLine
 10
1.1791934583
 20
-0.4745510916
 30
0.0
 11
0.095818581
 21
-1.3811051239
 31
0.0
  0
LINE
  5
5D2
330
50A
100
AcDbEntity
  8
0
  6
Continuous
 62
     7
370
    25
100
AcDbLine
 10
-0.0232090203
 20
-1.3633616844
 30
0.0
 11
-0.0283779883
 21
-1.3572564149
 31
0.0
  0
LINE
  5
5D3
330
50A
100
AcDbEntity
  8
0
  6
Continuous
 62
     7
370
    25
100
AcDbLine
 10
1.0518953189
 20
-0.3359535452
 30
0.0
 11
-0.054415487
 21
0.8685570948
 31
0.0
  0
LINE
  5
5D4
330
50A
100
AcDbEntity
  8
0
  6
Continuous
 62
     7
370
    25
100
AcDbLine
 10
-0.0564794928
 20
0.9894761349
 30
0.0
 11
-0.0550666614
 21
0.9907555101
 31
0.0
  0
LINE
  5
5D5
330
50A
100
AcDbEntity
  8
0
  6
Continuous
 62
     7
370
    25
100
AcDbLine
 10
1.3064915976
 20
-0.3680296613
 30
0.0
 11
1.2995318852
 21
-0.3741675507
 31
0.0
  0
LINE
  5
5D6
330
50A
100
AcDbEntity
  8
0
  6
Continuous
 62
     7
370
    25
100
AcDbLine
 10
1.1791934583
 20
-0.4745510916
 30
0.0
 11
1.1722337458
 21
-0.480688981
 31
0.0
  0
LINE
  5
5D7
330
50A
100
AcDbEntity
  8
0
  6
Continuous
 62
     7
370
    25
100
AcDbLine
 10
2.2912626349
 20
-1.6853312345
 30
0.0
 11
2.2843029225
 21
-1.6914691239
 31
0.0
  0
LINE
  5
5D8
330
50A
100
AcDbEntity
  8
0
  6
Continuous
 62
     7
370
    25
100
AcDbLine
 10
-0.054415487
 20
0.8685570948
 30
0.0
 11
-0.0613751994
 21
0.8624192054
 31
0.0
  0
LINE
  5
5D9
330
50A
100
AcDbEntity
  8
0
  6
Continuous
 62
     7
370
    25
100
AcDbLine
 10
1.0518953189
 20
-0.3359535452
 30
0.0
 11
1.0449356065
 21
-0.3420914346
 31
0.0
  0
LINE
  5
5DA
330
50A
100
AcDbEntity
  8
0
  6
Continuous
 62
     7
370
    25
100
AcDbLine
 10
2.4059495181
 20
-1.8026874011
 30
0.0
 11
2.4236271876
 21
-1.8342376141
 31
0.0
  0
LINE
  5
5DB
330
50A
100
AcDbEntity
  8
0
  6
Continuous
 62
     7
370
    25
100
AcDbLine
 10
2.4236271876
 20
-1.8342376141
 30
0.0
 11
-2.8058545933
 21
-1.1753848393
 31
0.0
  0
LINE
  5
5DC
330
50A
100
AcDbEntity
  8
0
  6
Continuous
 62
     7
370
    25
100
AcDbLine
 10
-2.8235322628
 20
-1.1438346263
 30
0.0
 11
-2.8058545933
 21
-1.1753848393
 31
0.0
  0
LINE
  5
5DD
330
50A
100
AcDbEntity
  8
0
  6
Continuous
 62
     7
370
    25
100
AcDbLine
 10
-0.0564794928
 20
0.9894761349
 30
0.0
 11
-0.0634392052
 21
0.9833382455
 31
0.0
  0
LINE
  5
5DE
330
50A
100
AcDbEntity
  8
0
  6
Continuous
 62
     7
370
    25
100
AcDbLine
 10
0.095818581
 20
-1.3811051239
 30
0.0
 11
0.0888588686
 21
-1.3872430133
 31
0.0
  0
LINE
  5
5DF
330
50A
100
AcDbEntity
  8
0
  6
Continuous
 62
     7
370
    25
100
AcDbLine
 10
-1.4555586388
 20
-0.0200440408
 30
0.0
 11
-0.3519120354
 21
0.9034731088
 31
0.0
  0
LINE
  5
5E0
330
50A
100
AcDbEntity
  8
0
  6
Continuous
 62
     7
370
    25
100
AcDbLine
 10
-1.5828567781
 20
-0.1265654711
 30
0.0
 11
-0.4994819009
 21
-1.3061043129
 31
0.0
  0
LINE
  5
5E1
330
50A
100
AcDbEntity
  8
0
  6
Continuous
 62
     7
370
    25
100
AcDbLine
 10
-2.6949259548
 20
-1.0571305206
 30
0.0
 11
-1.5828567781
 21
-0.1265654711
 31
0.0
  0
LINE
  5
5E2
330
50A
100
AcDbEntity
  8
0
  6
Continuous
 62
     7
370
    25
100
AcDbLine
 10
-2.8185219341
 20
-1.0341068809
 30
0.0
 11
-2.813291739
 21
-1.0401609164
 31
0.0
  0
LINE
  5
5E3
330
50A
100
AcDbEntity
  8
0
  6
Continuous
 62
     7
370
    25
100
AcDbLine
 10
-2.8164312114
 20
1.2165051399
 30
0.0
 11
-1.7101549175
 21
0.0120320753
 31
0.0
  0
LINE
  5
5E4
330
50A
100
AcDbEntity
  8
0
  6
Continuous
 62
     7
370
    25
100
AcDbLine
 10
-2.8165329763
 20
1.3392552838
 30
0.0
 11
-2.8191570344
 21
1.336817107
 31
0.0
  0
LINE
  5
5E5
330
50A
100
AcDbEntity
  8
0
  6
Continuous
 62
     7
370
    25
100
AcDbLine
 10
-1.4555586388
 20
-0.0200440408
 30
0.0
 11
-1.4625183512
 21
-0.0261819302
 31
0.0
  0
LINE
  5
5E6
330
50A
100
AcDbEntity
  8
0
  6
Continuous
 62
     7
370
    25
100
AcDbLine
 10
-0.90339242
 20
-0.1782344953
 30
0.0
 11
0.4997291001
 21
-0.3550111905
 31
0.0
  0
LINE
  5
5E7
330
50A
100
AcDbEntity
  8
0
  6
Continuous
 62
     7
370
    25
100
AcDbLine
 10
0.4997291001
 20
-0.3550111905
 30
0.0
 11
0.4927693877
 21
-0.3611490799
 31
0.0
  0
LINE
  5
5E8
330
50A
100
AcDbEntity
  8
0
  6
Continuous
 62
     7
370
    25
100
AcDbLine
 10
-0.90339242
 20
-0.1782344953
 30
0.0
 11
-0.9103521324
 21
-0.1843723847
 31
0.0
  0
LINE
  5
5E9
330
50A
100
AcDbEntity
  8
0
  6
Continuous
 62
     7
370
    25
100
AcDbLine
 10
-1.5828567781
 20
-0.1265654711
 30
0.0
 11
-1.5898164905
 21
-0.1327033605
 31
0.0
  0
LINE
  5
5EA
330
50A
100
AcDbEntity
  8
0
  6
Continuous
 62
     7
370
    25
100
AcDbLine
 10
-0.4994819009
 20
-1.3061043129
 30
0.0
 11
-0.5064416133
 21
-1.3122422023
 31
0.0
  0
LINE
  5
5EB
330
50A
100
AcDbEntity
  8
0
  6
Continuous
 62
     7
370
    25
100
AcDbLine
 10
-2.8164312114
 20
1.2165051399
 30
0.0
 11
-2.8233909238
 21
1.2103672505
 31
0.0
  0
LINE
  5
5EC
330
50A
100
AcDbEntity
  8
0
  6
Continuous
 62
     7
370
    25
100
AcDbLine
 10
-1.7101549175
 20
0.0120320753
 30
0.0
 11
-1.7171146299
 21
0.0058941859
 31
0.0
  0
LINE
  5
5ED
330
50A
100
AcDbEntity
  8
0
  6
Continuous
 62
     7
370
    25
100
AcDbLine
 10
-0.0283779883
 20
-1.3572564149
 30
0.0
 11
-0.0353377007
 21
-1.3633943043
 31
0.0
  0
LINE
  5
5EE
330
50A
100
AcDbEntity
  8
0
  6
Continuous
 62
     7
370
    25
100
AcDbLine
 10
-0.0232090203
 20
-1.3633616844
 30
0.0
 11
-0.0301687327
 21
-1.3694995738
 31
0.0
  0
LINE
  5
5EF
330
50A
100
AcDbEntity
  8
0
  6
Continuous
 62
     7
370
    25
100
AcDbLine
 10
-2.9531639392
 20
1.3672300958
 30
0.0
 11
-2.9240708914
 21
1.3457473002
 31
0.0
  0
LINE
  5
5F0
330
50A
100
AcDbEntity
  8
0
  6
Continuous
 62
     7
370
    25
100
AcDbLine
 10
-2.8191570344
 20
1.336817107
 30
0.0
 11
-2.8261167468
 21
1.3306792176
 31
0.0
  0
LINE
  5
5F1
330
50A
100
AcDbEntity
  8
0
  6
Continuous
 62
     7
370
    25
100
AcDbLine
 10
-2.6949259548
 20
-1.0571305206
 30
0.0
 11
-2.7018856672
 21
-1.06326841
 31
0.0
  0
LINE
  5
5F2
330
50A
100
AcDbEntity
  8
0
  6
Continuous
 62
     7
370
    25
100
AcDbLine
 10
-2.9240708914
 20
-1.029834537
 30
0.0
 11
-2.9531639392
 21
-1.0083517413
 31
0.0
  0
LINE
  5
5F3
330
50A
100
AcDbEntity
  8
0
  6
Continuous
 62
     7
370
    25
100
AcDbLine
 10
-2.9531639392
 20
-1.0083517413
 30
0.0
 11
-2.9531639392
 21
1.3672300958
 31
0.0
  0
LINE
  5
5F4
330
50A
100
AcDbEntity
  8
0
  6
Continuous
 62
     7
370
    25
100
AcDbLine
 10
-2.8185219341
 20
-1.0341068809
 30
0.0
 11
-2.8254816465
 21
-1.0402447704
 31
0.0
  0
LINE
  5
5F5
330
50A
100
AcDbEntity
  8
0
  6
Continuous
 62
     7
370
    25
100
AcDbLine
 10
-2.813291739
 20
-1.0401609164
 30
0.0
 11
-2.8202514514
 21
-1.0462988058
 31
0.0
  0
LINE
  5
5F6
330
50A
100
AcDbEntity
  8
0
  6
Continuous
 62
     7
370
    25
100
AcDbLine
 10
2.7620502364
 20
-1.5357765391
 30
0.0
 11
2.7620502364
 21
0.8398052981
 31
0.0
  0
LINE
  5
5F7
330
50A
100
AcDbEntity
  8
0
  6
Continuous
 62
     7
370
    25
100
AcDbLine
 10
2.6147408904
 20
1.006838396
 30
0.0
 11
-2.6147408904
 21
1.6656911708
 31
0.0
  0
LINE
  5
5F8
330
50A
100
AcDbEntity
  8
0
  6
Continuous
 62
     8
370
    25
100
AcDbLine
 10
2.4085340021
 20
0.5539540396
 30
0.0
 11
2.4058081791
 21
0.5515500898
 31
0.0
  0
LINE
  5
5F9
330
50A
100
AcDbEntity
  8
0
  6
Continuous
 62
     8
370
    25
100
AcDbLine
 10
2.6197241176
 20
-0.4219471879
 30
0.0
 11
2.6708780038
 21
-0.4283919718
 31
0.0
  0
LINE
  5
5FA
330
50A
100
AcDbEntity
  8
0
  6
Continuous
 62
     8
370
    25
100
AcDbLine
 10
-0.3534817224
 20
0.9019685393
 30
0.0
 11
-0.3562075453
 21
0.8995645894
 31
0.0
  0
LINE
  5
5FB
330
50A
100
AcDbEntity
  8
0
  6
Continuous
 62
     8
370
    25
100
AcDbLine
 10
-2.8182219559
 20
1.3378859795
 30
0.0
 11
-2.8209477788
 21
1.3354820296
 31
0.0
  0
ARC
  5
5FC
330
50A
100
AcDbEntity
  8
0
  6
Continuous
 62
     7
370
    25
100
AcDbCircle
 10
2.3991729328
 20
0.6682514623
 30
0.0
 40
0.1717899268413516
100
AcDbArc
 50
1.0030838475
 51
81.8161603744
  0
ARC
  5
5FD
330
50A
100
AcDbEntity
  8
0
  6
Continuous
 62
     7
370
    25
100
AcDbCircle
 10
2.3891276354
 20
0.6593923427
 30
0.0
 40
0.1173805496812802
100
AcDbArc
 50
1.0587090425
 51
81.7605351794
  0
ARC
  5
5FE
330
50A
100
AcDbEntity
  8
0
  6
Continuous
 62
     7
370
    25
100
AcDbCircle
 10
-2.8067103801
 20
-1.0276657074
 30
0.0
 40
0.1173805496812797
100
AcDbArc
 50
181.0587090425
 51
261.7605351794
  0
ARC
  5
5FF
330
50A
100
AcDbEntity
  8
0
  6
Continuous
 62
     7
370
    25
100
AcDbCircle
 10
-2.8366159494
 20
1.3479161297
 30
0.0
 40
0.0874818307259809
100
AcDbArc
 50
81.3986348259
 51
181.4206093965
  0
ARC
  5
600
330
50A
100
AcDbEntity
  8
0
  6
Continuous
 62
     7
370
    25
100
AcDbCircle
 10
2.4190332047
 20
-1.7161894945
 30
0.0
 40
0.0874818307259803
100
AcDbArc
 50
261.3986348259
 51
1.4206093965
  0
ARC
  5
601
330
50A
100
AcDbEntity
  8
0
  6
Continuous
 62
     7
370
    25
100
AcDbCircle
 10
0.504212102
 20
-0.2854998484
 30
0.0
 40
0.076509750564596
100
AcDbArc
 50
261.3986348259
 51
1.4206093965
  0
ARC
  5
602
330
50A
100
AcDbEntity
  8
0
  6
Continuous
 62
     7
370
    25
100
AcDbCircle
 10
0.4780573264
 20
-0.2854998484
 30
0.0
 40
0.1026585349520238
100
AcDbArc
 50
1.0587090425
 51
81.7605351794
  0
ARC
  5
603
330
50A
100
AcDbEntity
  8
0
  6
Continuous
 62
     7
370
    25
100
AcDbCircle
 10
-2.7675593237
 20
1.2698341915
 30
0.0
 40
0.0846165810675827
100
AcDbArc
 50
39.1292449881
 51
129.119917909
  0
ARC
  5
604
330
50A
100
AcDbEntity
  8
0
  6
Continuous
 62
     7
370
    25
100
AcDbCircle
 10
-2.7636565477
 20
1.271907472
 30
0.0
 40
0.0857635968856991
100
AcDbArc
 50
136.7426730594
 51
225.8531025606
  0
ARC
  5
605
330
50A
100
AcDbEntity
  8
0
  6
Continuous
 62
     7
370
    25
100
AcDbCircle
 10
-2.7648056662
 20
-0.9810677705
 30
0.0
 40
0.0847554830017863
100
AcDbArc
 50
133.7522941979
 51
224.2834489916
  0
ARC
  5
606
330
50A
100
AcDbEntity
  8
0
  6
Continuous
 62
     7
370
    25
100
AcDbCircle
 10
-2.7523695831
 20
-0.9941068163
 30
0.0
 40
0.0856268171530434
100
AcDbArc
 50
217.5554217127
 51
306.1272566717
  0
ARC
  5
607
330
50A
100
AcDbEntity
  8
0
  6
Continuous
 62
     7
370
    25
100
AcDbCircle
 10
-0.4408024671
 20
-1.2588430612
 30
0.0
 40
0.0846165810675858
100
AcDbArc
 50
219.1292449881
 51
309.119917909
  0
ARC
  5
608
330
50A
100
AcDbEntity
  8
0
  6
Continuous
 62
     7
370
    25
100
AcDbCircle
 10
-0.4341489513
 20
-1.2652389999
 30
0.0
 40
0.0752244554732664
100
AcDbArc
 50
313.6290912865
 51
0.9328079807
  0
ARC
  5
609
330
50A
100
AcDbEntity
  8
0
  6
Continuous
 62
     7
370
    25
100
AcDbCircle
 10
-0.4555026265
 20
-1.265349318
 30
0.0
 40
0.0965773883287441
100
AcDbArc
 50
0.7920080689
 51
43.0873272251
  0
ARC
  5
60A
330
50A
100
AcDbEntity
  8
0
  6
Continuous
 62
     7
370
    25
100
AcDbCircle
 10
-0.4049865552
 20
0.9563073085
 30
0.0
 40
0.0748273210712522
100
AcDbArc
 50
310.6840777072
 51
1.022242837
  0
ARC
  5
60B
330
50A
100
AcDbEntity
  8
0
  6
Continuous
 62
     7
370
    25
100
AcDbCircle
 10
-0.4264210162
 20
0.956390189
 30
0.0
 40
0.0962580165073703
100
AcDbArc
 50
0.7452985267
 51
41.334005568
  0
ARC
  5
60C
330
50A
100
AcDbEntity
  8
0
  6
Continuous
 62
     7
370
    25
100
AcDbCircle
 10
-0.4272556028
 20
0.9738255949
 30
0.0
 40
0.0856268171530401
100
AcDbArc
 50
37.5554217127
 51
126.1272566717
  0
ARC
  5
60D
330
50A
100
AcDbEntity
  8
0
  6
Continuous
 62
     7
370
    25
100
AcDbCircle
 10
-0.001805067
 20
0.9239131627
 30
0.0
 40
0.0856160467356271
100
AcDbArc
 50
136.0454016126
 51
225.9104084471
  0
ARC
  5
60E
330
50A
100
AcDbEntity
  8
0
  6
Continuous
 62
     7
370
    25
100
AcDbCircle
 10
0.0258475105
 20
-1.3049448755
 30
0.0
 40
0.0846165810685423
100
AcDbArc
 50
133.6993263135
 51
223.6899992336
  0
ARC
  5
60F
330
50A
100
AcDbEntity
  8
0
  6
Continuous
 62
     7
370
    25
100
AcDbCircle
 10
0.0383556099
 20
-1.3179262375
 30
0.0
 40
0.0857635968847365
100
AcDbArc
 50
216.9661416611
 51
306.076571163
  0
ARC
  5
610
330
50A
100
AcDbEntity
  8
0
  6
Continuous
 62
     7
370
    25
100
AcDbCircle
 10
2.3500005137
 20
-1.6379148007
 30
0.0
 40
0.084759890448142
100
AcDbArc
 50
219.1856860738
 51
308.417059181
  0
ARC
  5
611
330
50A
100
AcDbEntity
  8
0
  6
Continuous
 62
     7
370
    25
100
AcDbCircle
 10
2.3567584814
 20
-1.644560021
 30
0.0
 40
0.0751232515227984
100
AcDbArc
 50
312.9025564306
 51
0.9549940277
  0
ARC
  5
612
330
50A
100
AcDbEntity
  8
0
  6
Continuous
 62
     7
370
    25
100
AcDbCircle
 10
2.3353031365
 20
-1.6446429014
 30
0.0
 40
0.0965773883287316
100
AcDbArc
 50
0.7920080689
 51
43.0873272251
  0
ARC
  5
613
330
50A
100
AcDbEntity
  8
0
  6
Continuous
 62
     7
370
    25
100
AcDbCircle
 10
2.3570291692
 20
0.6082928089
 30
0.0
 40
0.0748273210712511
100
AcDbArc
 50
310.6840777072
 51
1.022242837
  0
ARC
  5
614
330
50A
100
AcDbEntity
  8
0
  6
Continuous
 62
     7
370
    25
100
AcDbCircle
 10
2.3357032916
 20
0.608403127
 30
0.0
 40
0.0961490889408597
100
AcDbArc
 50
0.7297913137
 51
40.757734023
  0
ARC
  5
615
330
50A
100
AcDbEntity
  8
0
  6
Continuous
 62
     7
370
    25
100
AcDbCircle
 10
2.3348406915
 20
0.6257071472
 30
0.0
 40
0.085763596884734
100
AcDbArc
 50
36.9661416611
 51
126.076571163
  0
ARC
  5
616
330
50A
100
AcDbEntity
  8
0
  6
Continuous
 62
     7
370
    25
100
AcDbCircle
 10
-0.0055408172
 20
0.9216643025
 30
0.0
 40
0.0847598904481422
100
AcDbArc
 50
39.1856860738
 51
128.417059181
  0
ARC
  5
617
330
50A
100
AcDbEntity
  8
0
  6
Continuous
 62
     7
370
    25
100
AcDbCircle
 10
2.537253627
 20
0.7900271882
 30
0.0
 40
0.1717899268413523
100
AcDbArc
 50
1.0030838475
 51
81.8161603744
  0
ARC
  5
618
330
50A
100
AcDbEntity
  8
0
  6
Continuous
 62
     7
370
    25
100
AcDbCircle
 10
2.3572052302
 20
-1.6313168693
 30
0.0
 40
0.0852407034478678
100
AcDbArc
 50
219.3213137738
 51
305.3196448463
  0
ARC
  5
619
330
50A
100
AcDbEntity
  8
0
  6
Continuous
 62
     7
370
    25
100
AcDbCircle
 10
0.0453153223
 20
-1.3117883481
 30
0.0
 40
0.0857635968847369
100
AcDbArc
 50
216.9661416611
 51
306.076571163
  0
ARC
  5
61A
330
50A
100
AcDbEntity
  8
0
  6
Continuous
 62
     7
370
    25
100
AcDbCircle
 10
0.0334911839
 20
-1.2985482155
 30
0.0
 40
0.0852903695784887
100
AcDbArc
 50
138.0560129586
 51
223.4983175451
  0
ARC
  5
61B
330
50A
100
AcDbEntity
  8
0
  6
Continuous
 62
     7
370
    25
100
AcDbCircle
 10
0.0051546454
 20
0.9300510521
 30
0.0
 40
0.085616046735627
100
AcDbArc
 50
136.0454016126
 51
225.9104084471
  0
ARC
  5
61C
330
50A
100
AcDbEntity
  8
0
  6
Continuous
 62
     7
370
    25
100
AcDbCircle
 10
2.4426471636
 20
-1.7073303749
 30
0.0
 40
0.1283246151437057
100
AcDbArc
 50
261.4763477307
 51
1.3428964917
  0
ARC
  5
61D
330
50A
100
AcDbEntity
  8
0
  6
Continuous
 62
     7
370
    25
100
AcDbCircle
 10
2.578439411
 20
-1.5850794989
 30
0.0
 40
0.1306023678824069
100
AcDbArc
 50
312.024720161
 51
1.1109745176
  0
ARC
  5
61E
330
50A
100
AcDbEntity
  8
0
  6
Continuous
 62
     7
370
    25
100
AcDbCircle
 10
-0.4335005185
 20
-1.2520589216
 30
0.0
 40
0.085290369578079
100
AcDbArc
 50
219.3209266768
 51
304.7632312603
  0
ARC
  5
61F
330
50A
100
AcDbEntity
  8
0
  6
Continuous
 62
     7
370
    25
100
AcDbCircle
 10
-2.7454098707
 20
-0.9879689269
 30
0.0
 40
0.0856268171530424
100
AcDbArc
 50
217.5554217127
 51
306.1272566717
  0
ARC
  5
620
330
50A
100
AcDbEntity
  8
0
  6
Continuous
 62
     7
370
    25
100
AcDbCircle
 10
-2.7571613393
 20
-0.9746648569
 30
0.0
 40
0.085431123226897
100
AcDbArc
 50
138.1047477308
 51
224.0901127749
  0
ARC
  5
621
330
50A
100
AcDbEntity
  8
0
  6
Continuous
 62
     7
370
    25
100
AcDbCircle
 10
-2.7566968353
 20
1.2780453614
 30
0.0
 40
0.0857635968856991
100
AcDbArc
 50
136.7426730594
 51
225.8531025606
  0
ARC
  5
622
330
50A
100
AcDbEntity
  8
0
  6
Continuous
 62
     7
370
    25
100
AcDbCircle
 10
-0.8939835073
 20
-0.0825269118
 30
0.0
 40
0.0961689615417067
100
AcDbArc
 50
141.2174452097
 51
264.385353165
  0
ARC
  5
623
330
50A
100
AcDbEntity
  8
0
  6
Continuous
 62
     7
370
    25
100
AcDbCircle
 10
0.5108258705
 20
-0.277097774
 30
0.0
 40
0.0786996746045018
100
AcDbArc
 50
261.8941984627
 51
307.1262923126
  0
ARC
  5
624
330
50A
100
AcDbEntity
  8
0
  6
Continuous
 62
     7
370
    25
100
AcDbCircle
 10
-2.8248745693
 20
1.3702374883
 30
0.0
 40
0.1283246151437061
100
AcDbArc
 50
81.4763477307
 51
181.3428964917
  0
ARC
  5
625
330
50A
100
AcDbEntity
  8
0
  6
Continuous
 62
     7
370
    25
100
AcDbCircle
 10
-2.6864123064
 20
1.4890102475
 30
0.0
 40
0.1312404352302921
100
AcDbArc
 50
81.8354066145
 51
130.6673871491
  0
ARC
  5
626
330
50A
100
AcDbEntity
  8
0
  6
Continuous
 62
     7
370
    25
100
AcDbCircle
 10
-2.7814003384
 20
-1.0053443488
 30
0.0
 40
0.1717899268413521
100
AcDbArc
 50
181.0030838475
 51
261.8161603744
  0
ARC
  5
627
330
50A
100
AcDbEntity
  8
0
  6
Continuous
 62
     7
370
    25
100
AcDbCircle
 10
2.5902866356
 20
0.8367979056
 30
0.0
 40
0.1717899268413175
100
AcDbArc
 50
1.0030838475
 51
81.8161603744
  0
ARC
  5
628
330
50A
100
AcDbEntity
  8
0
  6
Continuous
 62
     7
370
    25
100
AcDbCircle
 10
2.6308291488
 20
-1.5380299848
 30
0.0
 40
0.131240435231261
100
AcDbArc
 50
312.1518570709
 51
0.9838376077
  0
ARC
  5
629
330
50A
100
AcDbEntity
  8
0
  6
Continuous
 62
     7
370
    25
100
AcDbCircle
 10
-2.6335754991
 20
1.5364540398
 30
0.0
 40
0.1306023678814854
100
AcDbArc
 50
81.7082697046
 51
130.794524059
  0
VIEWPORT
  5
63A
330
50A
100
AcDbEntity
  8
0
100
AcDbViewport
 10
0.0
 20
0.0
 30
0.0
 40
8.4
 41
6.4
 68
     1
 69
     1
 12
-0.1261158356
 22
-0.123498398
 13
0.0
 23
0.0
 14
0.5
 24
0.5
 15
0.5
 25
0.5
 16
0.0
 26
0.0
 36
1.0
 17
0.0
 27
0.0
 37
0.0
 42
50.0
 43
0.0
 44
0.0
 45
4.2550648675
 50
0.0
 51
0.0
 72
   100
 90
   557152
  1

281
     0
 71
     1
 74
     0
110
0.0
120
0.0
130
0.0
111
1.0
121
0.0
131
0.0
112
0.0
122
1.0
132
0.0
 79
     0
146
0.0
  0
ENDBLK
  5
50D
330
50A
100
AcDbEntity
  8
0
100
AcDbBlockEnd
  0
ENDSEC
  0
SECTION
  2
ENTITIES
  0
LWPOLYLINE
  5
85
330
1F
100
AcDbEntity
  8
0
  6
Continuous
 62
     7
370
    25
100
AcDbPolyline
 90
       15
 70
   128
 43
0.0
 10
-0.9389211044
 20
-0.0081532347
 10
-0.9574204498
 20
-0.0051456606
 10
-0.9749921607
 20
-0.0063292018
 10
-0.9907551183
 20
-0.0116445108
 10
-1.0039189019
 20
-0.0208250557
 10
-1.0138234246
 20
-0.0334104857
 10
-1.0199720322
 20
-0.0487697147
 10
-1.0220564078
 20
-0.0661325669
 10
-1.0199720322
 20
-0.0846283963
 10
-1.0138234246
 20
-0.1033297449
 10
-1.0039189019
 20
-0.1212988489
 10
-0.9907551183
 20
-0.1376346625
 10
-0.9749921607
 20
-0.1515180397
 10
-0.9574204498
 20
-0.16225281
 10
-0.9389211044
 20
-0.1693006872
  0
LWPOLYLINE
  5
BE
330
1F
100
AcDbEntity
  8
0
  6
Continuous
 62
     7
370
    25
100
AcDbPolyline
 90
       14
 70
   128
 43
0.0
 10
2.413952114
 20
-0.9025261388
 10
2.4150733254
 20
-0.9183916634
 10
2.4183717992
 20
-0.9311464679
 10
2.4236558398
 20
-0.9400492893
 10
2.4306183581
 20
-0.944582728
 10
2.4388547179
 20
-0.9444833171
 10
2.4478862518
 20
-0.9397568339
 10
2.4571880799
 20
-0.9306779645
 10
2.4662196138
 20
-0.9177743398
 10
2.4744559735
 20
-0.9017958715
 10
2.4814184918
 20
-0.8836711701
 10
2.4867025325
 20
-0.8644535774
 10
2.4900010062
 20
-0.84525995
 10
2.4911222177
 20
-0.8272057518
  0
LWPOLYLINE
  5
BF
330
1F
100
AcDbEntity
  8
0
  6
Continuous
 62
     7
370
    25
100
AcDbPolyline
 90
       14
 70
   128
 43
0.0
 10
2.4911222177
 20
-0.8272057518
 10
2.4900010062
 20
-0.8113402272
 10
2.4867025325
 20
-0.7985854227
 10
2.4814184918
 20
-0.7896826013
 10
2.4744559735
 20
-0.7851491625
 10
2.4662196138
 20
-0.7852485735
 10
2.4571880799
 20
-0.7899750566
 10
2.4478862518
 20
-0.799053926
 10
2.4388547179
 20
-0.8119575508
 10
2.4306183581
 20
-0.8279360191
 10
2.4236558398
 20
-0.8460607205
 10
2.4183717992
 20
-0.8652783132
 10
2.4150733254
 20
-0.8844719406
 10
2.413952114
 20
-0.9025261388
  0
LWPOLYLINE
  5
E7
330
1F
100
AcDbEntity
  8
0
  6
Continuous
 62
     7
370
    25
100
AcDbPolyline
 90
       11
 70
   128
 43
0.0
 10
-0.9997177024
 20
-0.0172477002
 10
-1.0046365075
 20
-0.0244437729
 10
-1.0107851151
 20
-0.0398030019
 10
-1.0128694907
 20
-0.0571658541
 10
-1.0107851151
 20
-0.0756616836
 10
-1.0046365075
 20
-0.0943630322
 10
-0.9947319848
 20
-0.1123321362
 10
-0.9815682012
 20
-0.1286679498
 10
-0.9658052436
 20
-0.142551327
 10
-0.9482335327
 20
-0.1532860973
 10
-0.9297341873
 20
-0.1603339745
  0
LINE
  5
10B
330
1F
100
AcDbEntity
  8
0
  6
Continuous
 62
     7
370
    25
100
AcDbLine
 10
2.3299162041
 20
-2.1107085158
 30
0.0
 11
2.5821889478
 21
-1.8644825841
 31
0.0
  0
LINE
  5
10C
330
1F
100
AcDbEntity
  8
0
  6
Continuous
 62
     7
370
    25
100
AcDbLine
 10
-2.5821889478
 20
1.8644825841
 30
0.0
 11
-2.8344616915
 21
1.6182566525
 31
0.0
  0
LINE
  5
10D
330
1F
100
AcDbEntity
  8
0
  6
Continuous
 62
     7
370
    25
100
AcDbLine
 10
2.359198088
 20
0.1239280653
 30
0.0
 11
2.2916424125
 21
0.1131709097
 31
0.0
  0
LINE
  5
10E
330
1F
100
AcDbEntity
  8
0
  6
Continuous
 62
     7
370
    25
100
AcDbLine
 10
2.2199196437
 20
0.2967679386
 30
0.0
 11
2.1965848742
 21
0.2311341232
 31
0.0
  0
LINE
  5
10F
330
1F
100
AcDbEntity
  8
0
  6
Continuous
 62
     7
370
    25
100
AcDbLine
 10
2.359198088
 20
0.1239280653
 30
0.0
 11
2.6114708317
 21
0.3701539969
 31
0.0
  0
LINE
  5
110
330
1F
100
AcDbEntity
  8
0
  6
Continuous
 62
     7
370
    25
100
AcDbLine
 10
2.2199196437
 20
0.2967679386
 30
0.0
 11
2.4721923874
 21
0.5429938702
 31
0.0
  0
LINE
  5
111
330
1F
100
AcDbEntity
  8
0
  6
Continuous
 62
     7
370
    25
100
AcDbLine
 10
-2.7477999005
 20
-0.7691368871
 30
0.0
 11
2.1965848742
 21
-2.1129147235
 31
0.0
  0
LINE
  5
112
330
1F
100
AcDbEntity
  8
0
  6
Continuous
 62
     7
370
    25
100
AcDbLine
 10
-2.8428574388
 20
1.5086179502
 30
0.0
 11
-2.8428574388
 21
-0.6511736736
 31
0.0
  0
LINE
  5
113
330
1F
100
AcDbEntity
  8
0
  6
Continuous
 62
     7
370
    25
100
AcDbLine
 10
2.1965848742
 20
0.2311341232
 30
0.0
 11
-2.7477999005
 21
1.5749119596
 31
0.0
  0
LINE
  5
114
330
1F
100
AcDbEntity
  8
0
  6
Continuous
 62
     7
370
    25
100
AcDbLine
 10
2.2916424125
 20
-2.0466207142
 30
0.0
 11
2.2916424125
 21
0.1131709097
 31
0.0
  0
LINE
  5
115
330
1F
100
AcDbEntity
  8
0
  6
Continuous
 62
     7
370
    25
100
AcDbLine
 10
-0.9389211044
 20
-0.1693006872
 30
0.0
 11
0.3877060781
 21
-0.5298495292
 31
0.0
  0
LINE
  5
116
330
1F
100
AcDbEntity
  8
0
  6
Continuous
 62
     7
370
    25
100
AcDbLine
 10
0.3877060781
 20
-0.3687020767
 30
0.0
 11
-0.9389211044
 21
-0.0081532347
 31
0.0
  0
LINE
  5
117
330
1F
100
AcDbEntity
  8
0
  6
Continuous
 62
     7
370
    25
100
AcDbLine
 10
-1.581342929
 20
0.1972961042
 30
0.0
 11
-2.6328177726
 21
1.4565107851
 31
0.0
  0
LINE
  5
118
330
1F
100
AcDbEntity
  8
0
  6
Continuous
 62
     7
370
    25
100
AcDbLine
 10
-2.7453563155
 20
1.4845985407
 30
0.0
 11
-2.7502434855
 21
1.4809681556
 31
0.0
  0
LINE
  5
119
330
1F
100
AcDbEntity
  8
0
  6
Continuous
 62
     7
370
    25
100
AcDbLine
 10
-2.747666267
 20
1.3711967339
 30
0.0
 11
-1.7017011229
 21
0.1185803037
 31
0.0
  0
LINE
  5
11A
330
1F
100
AcDbEntity
  8
0
  6
Continuous
 62
     7
370
    25
100
AcDbLine
 10
-1.7017011229
 20
0.1185803037
 30
0.0
 11
-2.7476915273
 21
-0.5655108195
 31
0.0
  0
LINE
  5
11B
330
1F
100
AcDbEntity
  8
0
  6
Continuous
 62
     7
370
    25
100
AcDbLine
 10
-2.7496430091
 20
-0.6746791729
 30
0.0
 11
-2.74469795
 21
-0.680928154
 31
0.0
  0
LINE
  5
11C
330
1F
100
AcDbEntity
  8
0
  6
Continuous
 62
     7
370
    25
100
AcDbLine
 10
-2.6327851437
 20
-0.7132137301
 30
0.0
 11
-1.581342929
 21
-0.0255570531
 31
0.0
  0
LINE
  5
11D
330
1F
100
AcDbEntity
  8
0
  6
Continuous
 62
     7
370
    25
100
AcDbLine
 10
-1.581342929
 20
-0.0255570531
 30
0.0
 11
-0.5570306792
 21
-1.2522426278
 31
0.0
  0
LINE
  5
11E
330
1F
100
AcDbEntity
  8
0
  6
Continuous
 62
     7
370
    25
100
AcDbLine
 10
-0.4444921363
 20
-1.2803303835
 30
0.0
 11
-0.4396049663
 21
-1.2766999983
 31
0.0
  0
LINE
  5
11F
330
1F
100
AcDbEntity
  8
0
  6
Continuous
 62
     7
370
    25
100
AcDbLine
 10
-0.4421821848
 20
-1.1669285767
 30
0.0
 11
-1.4609847351
 21
0.0531587474
 31
0.0
  0
LINE
  5
120
330
1F
100
AcDbEntity
  8
0
  6
Continuous
 62
     7
370
    25
100
AcDbLine
 10
-1.4609847351
 20
0.0531587474
 30
0.0
 11
-0.4149869606
 21
0.7372546907
 31
0.0
  0
LINE
  5
121
330
1F
100
AcDbEntity
  8
0
  6
Continuous
 62
     7
370
    25
100
AcDbLine
 10
-0.4130354787
 20
0.8464230442
 30
0.0
 11
-0.4179805379
 21
0.8526720252
 31
0.0
  0
LINE
  5
122
330
1F
100
AcDbEntity
  8
0
  6
Continuous
 62
     7
370
    25
100
AcDbLine
 10
-0.5298933441
 20
0.8849576014
 30
0.0
 11
-1.581342929
 21
0.1972961042
 31
0.0
  0
LINE
  5
123
330
1F
100
AcDbEntity
  8
0
  6
Continuous
 62
     7
370
    25
100
AcDbLine
 10
-0.1381795476
 20
0.7717230915
 30
0.0
 11
-0.1332344884
 21
0.7752841503
 31
0.0
  0
LINE
  5
124
330
1F
100
AcDbEntity
  8
0
  6
Continuous
 62
     7
370
    25
100
AcDbLine
 10
0.9097697088
 20
-0.5911615113
 30
0.0
 11
-0.1362280657
 21
0.6614939962
 31
0.0
  0
LINE
  5
125
330
1F
100
AcDbEntity
  8
0
  6
Continuous
 62
     7
370
    25
100
AcDbLine
 10
-0.1090328415
 20
-1.2574714297
 30
0.0
 11
0.9097697088
 21
-0.5911615113
 31
0.0
  0
LINE
  5
126
330
1F
100
AcDbEntity
  8
0
  6
Continuous
 62
     7
370
    25
100
AcDbLine
 10
-0.10672289
 20
-1.3721288271
 30
0.0
 11
-0.11161006
 21
-1.3658419858
 31
0.0
  0
LINE
  5
127
330
1F
100
AcDbEntity
  8
0
  6
Continuous
 62
     7
370
    25
100
AcDbLine
 10
1.0301279027
 20
-0.7352988682
 30
0.0
 11
0.0058156529
 21
-1.4052122005
 31
0.0
  0
LINE
  5
128
330
1F
100
AcDbEntity
  8
0
  6
Continuous
 62
     7
370
    25
100
AcDbLine
 10
2.0815701174
 20
-1.9944744737
 30
0.0
 11
1.0301279027
 21
-0.7352988682
 31
0.0
  0
LINE
  5
129
330
1F
100
AcDbEntity
  8
0
  6
Continuous
 62
     7
370
    25
100
AcDbLine
 10
2.1984279828
 20
-2.0194588442
 30
0.0
 11
2.1934829237
 21
-2.023019903
 31
0.0
  0
LINE
  5
12A
330
1F
100
AcDbEntity
  8
0
  6
Continuous
 62
     7
370
    25
100
AcDbLine
 10
1.1504860966
 20
-0.6565830676
 30
0.0
 11
2.196476501
 21
-1.9092297489
 31
0.0
  0
LINE
  5
12B
330
1F
100
AcDbEntity
  8
0
  6
Continuous
 62
     7
370
    25
100
AcDbLine
 10
2.1964512407
 20
0.027491535
 30
0.0
 11
1.1504860966
 21
-0.6565830676
 31
0.0
  0
LINE
  5
12C
330
1F
100
AcDbEntity
  8
0
  6
Continuous
 62
     7
370
    25
100
AcDbLine
 10
2.1941412892
 20
0.1421489324
 30
0.0
 11
2.1990284592
 21
0.1358620911
 31
0.0
  0
LINE
  5
12D
330
1F
100
AcDbEntity
  8
0
  6
Continuous
 62
     7
370
    25
100
AcDbLine
 10
1.0301279027
 20
-0.5124457108
 30
0.0
 11
2.0816027463
 21
0.1752323059
 31
0.0
  0
LINE
  5
12E
330
1F
100
AcDbEntity
  8
0
  6
Continuous
 62
     7
370
    25
100
AcDbLine
 10
-0.0213216821
 20
0.746738721
 30
0.0
 11
1.0301279027
 21
-0.5124457108
 31
0.0
  0
LINE
  5
12F
330
1F
100
AcDbEntity
  8
0
  6
Continuous
 62
     7
370
    25
100
AcDbLine
 10
-2.7244651311
 20
1.640545775
 30
0.0
 11
2.2199196437
 21
0.2967679386
 31
0.0
  0
LINE
  5
130
330
1F
100
AcDbEntity
  8
0
  6
Continuous
 62
     7
370
    25
100
AcDbLine
 10
-2.7244651311
 20
1.640545775
 30
0.0
 11
-2.7477999005
 21
1.5749119596
 31
0.0
  0
LINE
  5
131
330
1F
100
AcDbEntity
  8
0
  6
Continuous
 62
     7
370
    25
100
AcDbLine
 10
2.359198088
 20
0.1239280653
 30
0.0
 11
2.359198088
 21
-2.0358635586
 31
0.0
  0
LINE
  5
132
330
1F
100
AcDbEntity
  8
0
  6
Continuous
 62
     7
370
    25
100
AcDbLine
 10
2.2916424125
 20
-2.0466207142
 30
0.0
 11
2.359198088
 21
-2.0358635586
 31
0.0
  0
LINE
  5
133
330
1F
100
AcDbEntity
  8
0
  6
Continuous
 62
     7
370
    25
100
AcDbLine
 10
-2.7244651311
 20
1.640545775
 30
0.0
 11
-2.4721923874
 21
1.8867717066
 31
0.0
  0
LINE
  5
134
330
1F
100
AcDbEntity
  8
0
  6
Continuous
 62
     7
370
    25
100
AcDbLine
 10
-2.5421966957
 20
1.8184453556
 30
0.0
 11
2.402188079
 21
0.4746675192
 31
0.0
  0
LINE
  5
135
330
1F
100
AcDbEntity
  8
0
  6
Continuous
 62
     7
370
    25
100
AcDbLine
 10
2.359198088
 20
-2.0358635586
 30
0.0
 11
2.6114708317
 21
-1.7896376269
 31
0.0
  0
LINE
  5
136
330
1F
100
AcDbEntity
  8
0
  6
Continuous
 62
     7
370
    25
100
AcDbLine
 10
2.5414665234
 20
0.3018276459
 30
0.0
 11
2.5414665234
 21
-1.8579639779
 31
0.0
  0
LINE
  5
137
330
1F
100
AcDbEntity
  8
0
  6
Continuous
 62
     7
370
    25
100
AcDbLine
 10
2.2086482674
 20
0.0385806833
 30
0.0
 11
2.2056381578
 21
0.0364582477
 31
0.0
  0
LINE
  5
138
330
1F
100
AcDbEntity
  8
0
  6
Continuous
 62
     7
370
    25
100
AcDbLine
 10
2.2056381578
 20
0.0364582477
 30
0.0
 11
1.1596730137
 21
-0.6476163549
 31
0.0
  0
LINE
  5
139
330
1F
100
AcDbEntity
  8
0
  6
Continuous
 62
     7
370
    25
100
AcDbLine
 10
2.2076148999
 20
-2.0104921315
 30
0.0
 11
2.2026698408
 21
-2.0140531903
 31
0.0
  0
LINE
  5
13A
330
1F
100
AcDbEntity
  8
0
  6
Continuous
 62
     7
370
    25
100
AcDbLine
 10
2.0907570345
 20
-1.9855077609
 30
0.0
 11
1.0393148198
 21
-0.7263321554
 31
0.0
  0
LINE
  5
13B
330
1F
100
AcDbEntity
  8
0
  6
Continuous
 62
     7
370
    25
100
AcDbLine
 10
1.0393148198
 20
-0.7263321554
 30
0.0
 11
0.01500257
 21
-1.3962454878
 31
0.0
  0
LINE
  5
13C
330
1F
100
AcDbEntity
  8
0
  6
Continuous
 62
     7
370
    25
100
AcDbLine
 10
-0.0975359729
 20
-1.3631621143
 30
0.0
 11
-0.1024231429
 21
-1.356875273
 31
0.0
  0
LINE
  5
13D
330
1F
100
AcDbEntity
  8
0
  6
Continuous
 62
     7
370
    25
100
AcDbLine
 10
0.9189566259
 20
-0.5821947986
 30
0.0
 11
-0.1270411486
 21
0.6704607089
 31
0.0
  0
LINE
  5
13E
330
1F
100
AcDbEntity
  8
0
  6
Continuous
 62
     7
370
    25
100
AcDbLine
 10
2.2056381578
 20
0.0364582477
 30
0.0
 11
2.1964512407
 21
0.027491535
 31
0.0
  0
LINE
  5
13F
330
1F
100
AcDbEntity
  8
0
  6
Continuous
 62
     7
370
    25
100
AcDbLine
 10
1.1596730137
 20
-0.6476163549
 30
0.0
 11
1.1504860966
 21
-0.6565830676
 31
0.0
  0
LINE
  5
140
330
1F
100
AcDbEntity
  8
0
  6
Continuous
 62
     7
370
    25
100
AcDbLine
 10
-0.1270411486
 20
0.6704607089
 30
0.0
 11
-0.1362280657
 21
0.6614939962
 31
0.0
  0
LINE
  5
141
330
1F
100
AcDbEntity
  8
0
  6
Continuous
 62
     7
370
    25
100
AcDbLine
 10
0.9189566259
 20
-0.5821947986
 30
0.0
 11
0.9097697088
 21
-0.5911615113
 31
0.0
  0
LINE
  5
142
330
1F
100
AcDbEntity
  8
0
  6
Continuous
 62
     7
370
    25
100
AcDbLine
 10
1.0393148198
 20
-0.7263321554
 30
0.0
 11
1.0301279027
 21
-0.7352988682
 31
0.0
  0
LINE
  5
143
330
1F
100
AcDbEntity
  8
0
  6
Continuous
 62
     7
370
    25
100
AcDbLine
 10
2.0907570345
 20
-1.9855077609
 30
0.0
 11
2.0815701174
 21
-1.9944744737
 31
0.0
  0
LINE
  5
144
330
1F
100
AcDbEntity
  8
0
  6
Continuous
 62
     7
370
    25
100
AcDbLine
 10
-0.4058000435
 20
0.7462214035
 30
0.0
 11
-0.4027899339
 21
0.7483438391
 31
0.0
  0
LINE
  5
145
330
1F
100
AcDbEntity
  8
0
  6
Continuous
 62
     7
370
    25
100
AcDbLine
 10
-1.451797818
 20
0.0621254601
 30
0.0
 11
-0.4058000435
 21
0.7462214035
 31
0.0
  0
LINE
  5
146
330
1F
100
AcDbEntity
  8
0
  6
Continuous
 62
     7
370
    25
100
AcDbLine
 10
-0.4353052192
 20
-1.2713636707
 30
0.0
 11
-0.4304180492
 21
-1.2677332856
 31
0.0
  0
LINE
  5
147
330
1F
100
AcDbEntity
  8
0
  6
Continuous
 62
     7
370
    25
100
AcDbLine
 10
-1.5721560119
 20
-0.0165903404
 30
0.0
 11
-0.5478437621
 21
-1.2432759151
 31
0.0
  0
LINE
  5
148
330
1F
100
AcDbEntity
  8
0
  6
Continuous
 62
     7
370
    25
100
AcDbLine
 10
-2.6235982266
 20
-0.7042470174
 30
0.0
 11
-1.5721560119
 21
-0.0165903404
 31
0.0
  0
LINE
  5
149
330
1F
100
AcDbEntity
  8
0
  6
Continuous
 62
     7
370
    25
100
AcDbLine
 10
-2.740456092
 20
-0.6657124602
 30
0.0
 11
-2.7355110329
 21
-0.6719614412
 31
0.0
  0
LINE
  5
14A
330
1F
100
AcDbEntity
  8
0
  6
Continuous
 62
     7
370
    25
100
AcDbLine
 10
-2.7384793499
 20
1.3801634467
 30
0.0
 11
-1.6925142058
 21
0.1275470164
 31
0.0
  0
LINE
  5
14B
330
1F
100
AcDbEntity
  8
0
  6
Continuous
 62
     7
370
    25
100
AcDbLine
 10
-0.4058000435
 20
0.7462214035
 30
0.0
 11
-0.4149869606
 21
0.7372546907
 31
0.0
  0
LINE
  5
14C
330
1F
100
AcDbEntity
  8
0
  6
Continuous
 62
     7
370
    25
100
AcDbLine
 10
2.1965848742
 20
-2.1129147235
 30
0.0
 11
2.2199196437
 21
-2.1329976382
 31
0.0
  0
LINE
  5
14D
330
1F
100
AcDbEntity
  8
0
  6
Continuous
 62
     7
370
    25
100
AcDbLine
 10
0.01500257
 20
-1.3962454878
 30
0.0
 11
0.0058156529
 21
-1.4052122005
 31
0.0
  0
LINE
  5
14E
330
1F
100
AcDbEntity
  8
0
  6
Continuous
 62
     7
370
    25
100
AcDbLine
 10
-1.451797818
 20
0.0621254601
 30
0.0
 11
-1.4609847351
 21
0.0531587474
 31
0.0
  0
LINE
  5
14F
330
1F
100
AcDbEntity
  8
0
  6
Continuous
 62
     7
370
    25
100
AcDbLine
 10
2.2076148999
 20
-2.0104921315
 30
0.0
 11
2.1984279828
 21
-2.0194588442
 31
0.0
  0
LINE
  5
150
330
1F
100
AcDbEntity
  8
0
  6
Continuous
 62
     7
370
    25
100
AcDbLine
 10
2.2026698408
 20
-2.0140531903
 30
0.0
 11
2.1934829237
 21
-2.023019903
 31
0.0
  0
LINE
  5
151
330
1F
100
AcDbEntity
  8
0
  6
Continuous
 62
     7
370
    25
100
AcDbLine
 10
2.2199196437
 20
-2.1329976382
 30
0.0
 11
-2.7244651311
 21
-0.7892198018
 31
0.0
  0
LINE
  5
152
330
1F
100
AcDbEntity
  8
0
  6
Continuous
 62
     7
370
    25
100
AcDbLine
 10
-2.7477999005
 20
-0.7691368871
 30
0.0
 11
-2.7244651311
 21
-0.7892198018
 31
0.0
  0
LINE
  5
153
330
1F
100
AcDbEntity
  8
0
  6
Continuous
 62
     7
370
    25
100
AcDbLine
 10
-0.9297341873
 20
-0.1603339745
 30
0.0
 11
0.3968929952
 21
-0.5208828165
 31
0.0
  0
LINE
  5
154
330
1F
100
AcDbEntity
  8
0
  6
Continuous
 62
     7
370
    25
100
AcDbLine
 10
0.3968929952
 20
-0.5208828165
 30
0.0
 11
0.3877060781
 21
-0.5298495292
 31
0.0
  0
LINE
  5
155
330
1F
100
AcDbEntity
  8
0
  6
Continuous
 62
     7
370
    25
100
AcDbLine
 10
-0.9297341873
 20
-0.1603339745
 30
0.0
 11
-0.9389211044
 21
-0.1693006872
 31
0.0
  0
LINE
  5
156
330
1F
100
AcDbEntity
  8
0
  6
Continuous
 62
     7
370
    25
100
AcDbLine
 10
-2.7384793499
 20
1.3801634467
 30
0.0
 11
-2.747666267
 21
1.3711967339
 31
0.0
  0
LINE
  5
157
330
1F
100
AcDbEntity
  8
0
  6
Continuous
 62
     7
370
    25
100
AcDbLine
 10
-1.6925142058
 20
0.1275470164
 30
0.0
 11
-1.7017011229
 21
0.1185803037
 31
0.0
  0
LINE
  5
158
330
1F
100
AcDbEntity
  8
0
  6
Continuous
 62
     7
370
    25
100
AcDbLine
 10
-1.5721560119
 20
-0.0165903404
 30
0.0
 11
-1.581342929
 21
-0.0255570531
 31
0.0
  0
LINE
  5
159
330
1F
100
AcDbEntity
  8
0
  6
Continuous
 62
     7
370
    25
100
AcDbLine
 10
-0.5478437621
 20
-1.2432759151
 30
0.0
 11
-0.5570306792
 21
-1.2522426278
 31
0.0
  0
LINE
  5
15A
330
1F
100
AcDbEntity
  8
0
  6
Continuous
 62
     7
370
    25
100
AcDbLine
 10
-2.8637435754
 20
1.5434116953
 30
0.0
 11
-2.8428574388
 21
1.5086179502
 31
0.0
  0
LINE
  5
15B
330
1F
100
AcDbEntity
  8
0
  6
Continuous
 62
     7
370
    25
100
AcDbLine
 10
-0.1024231429
 20
-1.356875273
 30
0.0
 11
-0.11161006
 21
-1.3658419858
 31
0.0
  0
LINE
  5
15C
330
1F
100
AcDbEntity
  8
0
  6
Continuous
 62
     7
370
    25
100
AcDbLine
 10
-0.0975359729
 20
-1.3631621143
 30
0.0
 11
-0.10672289
 21
-1.3721288271
 31
0.0
  0
LINE
  5
15D
330
1F
100
AcDbEntity
  8
0
  6
Continuous
 62
     7
370
    25
100
AcDbLine
 10
-2.8428574388
 20
-0.6511736736
 30
0.0
 11
-2.8637435754
 21
-0.6163799285
 31
0.0
  0
LINE
  5
15E
330
1F
100
AcDbEntity
  8
0
  6
Continuous
 62
     7
370
    25
100
AcDbLine
 10
-2.8637435754
 20
-0.6163799285
 30
0.0
 11
-2.8637435754
 21
1.5434116953
 31
0.0
  0
LINE
  5
15F
330
1F
100
AcDbEntity
  8
0
  6
Continuous
 62
     7
370
    25
100
AcDbLine
 10
-2.6235982266
 20
-0.7042470174
 30
0.0
 11
-2.6327851437
 21
-0.7132137301
 31
0.0
  0
LINE
  5
160
330
1F
100
AcDbEntity
  8
0
  6
Continuous
 62
     7
370
    25
100
AcDbLine
 10
-0.4304180492
 20
-1.2677332856
 30
0.0
 11
-0.4396049663
 21
-1.2766999983
 31
0.0
  0
LINE
  5
161
330
1F
100
AcDbEntity
  8
0
  6
Continuous
 62
     7
370
    25
100
AcDbLine
 10
-0.4353052192
 20
-1.2713636707
 30
0.0
 11
-0.4444921363
 21
-1.2803303835
 31
0.0
  0
LINE
  5
162
330
1F
100
AcDbEntity
  8
0
  6
Continuous
 62
     7
370
    25
100
AcDbLine
 10
-2.740456092
 20
-0.6657124602
 30
0.0
 11
-2.7496430091
 21
-0.6746791729
 31
0.0
  0
LINE
  5
163
330
1F
100
AcDbEntity
  8
0
  6
Continuous
 62
     7
370
    25
100
AcDbLine
 10
-2.7355110329
 20
-0.6719614412
 30
0.0
 11
-2.74469795
 21
-0.680928154
 31
0.0
  0
LINE
  5
164
330
1F
100
AcDbEntity
  8
0
  6
Continuous
 62
     7
370
    25
100
AcDbLine
 10
2.4721923874
 20
0.5429938702
 30
0.0
 11
-2.4721923874
 21
1.8867717066
 31
0.0
  0
LINE
  5
165
330
1F
100
AcDbEntity
  8
0
  6
Continuous
 62
     7
370
    25
100
AcDbLine
 10
2.6114708317
 20
-1.7896376269
 30
0.0
 11
2.6114708317
 21
0.3701539969
 31
0.0
  0
LINE
  5
166
330
1F
100
AcDbEntity
  8
0
  6
Continuous
 62
     8
370
    25
100
AcDbLine
 10
2.4383225541
 20
-0.8128559346
 30
0.0
 11
2.4911222177
 21
-0.8272057518
 31
0.0
  0
ARC
  5
167
330
1F
100
AcDbEntity
  8
0
  6
Continuous
 62
     7
370
    25
100
AcDbCircle
 10
2.1689510114
 20
0.1131593497
 30
0.0
 40
0.1905516081888754
100
AcDbArc
 50
3.2397042434
 51
74.4856678949
  0
ARC
  5
168
330
1F
100
AcDbEntity
  8
0
  6
Continuous
 62
     7
370
    25
100
AcDbCircle
 10
2.1613362671
 20
0.1054485553
 30
0.0
 40
0.1305347703591761
100
AcDbArc
 50
3.391562315
 51
74.3338098233
  0
ARC
  5
169
330
1F
100
AcDbEntity
  8
0
  6
Continuous
 62
     7
370
    25
100
AcDbCircle
 10
2.3512194468
 20
0.2910589303
 30
0.0
 40
0.1905516081888754
100
AcDbArc
 50
3.2397042434
 51
74.4856678949
  0
ARC
  5
16A
330
1F
100
AcDbEntity
  8
0
  6
Continuous
 62
     7
370
    25
100
AcDbCircle
 10
-2.7125512934
 20
-0.6434513192
 30
0.0
 40
0.1305347703591762
100
AcDbArc
 50
183.391562315
 51
254.3338098233
  0
ARC
  5
16B
330
1F
100
AcDbEntity
  8
0
  6
Continuous
 62
     7
370
    25
100
AcDbCircle
 10
-2.7729959576
 20
1.5097425648
 30
0.0
 40
0.0698705324652116
100
AcDbArc
 50
68.862298024
 51
180.9222550965
  0
ARC
  5
16C
330
1F
100
AcDbEntity
  8
0
  6
Continuous
 62
     7
370
    25
100
AcDbCircle
 10
2.2217809313
 20
-2.0477453288
 30
0.0
 40
0.0698705324652112
100
AcDbArc
 50
248.862298024
 51
0.9222550965
  0
ARC
  5
16D
330
1F
100
AcDbEntity
  8
0
  6
Continuous
 62
     7
370
    25
100
AcDbCircle
 10
0.4097420144
 20
-0.4728537612
 30
0.0
 40
0.0611072832651786
100
AcDbArc
 50
248.862298024
 51
0.9222550965
  0
ARC
  5
16E
330
1F
100
AcDbEntity
  8
0
  6
Continuous
 62
     7
370
    25
100
AcDbCircle
 10
0.3568783952
 20
-0.4786240041
 30
0.0
 40
0.1141629368899525
100
AcDbArc
 50
3.391562315
 51
74.3338098233
  0
ARC
  5
16F
330
1F
100
AcDbEntity
  8
0
  6
Continuous
 62
     7
370
    25
100
AcDbCircle
 10
-2.7047455818
 20
1.4078159719
 30
0.0
 40
0.0868607769017413
100
AcDbArc
 50
34.0978289071
 51
117.8746159008
  0
ARC
  5
170
330
1F
100
AcDbEntity
  8
0
  6
Continuous
 62
     7
370
    25
100
AcDbCircle
 10
-2.6961428078
 20
1.427322369
 30
0.0
 40
0.0761889345482088
100
AcDbArc
 50
135.2418936308
 51
227.4479981532
  0
ARC
  5
171
330
1F
100
AcDbEntity
  8
0
  6
Continuous
 62
     7
370
    25
100
AcDbCircle
 10
-2.698346898
 20
-0.6209945178
 30
0.0
 40
0.0742518229548381
100
AcDbArc
 50
131.6484111465
 51
226.3033804975
  0
ARC
  5
172
330
1F
100
AcDbEntity
  8
0
  6
Continuous
 62
     7
370
    25
100
AcDbCircle
 10
-2.6700676441
 20
-0.6323408332
 30
0.0
 40
0.0890528511195148
100
AcDbArc
 50
213.0657404857
 51
294.7497570936
  0
ARC
  5
173
330
1F
100
AcDbEntity
  8
0
  6
Continuous
 62
     7
370
    25
100
AcDbCircle
 10
-0.48510287
 20
-1.2035478147
 30
0.0
 40
0.0868607769017423
100
AcDbArc
 50
214.0978289071
 51
297.8746159008
  0
ARC
  5
174
330
1F
100
AcDbEntity
  8
0
  6
Continuous
 62
     7
370
    25
100
AcDbCircle
 10
-0.4749168603
 20
-1.2314615473
 30
0.0
 40
0.0573885642543153
100
AcDbArc
 50
307.9746217891
 51
2.0553202065
  0
ARC
  5
175
330
1F
100
AcDbEntity
  8
0
  6
Continuous
 62
     7
370
    25
100
AcDbCircle
 10
-0.5173728724
 20
-1.2326433099
 30
0.0
 40
0.0998602305864614
100
AcDbArc
 50
1.8592904745
 51
41.1526255965
  0
ARC
  5
176
330
1F
100
AcDbEntity
  8
0
  6
Continuous
 62
     7
370
    25
100
AcDbCircle
 10
-0.4472344805
 20
0.7841431956
 30
0.0
 40
0.0569072441014457
100
AcDbArc
 50
304.5182075525
 51
2.221143959
  0
ARC
  5
177
330
1F
100
AcDbEntity
  8
0
  6
Continuous
 62
     7
370
    25
100
AcDbCircle
 10
-0.4892980705
 20
0.783336972
 30
0.0
 40
0.098973912713841
100
AcDbArc
 50
1.743766335
 51
39.5982913938
  0
ARC
  5
178
330
1F
100
AcDbEntity
  8
0
  6
Continuous
 62
     7
370
    25
100
AcDbCircle
 10
-0.4926108437
 20
0.8040847044
 30
0.0
 40
0.0890528511195109
100
AcDbArc
 50
33.0657404857
 51
114.7497570936
  0
ARC
  5
179
330
1F
100
AcDbEntity
  8
0
  6
Continuous
 62
     7
370
    25
100
AcDbCircle
 10
-0.0850169499
 20
0.7175324533
 30
0.0
 40
0.0759136816109066
100
AcDbArc
 50
134.451338525
 51
227.5771639232
  0
ARC
  5
17A
330
1F
100
AcDbEntity
  8
0
  6
Continuous
 62
     7
370
    25
100
AcDbCircle
 10
-0.0599933402
 20
-1.3128535876
 30
0.0
 40
0.0739733472268998
100
AcDbArc
 50
131.524078202
 51
225.7512718115
  0
ARC
  5
17B
330
1F
100
AcDbEntity
  8
0
  6
Continuous
 62
     7
370
    25
100
AcDbCircle
 10
-0.0314575392
 20
-1.3240522215
 30
0.0
 40
0.0893097589265161
100
AcDbArc
 50
212.5688720923
 51
294.6672281385
  0
ARC
  5
17C
330
1F
100
AcDbEntity
  8
0
  6
Continuous
 62
     7
370
    25
100
AcDbCircle
 10
2.1536757875
 20
-1.9454337326
 30
0.0
 40
0.0872021899633244
100
AcDbArc
 50
214.2205298413
 51
297.1609985075
  0
ARC
  5
17D
330
1F
100
AcDbEntity
  8
0
  6
Continuous
 62
     7
370
    25
100
AcDbCircle
 10
2.1638688803
 20
-1.9738001771
 30
0.0
 40
0.0572629500079253
100
AcDbArc
 50
307.1221247709
 51
2.0973345891
  0
ARC
  5
17E
330
1F
100
AcDbEntity
  8
0
  6
Continuous
 62
     7
370
    25
100
AcDbCircle
 10
2.1212858135
 20
-1.9749444821
 30
0.0
 40
0.0998602305864497
100
AcDbArc
 50
1.8592904745
 51
41.1526255965
  0
ARC
  5
17F
330
1F
100
AcDbEntity
  8
0
  6
Continuous
 62
     7
370
    25
100
AcDbCircle
 10
2.1642037207
 20
0.0743800399
 30
0.0
 40
0.0569072441014434
100
AcDbArc
 50
304.5182075525
 51
2.221143959
  0
ARC
  5
180
330
1F
100
AcDbEntity
  8
0
  6
Continuous
 62
     7
370
    25
100
AcDbCircle
 10
2.1224354873
 20
0.0736482808
 30
0.0
 40
0.0986764487652813
100
AcDbArc
 50
1.7057676615
 51
39.0857565504
  0
ARC
  5
181
330
1F
100
AcDbEntity
  8
0
  6
Continuous
 62
     7
370
    25
100
AcDbCircle
 10
2.1188759384
 20
0.0940723269
 30
0.0
 40
0.0893097589265139
100
AcDbArc
 50
32.5688720923
 51
114.6672281385
  0
ARC
  5
182
330
1F
100
AcDbEntity
  8
0
  6
Continuous
 62
     7
370
    25
100
AcDbCircle
 10
-0.0934273522
 20
0.6976979799
 30
0.0
 40
0.0872021899633235
100
AcDbArc
 50
34.2205298413
 51
117.1609985075
  0
ARC
  5
183
330
1F
100
AcDbEntity
  8
0
  6
Continuous
 62
     7
370
    25
100
AcDbCircle
 10
2.1628627046
 20
-1.9364670199
 30
0.0
 40
0.0872021899633252
100
AcDbArc
 50
214.2205298413
 51
297.1609985075
  0
ARC
  5
184
330
1F
100
AcDbEntity
  8
0
  6
Continuous
 62
     7
370
    25
100
AcDbCircle
 10
-0.0222706221
 20
-1.3150855088
 30
0.0
 40
0.0893097589265163
100
AcDbArc
 50
212.5688720923
 51
294.6672281385
  0
ARC
  5
185
330
1F
100
AcDbEntity
  8
0
  6
Continuous
 62
     7
370
    25
100
AcDbCircle
 10
-0.0463728181
 20
-1.3022163202
 30
0.0
 40
0.0782894630465518
100
AcDbArc
 50
147.0148706074
 51
224.2799560487
  0
ARC
  5
186
330
1F
100
AcDbEntity
  8
0
  6
Continuous
 62
     7
370
    25
100
AcDbCircle
 10
-0.0719095463
 20
0.7281331368
 30
0.0
 40
0.0797847260191696
100
AcDbArc
 50
147.5519936819
 51
226.290325938
  0
ARC
  5
187
330
1F
100
AcDbEntity
  8
0
  6
Continuous
 62
     7
370
    25
100
AcDbCircle
 10
-0.4759159529
 20
-1.1945811019
 30
0.0
 40
0.0868607769017421
100
AcDbArc
 50
214.0978289071
 51
297.8746159008
  0
ARC
  5
188
330
1F
100
AcDbEntity
  8
0
  6
Continuous
 62
     7
370
    25
100
AcDbCircle
 10
-2.660880727
 20
-0.6233741205
 30
0.0
 40
0.0890528511195154
100
AcDbArc
 50
213.0657404857
 51
294.7497570936
  0
ARC
  5
189
330
1F
100
AcDbEntity
  8
0
  6
Continuous
 62
     7
370
    25
100
AcDbCircle
 10
-2.6805687295
 20
-0.6098817723
 30
0.0
 40
0.0818752825957742
100
AcDbArc
 50
148.9349683175
 51
222.9922303446
  0
ARC
  5
18A
330
1F
100
AcDbEntity
  8
0
  6
Continuous
 62
     7
370
    25
100
AcDbCircle
 10
-2.6832309589
 20
1.4378500512
 30
0.0
 40
0.0798757100359755
100
AcDbArc
 50
147.6055227496
 51
226.2367968703
  0
ARC
  5
18B
330
1F
100
AcDbEntity
  8
0
  6
Continuous
 62
     7
370
    25
100
AcDbCircle
 10
2.2564560957
 20
-2.0369652562
 30
0.0
 40
0.1027478988627289
100
AcDbArc
 50
249.1701966397
 51
0.6143564808
  0
ARC
  5
18C
330
1F
100
AcDbEntity
  8
0
  6
Continuous
 62
     7
370
    25
100
AcDbCircle
 10
2.4391010206
 20
-1.8610656351
 30
0.0
 40
0.1024124818405772
100
AcDbArc
 50
315.5302358236
 51
1.7355213222
  0
ARC
  5
18D
330
1F
100
AcDbEntity
  8
0
  6
Continuous
 62
     7
370
    25
100
AcDbCircle
 10
0.4183913417
 20
-0.4568393075
 30
0.0
 40
0.067555532334012
100
AcDbArc
 50
251.4439498239
 51
305.5714501197
  0
ARC
  5
18E
330
1F
100
AcDbEntity
  8
0
  6
Continuous
 62
     7
370
    25
100
AcDbCircle
 10
-2.7610015831
 20
1.544513393
 30
0.0
 40
0.1027478988627294
100
AcDbArc
 50
69.1701966397
 51
180.6143564808
  0
ARC
  5
18F
330
1F
100
AcDbEntity
  8
0
  6
Continuous
 62
     7
370
    25
100
AcDbCircle
 10
-2.5780935876
 20
1.713035665
 30
0.0
 40
0.1113543430689225
100
AcDbArc
 50
71.1939084543
 51
131.7161136168
  0
ARC
  5
190
330
1F
100
AcDbEntity
  8
0
  6
Continuous
 62
     7
370
    25
100
AcDbCircle
 10
-2.6734964988
 20
-0.6056112129
 30
0.0
 40
0.1905516081888756
100
AcDbArc
 50
183.2397042434
 51
254.4856678949
  0
ARC
  5
191
330
1F
100
AcDbEntity
  8
0
  6
Continuous
 62
     7
370
    25
100
AcDbCircle
 10
2.4207308739
 20
0.358988106
 30
0.0
 40
0.1910665031811224
100
AcDbArc
 50
3.3502635313
 51
74.3751086071
  0
ARC
  5
192
330
1F
100
AcDbEntity
  8
0
  6
Continuous
 62
     7
370
    25
100
AcDbCircle
 10
2.5091053289
 20
-1.7927392841
 30
0.0
 40
0.1024124818405794
100
AcDbArc
 50
315.5302358236
 51
1.7355213222
  0
ARC
  5
193
330
1F
100
AcDbEntity
  8
0
  6
Continuous
 62
     7
370
    25
100
AcDbCircle
 10
-2.5080892793
 20
1.781362016
 30
0.0
 40
0.1113543430689316
100
AcDbArc
 50
71.1939084543
 51
131.7161136168
  0
LINE
  5
1DD
330
1B
100
AcDbEntity
 67
     1
  8
0
  6
Continuous
 62
     7
370
    25
100
AcDbLine
 10
2.9027559055
 20
-1.2598425197
 30
0.0
 11
2.9027559055
 21
1.2598425197
 31
0.0
  0
LINE
  5
1DE
330
1B
100
AcDbEntity
 67
     1
  8
0
  6
Continuous
 62
     7
370
    25
100
AcDbLine
 10
2.9527559055
 20
1.2598425197
 30
0.0
 11
2.9027559055
 21
1.2598425197
 31
0.0
  0
LINE
  5
1DF
330
1B
100
AcDbEntity
 67
     1
  8
0
  6
Continuous
 62
     7
370
    25
100
AcDbLine
 10
2.9527559055
 20
1.2598425197
 30
0.0
 11
2.9527559055
 21
-1.2598425197
 31
0.0
  0
LINE
  5
1E0
330
1B
100
AcDbEntity
 67
     1
  8
0
  6
Continuous
 62
     7
370
    25
100
AcDbLine
 10
2.9027559055
 20
-1.2598425197
 30
0.0
 11
2.9527559055
 21
-1.2598425197
 31
0.0
  0
LINE
  5
1E1
330
1B
100
AcDbEntity
 67
     1
  8
0
  6
Continuous
 62
     7
370
    25
100
AcDbLine
 10
2.7952755906
 20
1.4173228346
 30
0.0
 11
2.7952755906
 21
1.3673228346
 31
0.0
  0
LINE
  5
1E2
330
1B
100
AcDbEntity
 67
     1
  8
0
  6
Continuous
 62
     7
370
    25
100
AcDbLine
 10
2.7952755906
 20
-1.3673228346
 30
0.0
 11
2.7952755906
 21
-1.4173228346
 31
0.0
  0
LINE
  5
1E3
330
1B
100
AcDbEntity
 67
     1
  8
0
  6
Continuous
 62
     7
370
    25
100
AcDbLine
 10
-2.7952755906
 20
1.4173228346
 30
0.0
 11
2.7952755906
 21
1.4173228346
 31
0.0
  0
LINE
  5
1E4
330
1B
100
AcDbEntity
 67
     1
  8
0
  6
Continuous
 62
     7
370
    25
100
AcDbLine
 10
2.7952755906
 20
1.3673228346
 30
0.0
 11
-2.7952755906
 21
1.3673228346
 31
0.0
  0
LINE
  5
1E5
330
1B
100
AcDbEntity
 67
     1
  8
0
  6
Continuous
 62
     7
370
    25
100
AcDbLine
 10
-2.7952755906
 20
1.4173228346
 30
0.0
 11
-2.7952755906
 21
1.3673228346
 31
0.0
  0
LINE
  5
1E6
330
1B
100
AcDbEntity
 67
     1
  8
0
  6
Continuous
 62
     7
370
    25
100
AcDbLine
 10
-2.7952755906
 20
-1.3673228346
 30
0.0
 11
2.7952755906
 21
-1.3673228346
 31
0.0
  0
LINE
  5
1E7
330
1B
100
AcDbEntity
 67
     1
  8
0
  6
Continuous
 62
     7
370
    25
100
AcDbLine
 10
2.7952755906
 20
-1.4173228346
 30
0.0
 11
-2.7952755906
 21
-1.4173228346
 31
0.0
  0
LINE
  5
1E8
330
1B
100
AcDbEntity
 67
     1
  8
0
  6
Continuous
 62
     7
370
    25
100
AcDbLine
 10
-2.7952755906
 20
-1.3673228346
 30
0.0
 11
-2.7952755906
 21
-1.4173228346
 31
0.0
  0
LINE
  5
1E9
330
1B
100
AcDbEntity
 67
     1
  8
0
  6
Continuous
 62
     7
370
    25
100
AcDbLine
 10
-2.9527559055
 20
1.2598425197
 30
0.0
 11
-2.9027559055
 21
1.2598425197
 31
0.0
  0
LINE
  5
1EA
330
1B
100
AcDbEntity
 67
     1
  8
0
  6
Continuous
 62
     7
370
    25
100
AcDbLine
 10
-2.9027559055
 20
-1.2598425197
 30
0.0
 11
-2.9527559055
 21
-1.2598425197
 31
0.0
  0
LINE
  5
1EB
330
1B
100
AcDbEntity
 67
     1
  8
0
  6
Continuous
 62
     7
370
    25
100
AcDbLine
 10
-2.9027559055
 20
1.2598425197
 30
0.0
 11
-2.9027559055
 21
-1.2598425197
 31
0.0
  0
LINE
  5
1EC
330
1B
100
AcDbEntity
 67
     1
  8
0
  6
Continuous
 62
     7
370
    25
100
AcDbLine
 10
-2.9527559055
 20
-1.2598425197
 30
0.0
 11
-2.9527559055
 21
1.2598425197
 31
0.0
  0
LINE
  5
1ED
330
1B
100
AcDbEntity
 67
     1
  8
0
  6
Continuous
 62
     7
370
    25
100
AcDbLine
 10
-2.7951244928
 20
1.1297042195
 30
0.0
 11
-1.612465388
 21
0.0
 31
0.0
  0
LINE
  5
1EE
330
1B
100
AcDbEntity
 67
     1
  8
0
  6
Continuous
 62
     7
370
    25
100
AcDbLine
 10
-1.612465388
 20
0.0
 30
0.0
 11
-2.7951530543
 21
-1.1297315022
 31
0.0
  0
LINE
  5
1EF
330
1B
100
AcDbEntity
 67
     1
  8
0
  6
Continuous
 62
     7
370
    25
100
AcDbLine
 10
-2.7973595694
 20
-1.2577096976
 30
0.0
 11
-2.7917682557
 21
-1.2634320577
 31
0.0
  0
LINE
  5
1F0
330
1B
100
AcDbEntity
 67
     1
  8
0
  6
Continuous
 62
     7
370
    25
100
AcDbLine
 10
-0.190955634
 20
-1.2333977538
 30
0.0
 11
-0.1854297748
 21
-1.22761287
 31
0.0
  0
LINE
  5
1F1
330
1B
100
AcDbEntity
 67
     1
  8
0
  6
Continuous
 62
     7
370
    25
100
AcDbLine
 10
-1.3402905175
 20
0.0
 30
0.0
 11
-0.1575945178
 21
1.1297394624
 31
0.0
  0
LINE
  5
1F2
330
1B
100
AcDbEntity
 67
     1
  8
0
  6
Continuous
 62
     7
370
    25
100
AcDbLine
 10
-0.1553880028
 20
1.2577176578
 30
0.0
 11
-0.1609793165
 21
1.2634400179
 31
0.0
  0
LINE
  5
1F3
330
1B
100
AcDbEntity
 67
     1
  8
0
  6
Continuous
 62
     7
370
    25
100
AcDbLine
 10
-2.792512661
 20
1.2627349616
 30
0.0
 11
-2.7980385201
 21
1.2569500778
 31
0.0
  0
LINE
  5
1F4
330
1B
100
AcDbEntity
 67
     1
  8
0
  6
Continuous
 62
     7
370
    25
100
AcDbLine
 10
-1.4763779528
 20
0.129993968
 30
0.0
 11
-2.6652668027
 21
1.2656489889
 31
0.0
  0
LINE
  5
1F5
330
1B
100
AcDbEntity
 67
     1
  8
0
  6
Continuous
 62
     7
370
    25
100
AcDbLine
 10
-0.2875176625
 20
1.265621708
 30
0.0
 11
-1.4763779528
 21
0.129993968
 31
0.0
  0
LINE
  5
1F6
330
1B
100
AcDbEntity
 67
     1
  8
0
  6
Continuous
 62
     7
370
    25
100
AcDbLine
 10
-0.1883438021
 20
-1.1003670117
 30
0.0
 11
-1.3402905175
 21
0.0
 31
0.0
  0
LINE
  5
1F7
330
1B
100
AcDbEntity
 67
     1
  8
0
  6
Continuous
 62
     7
370
    25
100
AcDbLine
 10
0.2875176625
 20
1.265621708
 30
0.0
 11
1.4763779528
 21
0.129993968
 31
0.0
  0
LINE
  5
1F8
330
1B
100
AcDbEntity
 67
     1
  8
0
  6
Continuous
 62
     7
370
    25
100
AcDbLine
 10
1.4763779528
 20
0.129993968
 30
0.0
 11
2.6652668027
 21
1.2656489889
 31
0.0
  0
LINE
  5
1F9
330
1B
100
AcDbEntity
 67
     1
  8
0
  6
Continuous
 62
     7
370
    25
100
AcDbLine
 10
2.792512661
 20
1.2627349616
 30
0.0
 11
2.7980385201
 21
1.2569500778
 31
0.0
  0
LINE
  5
1FA
330
1B
100
AcDbEntity
 67
     1
  8
0
  6
Continuous
 62
     7
370
    25
100
AcDbLine
 10
2.7951244928
 20
1.1297042195
 30
0.0
 11
1.612465388
 21
0.0
 31
0.0
  0
LINE
  5
1FB
330
1B
100
AcDbEntity
 67
     1
  8
0
  6
Continuous
 62
     7
370
    25
100
AcDbLine
 10
1.612465388
 20
0.0
 30
0.0
 11
2.7951530543
 21
-1.1297315022
 31
0.0
  0
LINE
  5
1FC
330
1B
100
AcDbEntity
 67
     1
  8
0
  6
Continuous
 62
     7
370
    25
100
AcDbLine
 10
2.7973595694
 20
-1.2577096976
 30
0.0
 11
2.7917682557
 21
-1.2634320577
 31
0.0
  0
LINE
  5
1FD
330
1B
100
AcDbEntity
 67
     1
  8
0
  6
Continuous
 62
     7
370
    25
100
AcDbLine
 10
2.6652299097
 20
-1.2656137478
 30
0.0
 11
1.4763779528
 21
-0.129993968
 31
0.0
  0
LINE
  5
1FE
330
1B
100
AcDbEntity
 67
     1
  8
0
  6
Continuous
 62
     7
370
    25
100
AcDbLine
 10
1.4763779528
 20
-0.129993968
 30
0.0
 11
0.3182014922
 21
-1.2363117811
 31
0.0
  0
LINE
  5
1FF
330
1B
100
AcDbEntity
 67
     1
  8
0
  6
Continuous
 62
     7
370
    25
100
AcDbLine
 10
0.190955634
 20
-1.2333977538
 30
0.0
 11
0.1854297748
 21
-1.22761287
 31
0.0
  0
LINE
  5
200
330
1B
100
AcDbEntity
 67
     1
  8
0
  6
Continuous
 62
     7
370
    25
100
AcDbLine
 10
0.1883438021
 20
-1.1003670117
 30
0.0
 11
1.3402905175
 21
0.0
 31
0.0
  0
LINE
  5
201
330
1B
100
AcDbEntity
 67
     1
  8
0
  6
Continuous
 62
     7
370
    25
100
AcDbLine
 10
1.3402905175
 20
0.0
 30
0.0
 11
0.1575945178
 21
1.1297394624
 31
0.0
  0
LINE
  5
202
330
1B
100
AcDbEntity
 67
     1
  8
0
  6
Continuous
 62
     7
370
    25
100
AcDbLine
 10
0.1553880028
 20
1.2577176578
 30
0.0
 11
0.1609793165
 21
1.2634400179
 31
0.0
  0
LINE
  5
203
330
1B
100
AcDbEntity
 67
     1
  8
0
  6
Continuous
 62
     7
370
    25
100
AcDbLine
 10
-1.4763779528
 20
-0.129993968
 30
0.0
 11
-0.3182014922
 21
-1.2363117811
 31
0.0
  0
LINE
  5
204
330
1B
100
AcDbEntity
 67
     1
  8
0
  6
Continuous
 62
     7
370
    25
100
AcDbLine
 10
-2.6652299097
 20
-1.2656137478
 30
0.0
 11
-1.4763779528
 21
-0.129993968
 31
0.0
  0
LINE
  5
205
330
1B
100
AcDbEntity
 67
     1
  8
0
  6
Continuous
 62
     7
370
    25
100
AcDbLine
 10
-0.75
 20
-0.094
 30
0.0
 11
0.75
 21
-0.094
 31
0.0
  0
LINE
  5
206
330
1B
100
AcDbEntity
 67
     1
  8
0
  6
Continuous
 62
     7
370
    25
100
AcDbLine
 10
0.75
 20
0.094
 30
0.0
 11
-0.75
 21
0.094
 31
0.0
  0
ARC
  5
207
330
1B
100
AcDbEntity
 67
     1
  8
0
  6
Continuous
 62
     7
370
    25
100
AcDbCircle
 10
2.7952755906
 20
1.2598425197
 30
0.0
 40
0.1574803149606314
100
AcDbArc
 50
0.0
 51
90.0
  0
ARC
  5
208
330
1B
100
AcDbEntity
 67
     1
  8
0
  6
Continuous
 62
     7
370
    25
100
AcDbCircle
 10
2.7952755906
 20
1.2598425197
 30
0.0
 40
0.1074803149606294
100
AcDbArc
 50
0.0
 51
90.0
  0
ARC
  5
209
330
1B
100
AcDbEntity
 67
     1
  8
0
  6
Continuous
 62
     7
370
    25
100
AcDbCircle
 10
2.7952755906
 20
-1.2598425197
 30
0.0
 40
0.1074803149606316
100
AcDbArc
 50
270.0
 51
0.0
  0
ARC
  5
20A
330
1B
100
AcDbEntity
 67
     1
  8
0
  6
Continuous
 62
     7
370
    25
100
AcDbCircle
 10
2.7952755906
 20
-1.2598425197
 30
0.0
 40
0.1574803149606299
100
AcDbArc
 50
270.0
 51
0.0
  0
ARC
  5
20B
330
1B
100
AcDbEntity
 67
     1
  8
0
  6
Continuous
 62
     7
370
    25
100
AcDbCircle
 10
-2.7952755906
 20
1.2598425197
 30
0.0
 40
0.1574803149606299
100
AcDbArc
 50
90.0
 51
180.0
  0
ARC
  5
20C
330
1B
100
AcDbEntity
 67
     1
  8
0
  6
Continuous
 62
     7
370
    25
100
AcDbCircle
 10
-2.7952755906
 20
1.2598425197
 30
0.0
 40
0.1074803149606316
100
AcDbArc
 50
90.0
 51
180.0
  0
ARC
  5
20D
330
1B
100
AcDbEntity
 67
     1
  8
0
  6
Continuous
 62
     7
370
    25
100
AcDbCircle
 10
-2.7952755906
 20
-1.2598425197
 30
0.0
 40
0.1074803149606294
100
AcDbArc
 50
180.0
 51
270.0
  0
ARC
  5
20E
330
1B
100
AcDbEntity
 67
     1
  8
0
  6
Continuous
 62
     7
370
    25
100
AcDbCircle
 10
-2.7952755906
 20
-1.2598425197
 30
0.0
 40
0.1574803149606314
100
AcDbArc
 50
180.0
 51
270.0
  0
ARC
  5
20F
330
1B
100
AcDbEntity
 67
     1
  8
0
  6
Continuous
 62
     7
370
    25
100
AcDbCircle
 10
0.75
 20
0.0
 30
0.0
 40
0.0940000000000001
100
AcDbArc
 50
270.0
 51
90.0
  0
ARC
  5
210
330
1B
100
AcDbEntity
 67
     1
  8
0
  6
Continuous
 62
     7
370
    25
100
AcDbCircle
 10
-2.7329871389
 20
-1.1948114449
 30
0.0
 40
0.0899999999999997
100
AcDbArc
 50
133.6881122175
 51
224.336372
  0
ARC
  5
211
330
1B
100
AcDbEntity
 67
     1
  8
0
  6
Continuous
 62
     7
370
    25
100
AcDbCircle
 10
-0.2505097176
 20
-1.1654469545
 30
0.0
 40
0.0900000000000083
100
AcDbArc
 50
316.3118877825
 51
46.3118877825
  0
ARC
  5
212
330
1B
100
AcDbEntity
 67
     1
  8
0
  6
Continuous
 62
     7
370
    25
100
AcDbCircle
 10
-0.2197604333
 20
1.1948194051
 30
0.0
 40
0.0900000000000044
100
AcDbArc
 50
313.6881122175
 51
44.336372
  0
ARC
  5
213
330
1B
100
AcDbEntity
 67
     1
  8
0
  6
Continuous
 62
     7
370
    25
100
AcDbCircle
 10
-0.225351747
 20
1.2005417652
 30
0.0
 40
0.0899999999999989
100
AcDbArc
 50
44.336372
 51
133.6881122175
  0
ARC
  5
214
330
1B
100
AcDbEntity
 67
     1
  8
0
  6
Continuous
 62
     7
370
    25
100
AcDbCircle
 10
-2.7274327182
 20
1.2005690461
 30
0.0
 40
0.0899999999999972
100
AcDbArc
 50
46.3118877825
 51
136.3118877825
  0
ARC
  5
215
330
1B
100
AcDbEntity
 67
     1
  8
0
  6
Continuous
 62
     7
370
    25
100
AcDbCircle
 10
2.7329871389
 20
-1.1948114449
 30
0.0
 40
0.0899999999999985
100
AcDbArc
 50
315.663628
 51
46.3118877825
  0
ARC
  5
216
330
1B
100
AcDbEntity
 67
     1
  8
0
  6
Continuous
 62
     7
370
    25
100
AcDbCircle
 10
2.7329585774
 20
1.1947841623
 30
0.0
 40
0.090000000000007
100
AcDbArc
 50
313.6881122175
 51
43.6881122175
  0
ARC
  5
217
330
1B
100
AcDbEntity
 67
     1
  8
0
  6
Continuous
 62
     7
370
    25
100
AcDbCircle
 10
0.225351747
 20
1.2005417652
 30
0.0
 40
0.090000000000001
100
AcDbArc
 50
46.3118877825
 51
135.663628
  0
ARC
  5
218
330
1B
100
AcDbEntity
 67
     1
  8
0
  6
Continuous
 62
     7
370
    25
100
AcDbCircle
 10
2.7274327182
 20
1.2005690461
 30
0.0
 40
0.0899999999999972
100
AcDbArc
 50
43.6881122175
 51
133.6881122175
  0
ARC
  5
219
330
1B
100
AcDbEntity
 67
     1
  8
0
  6
Continuous
 62
     7
370
    25
100
AcDbCircle
 10
2.7273958252
 20
-1.200533805
 30
0.0
 40
0.090000000000002
100
AcDbArc
 50
226.3118877825
 51
315.663628
  0
ARC
  5
21A
330
1B
100
AcDbEntity
 67
     1
  8
0
  6
Continuous
 62
     7
370
    25
100
AcDbCircle
 10
0.2560355767
 20
-1.1712318383
 30
0.0
 40
0.0900000000000004
100
AcDbArc
 50
223.6881122175
 51
313.6881122175
  0
ARC
  5
21B
330
1B
100
AcDbEntity
 67
     1
  8
0
  6
Continuous
 62
     7
370
    25
100
AcDbCircle
 10
0.2505097176
 20
-1.1654469545
 30
0.0
 40
0.0900000000000029
100
AcDbArc
 50
133.6881122175
 51
223.6881122175
  0
ARC
  5
21C
330
1B
100
AcDbEntity
 67
     1
  8
0
  6
Continuous
 62
     7
370
    25
100
AcDbCircle
 10
0.2197604333
 20
1.1948194051
 30
0.0
 40
0.0900000000000017
100
AcDbArc
 50
135.663628
 51
226.3118877825
  0
ARC
  5
21D
330
1B
100
AcDbEntity
 67
     1
  8
0
  6
Continuous
 62
     7
370
    25
100
AcDbCircle
 10
-0.2560355767
 20
-1.1712318383
 30
0.0
 40
0.0900000000000006
100
AcDbArc
 50
226.3118877825
 51
316.3118877825
  0
ARC
  5
21E
330
1B
100
AcDbEntity
 67
     1
  8
0
  6
Continuous
 62
     7
370
    25
100
AcDbCircle
 10
-2.7273958252
 20
-1.200533805
 30
0.0
 40
0.0900000000000019
100
AcDbArc
 50
224.336372
 51
313.6881122175
  0
ARC
  5
21F
330
1B
100
AcDbEntity
 67
     1
  8
0
  6
Continuous
 62
     7
370
    25
100
AcDbCircle
 10
-0.75
 20
0.0
 30
0.0
 40
0.094
100
AcDbArc
 50
90.0
 51
270.0
  0
ARC
  5
220
330
1B
100
AcDbEntity
 67
     1
  8
0
  6
Continuous
 62
     7
370
    25
100
AcDbCircle
 10
-2.7329585774
 20
1.1947841623
 30
0.0
 40
0.0900000000000009
100
AcDbArc
 50
136.3118877825
 51
226.3118877825
  0
VIEWPORT
  5
62A
330
1B
100
AcDbEntity
 67
     1
  8
0
100
AcDbViewport
 10
0.0
 20
0.0
 30
0.0
 40
8.4
 41
6.4
 68
     1
 69
     1
 12
-0.1261158356
 22
-0.123498398
 13
0.0
 23
0.0
 14
0.5
 24
0.5
 15
0.5
 25
0.5
 16
0.0
 26
0.0
 36
1.0
 17
0.0
 27
0.0
 37
0.0
 42
50.0
 43
0.0
 44
0.0
 45
4.2550648675
 50
0.0
 51
0.0
 72
   100
 90
   557152
  1

281
     0
 71
     1
 74
     0
110
0.0
120
0.0
130
0.0
111
1.0
121
0.0
131
0.0
112
0.0
122
1.0
132
0.0
 79
     0
146
0.0
  0
ENDSEC
  0
SECTION
  2
OBJECTS
  0
DICTIONARY
  5
C
330
0
100
AcDbDictionary
281
     1
  3
ACAD_GROUP
350
D
  3
ACAD_LAYOUT
350
1A
  3
ACAD_MLINESTYLE
350
17
  3
ACAD_PLOTSETTINGS
350
19
  3
ACAD_PLOTSTYLENAME
350
E
  3
ACAD_SCALELIST
350
47
  3
DWGPROPS
350
63C
  0
DICTIONARY
  5
D
102
{ACAD_REACTORS
330
C
102
}
330
C
100
AcDbDictionary
281
     1
  0
DICTIONARY
  5
1A
102
{ACAD_REACTORS
330
C
102
}
330
C
100
AcDbDictionary
281
     1
  3
_Back
350
26
  3
_Bottom
350
2B9
  3
_Dimetric
350
50B
  3
_Front
350
1E
  3
_Isometric
350
2E2
  3
_Left
350
232
  3
_Right
350
261
  3
_Top
350
290
  3
_Trimetric
350
3E6
  3
Model
350
22
  0
DICTIONARY
  5
17
102
{ACAD_REACTORS
330
C
102
}
330
C
100
AcDbDictionary
281
     1
  3
Standard
350
18
  0
DICTIONARY
  5
19
102
{ACAD_REACTORS
330
C
102
}
330
C
100
AcDbDictionary
281
     1
  0
ACDBDICTIONARYWDFLT
  5
E
102
{ACAD_REACTORS
330
C
102
}
330
C
100
AcDbDictionary
281
     1
  3
Normal
350
F
100
AcDbDictionaryWithDefault
340
F
  0
DICTIONARY
  5
47
102
{ACAD_REACTORS
330
C
102
}
330
C
100
AcDbDictionary
281
     1
  3
A0
350
48
  3
A1
350
49
  3
A2
350
4A
  3
A3
350
4B
  3
A4
350
4C
  3
A5
350
4D
  3
A6
350
4E
  3
A7
350
4F
  3
A8
350
50
  3
A9
350
51
  3
B0
350
52
  3
B1
350
53
  3
B2
350
54
  3
B3
350
55
  3
B4
350
56
  3
B5
350
57
  3
B6
350
58
  3
B7
350
59
  3
B8
350
5A
  3
B9
350
5B
  3
C0
350
5C
  3
C1
350
5D
  3
C2
350
5E
  3
C3
350
5F
  3
C4
350
60
  3
C5
350
61
  3
C6
350
62
  3
C7
350
63
  3
C8
350
64
  3
C9
350
65
  3
D0
350
66
  3
D1
350
67
  3
D2
350
68
  0
XRECORD
  5
63C
102
{ACAD_REACTORS
330
C
102
}
330
C
100
AcDbXrecord
280
     1
  1
DWGPROPS COOKIE
  2

  3

  4

  6

  7

  8
jeffs
  9

300
=
301
=
302
=
303
=
304
=
305
=
306
=
307
=
308
=
309
=
 40
0.0
 41
2460952.603795984
 42
2460952.603827789
  1

 90
        0
  0
LAYOUT
  5
26
102
{ACAD_REACTORS
330
1A
102
}
330
1A
100
AcDbPlotSettings
  1

  2
none_device
  4
Letter_(8.50_x_11.00_Inches)
  6

 40
6.35
 41
6.35
 42
6.35001
 43
6.35001
 44
215.9
 45
279.4
 46
0.0
 47
0.0
 48
0.0
 49
0.0
140
0.0
141
0.0
142
1.0
143
0.5624297174
 70
   688
 72
     0
 73
     1
 74
     1
  7

 75
     0
147
1.7779999333
148
75.0
149
36.0
100
AcDbLayout
  1
_Back
 70
     1
 71
     2
 10
0.0
 20
0.0
 11
0.0
 21
0.0
 12
0.0
 22
0.0
 32
0.0
 14
0.0
 24
0.0
 34
0.0
 15
0.0
 25
0.0
 35
0.0
146
0.0
 13
0.0
 23
0.0
 33
0.0
 16
1.0
 26
0.0
 36
0.0
 17
0.0
 27
1.0
 37
0.0
 76
     0
330
23
331
62C
  0
LAYOUT
  5
2B9
102
{ACAD_REACTORS
330
1A
102
}
330
1A
100
AcDbPlotSettings
  1

  2
none_device
  4
Letter_(8.50_x_11.00_Inches)
  6

 40
6.35
 41
6.35
 42
6.35001
 43
6.35001
 44
215.9
 45
279.4
 46
0.0
 47
0.0
 48
0.0
 49
0.0
140
0.0
141
0.0
142
1.0
143
0.5624297174
 70
   688
 72
     0
 73
     1
 74
     1
  7

 75
     0
147
1.7779999333
148
75.0
149
36.0
100
AcDbLayout
  1
_Bottom
 70
     1
 71
     6
 10
0.0
 20
0.0
 11
0.0
 21
0.0
 12
0.0
 22
0.0
 32
0.0
 14
0.0
 24
0.0
 34
0.0
 15
0.0
 25
0.0
 35
0.0
146
0.0
 13
0.0
 23
0.0
 33
0.0
 16
1.0
 26
0.0
 36
0.0
 17
0.0
 27
1.0
 37
0.0
 76
     0
330
2B8
331
634
  0
LAYOUT
  5
50B
102
{ACAD_REACTORS
330
1A
102
}
330
1A
100
AcDbPlotSettings
  1

  2
none_device
  4
Letter_(8.50_x_11.00_Inches)
  6

 40
6.35
 41
6.35
 42
6.35001
 43
6.35001
 44
215.9
 45
279.4
 46
0.0
 47
0.0
 48
0.0
 49
0.0
140
0.0
141
0.0
142
1.0
143
0.5624297174
 70
   688
 72
     0
 73
     1
 74
     1
  7

 75
     0
147
1.7779999333
148
75.0
149
36.0
100
AcDbLayout
  1
_Dimetric
 70
     1
 71
     9
 10
0.0
 20
0.0
 11
0.0
 21
0.0
 12
0.0
 22
0.0
 32
0.0
 14
0.0
 24
0.0
 34
0.0
 15
0.0
 25
0.0
 35
0.0
146
0.0
 13
0.0
 23
0.0
 33
0.0
 16
1.0
 26
0.0
 36
0.0
 17
0.0
 27
1.0
 37
0.0
 76
     0
330
50A
331
63A
  0
LAYOUT
  5
1E
102
{ACAD_REACTORS
330
1A
102
}
330
1A
100
AcDbPlotSettings
  1

  2
none_device
  4
Letter_(8.50_x_11.00_Inches)
  6

 40
6.35
 41
6.35
 42
6.35001
 43
6.35001
 44
215.9
 45
279.4
 46
0.0
 47
0.0
 48
0.0
 49
0.0
140
0.0
141
0.0
142
1.0
143
0.5624297174
 70
   688
 72
     0
 73
     1
 74
     1
  7

 75
     0
147
1.7779999333
148
75.0
149
36.0
100
AcDbLayout
  1
_Front
 70
     1
 71
     1
 10
-3.0933635563
 20
-1.557930264
 11
3.0933633349
 21
3.2227223337
 12
0.0
 22
0.0
 32
0.0
 14
-2.9527559055
 24
-1.4173228346
 34
0.0
 15
2.9527559055
 25
1.4173228346
 35
0.0
146
0.0
 13
0.0
 23
0.0
 33
0.0
 16
1.0
 26
0.0
 36
0.0
 17
0.0
 27
1.0
 37
0.0
 76
     0
330
1B
331
62A
  0
LAYOUT
  5
2E2
102
{ACAD_REACTORS
330
1A
102
}
330
1A
100
AcDbPlotSettings
  1

  2
none_device
  4
Letter_(8.50_x_11.00_Inches)
  6

 40
6.35
 41
6.35
 42
6.35001
 43
6.35001
 44
215.9
 45
279.4
 46
0.0
 47
0.0
 48
0.0
 49
0.0
140
0.0
141
0.0
142
1.0
143
0.5624297174
 70
   688
 72
     0
 73
     1
 74
     1
  7

 75
     0
147
1.7779999333
148
75.0
149
36.0
100
AcDbLayout
  1
_Isometric
 70
     1
 71
     7
 10
0.0
 20
0.0
 11
0.0
 21
0.0
 12
0.0
 22
0.0
 32
0.0
 14
0.0
 24
0.0
 34
0.0
 15
0.0
 25
0.0
 35
0.0
146
0.0
 13
0.0
 23
0.0
 33
0.0
 16
1.0
 26
0.0
 36
0.0
 17
0.0
 27
1.0
 37
0.0
 76
     0
330
2E1
331
636
  0
LAYOUT
  5
232
102
{ACAD_REACTORS
330
1A
102
}
330
1A
100
AcDbPlotSettings
  1

  2
none_device
  4
Letter_(8.50_x_11.00_Inches)
  6

 40
6.35
 41
6.35
 42
6.35001
 43
6.35001
 44
215.9
 45
279.4
 46
0.0
 47
0.0
 48
0.0
 49
0.0
140
0.0
141
0.0
142
1.0
143
0.5624297174
 70
   688
 72
     0
 73
     1
 74
     1
  7

 75
     0
147
1.7779999333
148
75.0
149
36.0
100
AcDbLayout
  1
_Left
 70
     1
 71
     3
 10
0.0
 20
0.0
 11
0.0
 21
0.0
 12
0.0
 22
0.0
 32
0.0
 14
0.0
 24
0.0
 34
0.0
 15
0.0
 25
0.0
 35
0.0
146
0.0
 13
0.0
 23
0.0
 33
0.0
 16
1.0
 26
0.0
 36
0.0
 17
0.0
 27
1.0
 37
0.0
 76
     0
330
231
331
62E
  0
LAYOUT
  5
261
102
{ACAD_REACTORS
330
1A
102
}
330
1A
100
AcDbPlotSettings
  1

  2
none_device
  4
Letter_(8.50_x_11.00_Inches)
  6

 40
6.35
 41
6.35
 42
6.35001
 43
6.35001
 44
215.9
 45
279.4
 46
0.0
 47
0.0
 48
0.0
 49
0.0
140
0.0
141
0.0
142
1.0
143
0.5624297174
 70
   688
 72
     0
 73
     1
 74
     1
  7

 75
     0
147
1.7779999333
148
75.0
149
36.0
100
AcDbLayout
  1
_Right
 70
     1
 71
     4
 10
0.0
 20
0.0
 11
0.0
 21
0.0
 12
0.0
 22
0.0
 32
0.0
 14
0.0
 24
0.0
 34
0.0
 15
0.0
 25
0.0
 35
0.0
146
0.0
 13
0.0
 23
0.0
 33
0.0
 16
1.0
 26
0.0
 36
0.0
 17
0.0
 27
1.0
 37
0.0
 76
     0
330
260
331
630
  0
LAYOUT
  5
290
102
{ACAD_REACTORS
330
1A
102
}
330
1A
100
AcDbPlotSettings
  1

  2
none_device
  4
Letter_(8.50_x_11.00_Inches)
  6

 40
6.35
 41
6.35
 42
6.35001
 43
6.35001
 44
215.9
 45
279.4
 46
0.0
 47
0.0
 48
0.0
 49
0.0
140
0.0
141
0.0
142
1.0
143
0.5624297174
 70
   688
 72
     0
 73
     1
 74
     1
  7

 75
     0
147
1.7779999333
148
75.0
149
36.0
100
AcDbLayout
  1
_Top
 70
     1
 71
     5
 10
0.0
 20
0.0
 11
0.0
 21
0.0
 12
0.0
 22
0.0
 32
0.0
 14
0.0
 24
0.0
 34
0.0
 15
0.0
 25
0.0
 35
0.0
146
0.0
 13
0.0
 23
0.0
 33
0.0
 16
1.0
 26
0.0
 36
0.0
 17
0.0
 27
1.0
 37
0.0
 76
     0
330
28F
331
632
  0
LAYOUT
  5
3E6
102
{ACAD_REACTORS
330
1A
102
}
330
1A
100
AcDbPlotSettings
  1

  2
none_device
  4
Letter_(8.50_x_11.00_Inches)
  6

 40
6.35
 41
6.35
 42
6.35001
 43
6.35001
 44
215.9
 45
279.4
 46
0.0
 47
0.0
 48
0.0
 49
0.0
140
0.0
141
0.0
142
1.0
143
0.5624297174
 70
   688
 72
     0
 73
     1
 74
     1
  7

 75
     0
147
1.7779999333
148
75.0
149
36.0
100
AcDbLayout
  1
_Trimetric
 70
     1
 71
     8
 10
0.0
 20
0.0
 11
0.0
 21
0.0
 12
0.0
 22
0.0
 32
0.0
 14
0.0
 24
0.0
 34
0.0
 15
0.0
 25
0.0
 35
0.0
146
0.0
 13
0.0
 23
0.0
 33
0.0
 16
1.0
 26
0.0
 36
0.0
 17
0.0
 27
1.0
 37
0.0
 76
     0
330
3E5
331
638
  0
LAYOUT
  5
22
102
{ACAD_REACTORS
330
1A
102
}
330
1A
100
AcDbPlotSettings
  1

  2
none_device
  4
ANSI_A_(11.00_x_8.50_Inches)
  6

 40
6.35
 41
19.05
 42
6.35000508
 43
19.05000254
 44
279.4
 45
215.9
 46
139.721265739
 47
95.1390362153
 48
0.0
 49
0.0
140
0.0
141
0.0
142
1.9889439945
143
1.0
 70
  1696
 72
     0
 73
     0
 74
     0
  7

 75
     0
147
0.5913241897
148
-39.4088153714
149
0.0
100
AcDbLayout
  1
Model
 70
     1
 71
     0
 10
0.0
 20
0.0
 11
12.0
 21
9.0
 12
0.0
 22
0.0
 32
0.0
 14
-2.863749482
 24
-2.1397131551
 34
0.0
 15
2.6115178108
 25
1.8927163591
 35
0.0
146
0.0
 13
0.0
 23
0.0
 33
0.0
 16
1.0
 26
0.0
 36
0.0
 17
0.0
 27
1.0
 37
0.0
 76
     0
330
1F
331
29
  0
MLINESTYLE
  5
18
102
{ACAD_REACTORS
330
17
102
}
330
17
100
AcDbMlineStyle
  2
Standard
 70
     0
  3

 62
   256
 51
90.0
 52
90.0
 71
     2
 49
0.5
 62
   256
  6
BYLAYER
 49
-0.5
 62
   256
  6
BYLAYER
  0
ACDBPLACEHOLDER
  5
F
102
{ACAD_REACTORS
330
E
102
}
330
E
  0
SCALE
  5
48
102
{ACAD_REACTORS
330
47
102
}
330
47
100
AcDbScale
 70
     0
300
1:1
140
1.0
141
1.0
290
     1
  0
SCALE
  5
49
102
{ACAD_REACTORS
330
47
102
}
330
47
100
AcDbScale
 70
     0
300
1:2
140
1.0
141
2.0
290
     0
  0
SCALE
  5
4A
102
{ACAD_REACTORS
330
47
102
}
330
47
100
AcDbScale
 70
     0
300
1:4
140
1.0
141
4.0
290
     0
  0
SCALE
  5
4B
102
{ACAD_REACTORS
330
47
102
}
330
47
100
AcDbScale
 70
     0
300
1:5
140
1.0
141
5.0
290
     0
  0
SCALE
  5
4C
102
{ACAD_REACTORS
330
47
102
}
330
47
100
AcDbScale
 70
     0
300
1:8
140
1.0
141
8.0
290
     0
  0
SCALE
  5
4D
102
{ACAD_REACTORS
330
47
102
}
330
47
100
AcDbScale
 70
     0
300
1:10
140
1.0
141
10.0
290
     0
  0
SCALE
  5
4E
102
{ACAD_REACTORS
330
47
102
}
330
47
100
AcDbScale
 70
     0
300
1:16
140
1.0
141
16.0
290
     0
  0
SCALE
  5
4F
102
{ACAD_REACTORS
330
47
102
}
330
47
100
AcDbScale
 70
     0
300
1:20
140
1.0
141
20.0
290
     0
  0
SCALE
  5
50
102
{ACAD_REACTORS
330
47
102
}
330
47
100
AcDbScale
 70
     0
300
1:30
140
1.0
141
30.0
290
     0
  0
SCALE
  5
51
102
{ACAD_REACTORS
330
47
102
}
330
47
100
AcDbScale
 70
     0
300
1:40
140
1.0
141
40.0
290
     0
  0
SCALE
  5
52
102
{ACAD_REACTORS
330
47
102
}
330
47
100
AcDbScale
 70
     0
300
1:50
140
1.0
141
50.0
290
     0
  0
SCALE
  5
53
102
{ACAD_REACTORS
330
47
102
}
330
47
100
AcDbScale
 70
     0
300
1:100
140
1.0
141
100.0
290
     0
  0
SCALE
  5
54
102
{ACAD_REACTORS
330
47
102
}
330
47
100
AcDbScale
 70
     0
300
2:1
140
2.0
141
1.0
290
     0
  0
SCALE
  5
55
102
{ACAD_REACTORS
330
47
102
}
330
47
100
AcDbScale
 70
     0
300
4:1
140
4.0
141
1.0
290
     0
  0
SCALE
  5
56
102
{ACAD_REACTORS
330
47
102
}
330
47
100
AcDbScale
 70
     0
300
8:1
140
8.0
141
1.0
290
     0
  0
SCALE
  5
57
102
{ACAD_REACTORS
330
47
102
}
330
47
100
AcDbScale
 70
     0
300
10:1
140
10.0
141
1.0
290
     0
  0
SCALE
  5
58
102
{ACAD_REACTORS
330
47
102
}
330
47
100
AcDbScale
 70
     0
300
100:1
140
100.0
141
1.0
290
     0
  0
SCALE
  5
59
102
{ACAD_REACTORS
330
47
102
}
330
47
100
AcDbScale
 70
     0
300
1/128" = 1'-0"
140
0.0078125
141
12.0
290
     0
  0
SCALE
  5
5A
102
{ACAD_REACTORS
330
47
102
}
330
47
100
AcDbScale
 70
     0
300
1/64" = 1'-0"
140
0.015625
141
12.0
290
     0
  0
SCALE
  5
5B
102
{ACAD_REACTORS
330
47
102
}
330
47
100
AcDbScale
 70
     0
300
1/32" = 1'-0"
140
0.03125
141
12.0
290
     0
  0
SCALE
  5
5C
102
{ACAD_REACTORS
330
47
102
}
330
47
100
AcDbScale
 70
     0
300
1/16" = 1'-0"
140
0.0625
141
12.0
290
     0
  0
SCALE
  5
5D
102
{ACAD_REACTORS
330
47
102
}
330
47
100
AcDbScale
 70
     0
300
3/32" = 1'-0"
140
0.09375
141
12.0
290
     0
  0
SCALE
  5
5E
102
{ACAD_REACTORS
330
47
102
}
330
47
100
AcDbScale
 70
     0
300
1/8" = 1'-0"
140
0.125
141
12.0
290
     0
  0
SCALE
  5
5F
102
{ACAD_REACTORS
330
47
102
}
330
47
100
AcDbScale
 70
     0
300
3/16" = 1'-0"
140
0.1875
141
12.0
290
     0
  0
SCALE
  5
60
102
{ACAD_REACTORS
330
47
102
}
330
47
100
AcDbScale
 70
     0
300
1/4" = 1'-0"
140
0.25
141
12.0
290
     0
  0
SCALE
  5
61
102
{ACAD_REACTORS
330
47
102
}
330
47
100
AcDbScale
 70
     0
300
3/8" = 1'-0"
140
0.375
141
12.0
290
     0
  0
SCALE
  5
62
102
{ACAD_REACTORS
330
47
102
}
330
47
100
AcDbScale
 70
     0
300
1/2" = 1'-0"
140
0.5
141
12.0
290
     0
  0
SCALE
  5
63
102
{ACAD_REACTORS
330
47
102
}
330
47
100
AcDbScale
 70
     0
300
3/4" = 1'-0"
140
0.75
141
12.0
290
     0
  0
SCALE
  5
64
102
{ACAD_REACTORS
330
47
102
}
330
47
100
AcDbScale
 70
     0
300
1" = 1'-0"
140
1.0
141
12.0
290
     0
  0
SCALE
  5
65
102
{ACAD_REACTORS
330
47
102
}
330
47
100
AcDbScale
 70
     0
300
1-1/2" = 1'-0"
140
1.5
141
12.0
290
     0
  0
SCALE
  5
66
102
{ACAD_REACTORS
330
47
102
}
330
47
100
AcDbScale
 70
     0
300
3" = 1'-0"
140
3.0
141
12.0
290
     0
  0
SCALE
  5
67
102
{ACAD_REACTORS
330
47
102
}
330
47
100
AcDbScale
 70
     0
300
6" = 1'-0"
140
6.0
141
12.0
290
     0
  0
SCALE
  5
68
102
{ACAD_REACTORS
330
47
102
}
330
47
100
AcDbScale
 70
     0
300
1'-0" = 1'-0"
140
12.0
141
12.0
290
     0
  0
ENDSEC
  0
EOF
