  0
SECTION
  2
HEADER
  9
$ACADVER
  1
AC1015
  9
$ACADMAINTVER
 70
     6
  9
$DWGCODEPAGE
  3
ANSI_1252
  9
$INSBASE
 10
0.0
 20
0.0
 30
0.0
  9
$EXTMIN
 10
-0.8801305639
 20
-0.5710792029
 30
0.0
  9
$EXTMAX
 10
0.880130564
 20
0.5573808784
 30
0.0
  9
$LIMMIN
 10
0.0
 20
0.0
  9
$LIMMAX
 10
12.0
 20
9.0
  9
$ORTHOMODE
 70
     0
  9
$REGENMODE
 70
     1
  9
$FILLMODE
 70
     1
  9
$QTEXTMODE
 70
     0
  9
$MIRRTEXT
 70
     1
  9
$LTSCALE
 40
1.0
  9
$ATTMODE
 70
     1
  9
$TEXTSIZE
 40
0.1377952756
  9
$TRACEWID
 40
0.05
  9
$TEXTSTYLE
  7
Standard
  9
$CLAYER
  8
0
  9
$CELTYPE
  6
ByLayer
  9
$CECOLOR
 62
   256
  9
$CELTSCALE
 40
1.0
  9
$DISPSILH
 70
     0
  9
$DIMSCALE
 40
1.0
  9
$DIMASZ
 40
0.13
  9
$DIMEXO
 40
0.0
  9
$DIMDLI
 40
0.38
  9
$DIMRND
 40
0.0
  9
$DIMDLE
 40
0.0
  9
$DIMEXE
 40
0.0393700787
  9
$DIMTP
 40
0.0
  9
$DIMTM
 40
0.0
  9
$DIMTXT
 40
0.1377952756
  9
$DIMCEN
 40
0.09
  9
$DIMTSZ
 40
0.0
  9
$DIMTOL
 70
     0
  9
$DIMLIM
 70
     0
  9
$DIMTIH
 70
     1
  9
$DIMTOH
 70
     1
  9
$DIMSE1
 70
     0
  9
$DIMSE2
 70
     0
  9
$DIMTAD
 70
     1
  9
$DIMZIN
 70
     1
  9
$DIMBLK
  1

  9
$DIMASO
 70
     1
  9
$DIMSHO
 70
     1
  9
$DIMPOST
  1

  9
$DIMAPOST
  1

  9
$DIMALT
 70
     0
  9
$DIMALTD
 70
     2
  9
$DIMALTF
 40
25.4
  9
$DIMLFAC
 40
1.0
  9
$DIMTOFL
 70
     0
  9
$DIMTVP
 40
0.0
  9
$DIMTIX
 70
     0
  9
$DIMSOXD
 70
     0
  9
$DIMSAH
 70
     0
  9
$DIMBLK1
  1

  9
$DIMBLK2
  1

  9
$DIMSTYLE
  2
Standard
  9
$DIMCLRD
 70
     0
  9
$DIMCLRE
 70
     0
  9
$DIMCLRT
 70
     0
  9
$DIMTFAC
 40
1.0
  9
$DIMGAP
 40
0.06
  9
$DIMJUST
 70
     0
  9
$DIMSD1
 70
     0
  9
$DIMSD2
 70
     0
  9
$DIMTOLJ
 70
     1
  9
$DIMTZIN
 70
     1
  9
$DIMALTZ
 70
     0
  9
$DIMALTTZ
 70
     0
  9
$DIMUPT
 70
     0
  9
$DIMDEC
 70
     2
  9
$DIMTDEC
 70
     2
  9
$DIMALTU
 70
     2
  9
$DIMALTTD
 70
     2
  9
$DIMTXSTY
  7
Standard
  9
$DIMAUNIT
 70
     0
  9
$DIMADEC
 70
     2
  9
$DIMALTRND
 40
0.0
  9
$DIMAZIN
 70
     0
  9
$DIMDSEP
 70
    46
  9
$DIMATFIT
 70
     3
  9
$DIMFRAC
 70
     0
  9
$DIMLDRBLK
  1

  9
$DIMLUNIT
 70
     2
  9
$DIMLWD
 70
    -2
  9
$DIMLWE
 70
    -2
  9
$DIMTMOVE
 70
     0
  9
$LUNITS
 70
     2
  9
$LUPREC
 70
     2
  9
$SKETCHINC
 40
0.1
  9
$FILLETRAD
 40
0.5
  9
$AUNITS
 70
     0
  9
$AUPREC
 70
     2
  9
$MENU
  1
.
  9
$ELEVATION
 40
0.0
  9
$PELEVATION
 40
0.0
  9
$THICKNESS
 40
0.0
  9
$LIMCHECK
 70
     0
  9
$CHAMFERA
 40
0.0
  9
$CHAMFERB
 40
0.0
  9
$CHAMFERC
 40
0.0
  9
$CHAMFERD
 40
0.0
  9
$SKPOLY
 70
     0
  9
$TDCREATE
 40
2460265.634870104
  9
$TDUCREATE
 40
2460265.843203438
  9
$TDUPDATE
 40
2460265.634933102
  9
$TDUUPDATE
 40
2460265.843266435
  9
$TDINDWG
 40
0.0000000116
  9
$TDUSRTIMER
 40
0.0000000116
  9
$USRTIMER
 70
     1
  9
$ANGBASE
 50
0.0
  9
$ANGDIR
 70
     0
  9
$PDMODE
 70
     0
  9
$PDSIZE
 40
-1.0
  9
$PLINEWID
 40
0.0
  9
$SPLFRAME
 70
     0
  9
$SPLINETYPE
 70
     6
  9
$SPLINESEGS
 70
     8
  9
$HANDSEED
  5
268
  9
$SURFTAB1
 70
     6
  9
$SURFTAB2
 70
     6
  9
$SURFTYPE
 70
     6
  9
$SURFU
 70
     6
  9
$SURFV
 70
     6
  9
$UCSBASE
  2

  9
$UCSNAME
  2

  9
$UCSORG
 10
0.0
 20
0.0
 30
0.0
  9
$UCSXDIR
 10
1.0
 20
0.0
 30
0.0
  9
$UCSYDIR
 10
0.0
 20
1.0
 30
0.0
  9
$UCSORTHOREF
  2

  9
$UCSORTHOVIEW
 70
     0
  9
$UCSORGTOP
 10
0.0
 20
0.0
 30
0.0
  9
$UCSORGBOTTOM
 10
0.0
 20
0.0
 30
0.0
  9
$UCSORGLEFT
 10
0.0
 20
0.0
 30
0.0
  9
$UCSORGRIGHT
 10
0.0
 20
0.0
 30
0.0
  9
$UCSORGFRONT
 10
0.0
 20
0.0
 30
0.0
  9
$UCSORGBACK
 10
0.0
 20
0.0
 30
0.0
  9
$PUCSBASE
  2

  9
$PUCSNAME
  2

  9
$PUCSORG
 10
0.0
 20
0.0
 30
0.0
  9
$PUCSXDIR
 10
1.0
 20
0.0
 30
0.0
  9
$PUCSYDIR
 10
0.0
 20
1.0
 30
0.0
  9
$PUCSORTHOREF
  2

  9
$PUCSORTHOVIEW
 70
     0
  9
$PUCSORGTOP
 10
0.0
 20
0.0
 30
0.0
  9
$PUCSORGBOTTOM
 10
0.0
 20
0.0
 30
0.0
  9
$PUCSORGLEFT
 10
0.0
 20
0.0
 30
0.0
  9
$PUCSORGRIGHT
 10
0.0
 20
0.0
 30
0.0
  9
$PUCSORGFRONT
 10
0.0
 20
0.0
 30
0.0
  9
$PUCSORGBACK
 10
0.0
 20
0.0
 30
0.0
  9
$USERI1
 70
     0
  9
$USERI2
 70
     0
  9
$USERI3
 70
     0
  9
$USERI4
 70
     0
  9
$USERI5
 70
     0
  9
$USERR1
 40
0.0
  9
$USERR2
 40
0.0
  9
$USERR3
 40
0.0
  9
$USERR4
 40
0.0
  9
$USERR5
 40
0.0
  9
$WORLDVIEW
 70
     1
  9
$SHADEDGE
 70
     3
  9
$SHADEDIF
 70
    70
  9
$TILEMODE
 70
     1
  9
$MAXACTVP
 70
    64
  9
$PINSBASE
 10
0.0
 20
0.0
 30
0.0
  9
$PLIMCHECK
 70
     0
  9
$PEXTMIN
 10
-0.787401575
 20
-0.255220472
 30
0.0
  9
$PEXTMAX
 10
0.787401575
 20
0.236220472
 30
0.0
  9
$PLIMMIN
 10
-0.8248969485
 20
-0.2927157865
  9
$PLIMMAX
 10
0.8248968895
 20
0.9821249065
  9
$UNITMODE
 70
     0
  9
$VISRETAIN
 70
     1
  9
$PLINEGEN
 70
     0
  9
$PSLTSCALE
 70
     1
  9
$TREEDEPTH
 70
  3020
  9
$CMLSTYLE
  2
Standard
  9
$CMLJUST
 70
     0
  9
$CMLSCALE
 40
1.0
  9
$PROXYGRAPHICS
 70
     1
  9
$MEASUREMENT
 70
     0
  9
$CELWEIGHT
370
    -1
  9
$ENDCAPS
280
     0
  9
$JOINSTYLE
280
     0
  9
$LWDISPLAY
290
     1
  9
$INSUNITS
 70
     1
  9
$HYPERLINKBASE
  1

  9
$STYLESHEET
  1

  9
$XEDIT
290
     1
  9
$CEPSNTYPE
380
     0
  9
$PSTYLEMODE
290
     1
  9
$FINGERPRINTGUID
  2
{f37345d4-209f-4794-953d-45eb6f444643}
  9
$VERSIONGUID
  2
{FAEB1C32-E019-11D5-929B-00C0DF256EC4}
  9
$EXTNAMES
290
     1
  9
$PSVPSCALE
 40
0.0
  9
$OLESTARTUP
290
     0
  0
ENDSEC
  0
SECTION
  2
CLASSES
  0
CLASS
  1
ACDBDICTIONARYWDFLT
  2
AcDbDictionaryWithDefault
  3
ObjectDBX Classes
 90
        0
280
     0
281
     0
  0
CLASS
  1
VISUALSTYLE
  2
AcDbVisualStyle
  3
ObjectDBX Classes
 90
     4095
280
     0
281
     0
  0
CLASS
  1
MATERIAL
  2
AcDbMaterial
  3
ObjectDBX Classes
 90
     1153
280
     0
281
     0
  0
CLASS
  1
SCALE
  2
AcDbScale
  3
ObjectDBX Classes
 90
     1153
280
     0
281
     0
  0
CLASS
  1
TABLESTYLE
  2
AcDbTableStyle
  3
ObjectDBX Classes
 90
     4095
280
     0
281
     0
  0
CLASS
  1
MLEADERSTYLE
  2
AcDbMLeaderStyle
  3
ACDB_MLEADERSTYLE_CLASS
 90
     4095
280
     0
281
     0
  0
CLASS
  1
SUN
  2
AcDbSun
  3
SCENEOE
 90
     1153
280
     0
281
     0
  0
CLASS
  1
ACDBPLACEHOLDER
  2
AcDbPlaceHolder
  3
ObjectDBX Classes
 90
        0
280
     0
281
     0
  0
CLASS
  1
LAYOUT
  2
AcDbLayout
  3
ObjectDBX Classes
 90
        0
280
     0
281
     0
  0
ENDSEC
  0
SECTION
  2
TABLES
  0
TABLE
  2
VPORT
  5
8
330
0
100
AcDbSymbolTable
 70
     1
  0
VPORT
  5
29
330
8
100
AcDbSymbolTableRecord
100
AcDbViewportTableRecord
  2
*Active
 70
     0
 10
0.0
 20
0.0
 11
1.0
 21
1.0
 12
0.0000000001
 22
-0.0068491622
 13
0.0
 23
0.0
 14
0.5
 24
0.5
 15
0.5
 25
0.5
 16
0.0
 26
0.0
 36
1.0
 17
0.0
 27
0.0
 37
0.0
 40
1.1510292829
 41
1.5598789511
 42
50.0
 43
0.0
 44
0.0
 50
0.0
 51
0.0
 71
     0
 72
   100
 73
     1
 74
     3
 75
     0
 76
     0
 77
     0
 78
     0
281
     0
 65
     1
110
0.0
120
0.0
130
0.0
111
1.0
121
0.0
131
0.0
112
0.0
122
1.0
132
0.0
 79
     0
146
0.0
  0
ENDTAB
  0
TABLE
  2
LTYPE
  5
5
330
0
100
AcDbSymbolTable
 70
     6
  0
LTYPE
  5
14
330
5
100
AcDbSymbolTableRecord
100
AcDbLinetypeTableRecord
  2
ByBlock
 70
     0
  3

 72
    65
 73
     0
 40
0.0
  0
LTYPE
  5
15
330
5
100
AcDbSymbolTableRecord
100
AcDbLinetypeTableRecord
  2
ByLayer
 70
     0
  3

 72
    65
 73
     0
 40
0.0
  0
LTYPE
  5
16
330
5
100
AcDbSymbolTableRecord
100
AcDbLinetypeTableRecord
  2
Continuous
 70
     0
  3
Solid line
 72
    65
 73
     0
 40
0.0
  0
LTYPE
  5
6E
330
5
100
AcDbSymbolTableRecord
100
AcDbLinetypeTableRecord
  2
HIDDEN
 70
     0
  3
Hidden __ __ __ __ __ __ __ __ __ __ __ __ __ __
 72
    65
 73
     2
 40
0.075
 49
0.05
 74
     0
 49
-0.025
 74
     0
  0
LTYPE
  5
6F
330
5
100
AcDbSymbolTableRecord
100
AcDbLinetypeTableRecord
  2
PHANTOM
 70
     0
  3
Phantom ______  __  __  ______  __  __  ______
 72
    65
 73
     6
 40
0.5
 49
0.25
 74
     0
 49
-0.05
 74
     0
 49
0.05
 74
     0
 49
-0.05
 74
     0
 49
0.05
 74
     0
 49
-0.05
 74
     0
  0
LTYPE
  5
70
330
5
100
AcDbSymbolTableRecord
100
AcDbLinetypeTableRecord
  2
CENTER
 70
     0
  3
Center ____ _ ____ _ ____ _ ____ _ ____ _ ____
 72
    65
 73
     4
 40
0.4
 49
0.25
 74
     0
 49
-0.05
 74
     0
 49
0.05
 74
     0
 49
-0.05
 74
     0
  0
LTYPE
  5
71
330
5
100
AcDbSymbolTableRecord
100
AcDbLinetypeTableRecord
  2
CENTERX2
 70
     0
  3
Center (2x) ________  __  ________  __  _____
 72
    65
 73
     4
 40
0.8
 49
0.5
 74
     0
 49
-0.1
 74
     0
 49
0.1
 74
     0
 49
-0.1
 74
     0
  0
LTYPE
  5
72
330
5
100
AcDbSymbolTableRecord
100
AcDbLinetypeTableRecord
  2
DOT2
 70
     0
  3
Dot (.5x) ........................................
 72
    65
 73
     2
 40
0.025
 49
0.0
 74
     0
 49
-0.025
 74
     0
  0
ENDTAB
  0
TABLE
  2
LAYER
  5
2
330
0
100
AcDbSymbolTable
 70
     1
  0
LAYER
  5
10
330
2
100
AcDbSymbolTableRecord
100
AcDbLayerTableRecord
  2
0
 70
     0
 62
     7
  6
Continuous
370
    -3
390
F
  0
ENDTAB
  0
TABLE
  2
STYLE
  5
3
330
0
100
AcDbSymbolTable
 70
     1
  0
STYLE
  5
11
330
3
100
AcDbSymbolTableRecord
100
AcDbTextStyleTableRecord
  2
Standard
 70
     0
 40
0.0
 41
1.0
 50
0.0
 71
     0
 42
0.1377952756
  3
txt
  4

  0
ENDTAB
  0
TABLE
  2
VIEW
  5
6
330
0
100
AcDbSymbolTable
 70
     0
  0
ENDTAB
  0
TABLE
  2
UCS
  5
7
330
0
100
AcDbSymbolTable
 70
     0
  0
ENDTAB
  0
TABLE
  2
APPID
  5
9
330
0
100
AcDbSymbolTable
 70
     1
  0
APPID
  5
12
330
9
100
AcDbSymbolTableRecord
100
AcDbRegAppTableRecord
  2
ACAD
 70
     0
  0
ENDTAB
  0
TABLE
  2
DIMSTYLE
  5
A
330
0
100
AcDbSymbolTable
 70
     1
100
AcDbDimStyleTable
  0
DIMSTYLE
105
27
330
A
100
AcDbSymbolTableRecord
100
AcDbDimStyleTableRecord
  2
Standard
 70
     0
178
     0
340
11
  0
ENDTAB
  0
TABLE
  2
BLOCK_RECORD
  5
1
330
0
100
AcDbSymbolTable
 70
     8
  0
BLOCK_RECORD
  5
1F
330
1
100
AcDbSymbolTableRecord
100
AcDbBlockTableRecord
  2
*Model_Space
340
22
  0
BLOCK_RECORD
  5
1B
330
1
100
AcDbSymbolTableRecord
100
AcDbBlockTableRecord
  2
*Paper_Space
340
1E
  0
BLOCK_RECORD
  5
23
330
1
100
AcDbSymbolTableRecord
100
AcDbBlockTableRecord
  2
*Paper_Space0
340
26
  0
BLOCK_RECORD
  5
E6
330
1
100
AcDbSymbolTableRecord
100
AcDbBlockTableRecord
  2
*Paper_Space1
340
E7
  0
BLOCK_RECORD
  5
100
330
1
100
AcDbSymbolTableRecord
100
AcDbBlockTableRecord
  2
*Paper_Space2
340
101
  0
BLOCK_RECORD
  5
11E
330
1
100
AcDbSymbolTableRecord
100
AcDbBlockTableRecord
  2
*Paper_Space3
340
11F
  0
BLOCK_RECORD
  5
154
330
1
100
AcDbSymbolTableRecord
100
AcDbBlockTableRecord
  2
*Paper_Space4
340
155
  0
BLOCK_RECORD
  5
182
330
1
100
AcDbSymbolTableRecord
100
AcDbBlockTableRecord
  2
*Paper_Space5
340
183
  0
BLOCK_RECORD
  5
1C2
330
1
100
AcDbSymbolTableRecord
100
AcDbBlockTableRecord
  2
*Paper_Space6
340
1C3
  0
BLOCK_RECORD
  5
20D
330
1
100
AcDbSymbolTableRecord
100
AcDbBlockTableRecord
  2
*Paper_Space7
340
20E
  0
ENDTAB
  0
ENDSEC
  0
SECTION
  2
BLOCKS
  0
BLOCK
  5
20
330
1F
100
AcDbEntity
  8
0
100
AcDbBlockBegin
  2
*Model_Space
 70
     0
 10
0.0
 20
0.0
 30
0.0
  3
*Model_Space
  1

  0
ENDBLK
  5
21
330
1F
100
AcDbEntity
  8
0
100
AcDbBlockEnd
  0
BLOCK
  5
1C
330
1B
100
AcDbEntity
 67
     1
  8
0
100
AcDbBlockBegin
  2
*Paper_Space
 70
     0
 10
0.0
 20
0.0
 30
0.0
  3
*Paper_Space
  1

  0
ENDBLK
  5
1D
330
1B
100
AcDbEntity
 67
     1
  8
0
100
AcDbBlockEnd
  0
BLOCK
  5
24
330
23
100
AcDbEntity
  8
0
100
AcDbBlockBegin
  2
*Paper_Space0
 70
     0
 10
0.0
 20
0.0
 30
0.0
  3
*Paper_Space0
  1

  0
SPLINE
  5
D9
330
23
100
AcDbEntity
  8
0
  6
Continuous
 62
     7
370
    25
100
AcDbSpline
210
0.0
220
0.0
230
1.0
 70
    24
 71
     3
 72
    10
 73
     6
 74
     0
 42
0.00000001
 43
0.00000001
 40
0.0
 40
0.0
 40
0.0
 40
0.0
 40
0.5
 40
0.5
 40
1.0
 40
1.0
 40
1.0
 40
1.0
 10
0.760998425
 20
-0.255220472
 30
0.0
 10
0.7609984249969394
 20
-0.255220472
 30
0.0
 10
0.7578375605634086
 20
-0.255220472
 30
0.0
 10
0.7465856963083256
 20
-0.255220472
 30
0.0
 10
0.7389546945281675
 20
-0.255220472
 30
0.0
 10
0.7309984250123063
 20
-0.255220472
 30
0.0
  0
SPLINE
  5
DB
330
23
100
AcDbEntity
  8
0
  6
Continuous
 62
     7
370
    25
100
AcDbSpline
210
0.0
220
0.0
230
1.0
 70
    24
 71
     3
 72
    10
 73
     6
 74
     0
 42
0.00000001
 43
0.00000001
 40
0.0
 40
0.0
 40
0.0
 40
0.0
 40
0.5
 40
0.5
 40
1.0
 40
1.0
 40
1.0
 40
1.0
 10
-0.7310015749876939
 20
-0.255220472
 30
0.0
 10
-0.7389578445087648
 20
-0.255220472
 30
0.0
 10
-0.7465888462960424
 20
-0.255220472
 30
0.0
 10
-0.757840710562098
 20
-0.255220472
 30
0.0
 10
-0.7610015749983682
 20
-0.255220472
 30
0.0
 10
-0.761001575
 20
-0.255220472
 30
0.0
  0
LINE
  5
DC
330
23
100
AcDbEntity
  8
0
  6
Continuous
 62
     7
370
    25
100
AcDbLine
 10
0.7874015747
 20
0.216535433
 30
0.0
 11
0.7677165364
 21
0.236220472
 31
0.0
  0
LINE
  5
DD
330
23
100
AcDbEntity
  8
0
  6
Continuous
 62
     7
370
    25
100
AcDbLine
 10
0.787401575
 20
0.216535433
 30
0.0
 11
-0.787401575
 21
0.216535433
 31
0.0
  0
LINE
  5
DE
330
23
100
AcDbEntity
  8
0
  6
Continuous
 62
     7
370
    25
100
AcDbLine
 10
-0.767716535
 20
0.236220472
 30
0.0
 11
0.767716535
 21
0.236220472
 31
0.0
  0
LINE
  5
DF
330
23
100
AcDbEntity
  8
0
  6
Continuous
 62
     7
370
    25
100
AcDbLine
 10
-0.787401575
 20
0.216535433
 30
0.0
 11
-0.767716535
 21
0.236220472
 31
0.0
  0
LINE
  5
E0
330
23
100
AcDbEntity
  8
0
  6
Continuous
 62
     7
370
    25
100
AcDbLine
 10
0.787401575
 20
0.216535433
 30
0.0
 11
0.787401575
 21
-0.236220472
 31
0.0
  0
LINE
  5
E1
330
23
100
AcDbEntity
  8
0
  6
Continuous
 62
     7
370
    25
100
AcDbLine
 10
0.787401575
 20
-0.236220472
 30
0.0
 11
-0.787401575
 21
-0.236220472
 31
0.0
  0
LINE
  5
E2
330
23
100
AcDbEntity
  8
0
  6
Continuous
 62
     7
370
    25
100
AcDbLine
 10
-0.787401575
 20
0.216535433
 30
0.0
 11
-0.787401575
 21
-0.236220472
 31
0.0
  0
LINE
  5
E3
330
23
100
AcDbEntity
  8
0
  6
Continuous
 62
     7
370
    25
100
AcDbLine
 10
-0.731001575
 20
-0.255220472
 30
0.0
 11
0.730998425
 21
-0.255220472
 31
0.0
  0
LINE
  5
E4
330
23
100
AcDbEntity
  8
0
  6
Continuous
 62
     7
370
    25
100
AcDbLine
 10
0.760998425
 20
-0.255220472
 30
0.0
 11
0.760998425
 21
-0.236220472
 31
0.0
  0
LINE
  5
E5
330
23
100
AcDbEntity
  8
0
  6
Continuous
 62
     7
370
    25
100
AcDbLine
 10
-0.761001575
 20
-0.255220472
 30
0.0
 11
-0.761001575
 21
-0.236220472
 31
0.0
  0
VIEWPORT
  5
257
330
23
100
AcDbEntity
  8
0
100
AcDbViewport
 10
0.0
 20
0.0
 30
0.0
 40
8.4
 41
6.4
 68
     1
 69
     1
 12
0.0000000001
 22
-0.0068491622
 13
0.0
 23
0.0
 14
0.5
 24
0.5
 15
0.5
 25
0.5
 16
0.0
 26
0.0
 36
1.0
 17
0.0
 27
0.0
 37
0.0
 42
50.0
 43
0.0
 44
0.0
 45
1.3679743623
 50
0.0
 51
0.0
 72
   100
 90
   557152
  1

281
     0
 71
     1
 74
     0
110
0.0
120
0.0
130
0.0
111
1.0
121
0.0
131
0.0
112
0.0
122
1.0
132
0.0
 79
     0
146
0.0
  0
ENDBLK
  5
25
330
23
100
AcDbEntity
  8
0
100
AcDbBlockEnd
  0
BLOCK
  5
E8
330
E6
100
AcDbEntity
  8
0
100
AcDbBlockBegin
  2
*Paper_Space1
 70
     0
 10
0.0
 20
0.0
 30
0.0
  3
*Paper_Space1
  1

  0
SPLINE
  5
F3
330
E6
100
AcDbEntity
  8
0
  6
Continuous
 62
     7
370
    25
100
AcDbSpline
210
0.0
220
0.0
230
1.0
 70
    24
 71
     3
 72
    10
 73
     6
 74
     0
 42
0.00000001
 43
0.00000001
 40
0.0
 40
0.0
 40
0.0
 40
0.0
 40
0.4999999999999997
 40
0.4999999999999997
 40
1.0
 40
1.0
 40
1.0
 40
1.0
 10
0.367299213
 20
-0.255220472
 30
0.0
 10
0.3672992129985712
 20
-0.255220472
 30
0.0
 10
0.3641383485624957
 20
-0.255220472
 30
0.0
 10
0.3528864842967271
 20
-0.255220472
 30
0.0
 10
0.3452554825095301
 20
-0.255220472
 30
0.0
 10
0.3372992129884593
 20
-0.255220472
 30
0.0
  0
SPLINE
  5
F5
330
E6
100
AcDbEntity
  8
0
  6
Continuous
 62
     7
370
    25
100
AcDbSpline
210
0.0
220
0.0
230
1.0
 70
    24
 71
     3
 72
    10
 73
     6
 74
     0
 42
0.00000001
 43
0.00000001
 40
0.0
 40
0.0
 40
0.0
 40
0.0
 40
0.5
 40
0.5
 40
1.0
 40
1.0
 40
1.0
 40
1.0
 10
-0.3377007870115407
 20
-0.255220472
 30
0.0
 10
-0.345657056527402
 20
-0.255220472
 30
0.0
 10
-0.3532880583076406
 20
-0.255220472
 30
0.0
 10
-0.3645399225630108
 20
-0.255220472
 30
0.0
 10
-0.3677007869967363
 20
-0.255220472
 30
0.0
 10
-0.3677007869999999
 20
-0.255220472
 30
0.0
  0
LINE
  5
F6
330
E6
100
AcDbEntity
  8
0
  6
Continuous
 62
     7
370
    25
100
AcDbLine
 10
0.393700787
 20
0.216535433
 30
0.0
 11
-0.393700787
 21
0.216535433
 31
0.0
  0
LINE
  5
F7
330
E6
100
AcDbEntity
  8
0
  6
Continuous
 62
     7
370
    25
100
AcDbLine
 10
0.393700787
 20
-0.236220472
 30
0.0
 11
0.393700787
 21
0.216535433
 31
0.0
  0
LINE
  5
F8
330
E6
100
AcDbEntity
  8
0
  6
Continuous
 62
     7
370
    25
100
AcDbLine
 10
0.393700787
 20
-0.236220472
 30
0.0
 11
-0.393700787
 21
-0.236220472
 31
0.0
  0
LINE
  5
F9
330
E6
100
AcDbEntity
  8
0
  6
Continuous
 62
     7
370
    25
100
AcDbLine
 10
-0.393700787
 20
0.216535433
 30
0.0
 11
-0.393700787
 21
-0.236220472
 31
0.0
  0
LINE
  5
FA
330
E6
100
AcDbEntity
  8
0
  6
Continuous
 62
     7
370
    25
100
AcDbLine
 10
0.374015748
 20
0.236220472
 30
0.0
 11
0.393700787
 21
0.216535433
 31
0.0
  0
LINE
  5
FB
330
E6
100
AcDbEntity
  8
0
  6
Continuous
 62
     7
370
    25
100
AcDbLine
 10
-0.374015748
 20
0.236220472
 30
0.0
 11
0.374015748
 21
0.236220472
 31
0.0
  0
LINE
  5
FC
330
E6
100
AcDbEntity
  8
0
  6
Continuous
 62
     7
370
    25
100
AcDbLine
 10
-0.393700787
 20
0.216535433
 30
0.0
 11
-0.374015748
 21
0.236220472
 31
0.0
  0
LINE
  5
FD
330
E6
100
AcDbEntity
  8
0
  6
Continuous
 62
     7
370
    25
100
AcDbLine
 10
-0.337700787
 20
-0.255220472
 30
0.0
 11
0.337299213
 21
-0.255220472
 31
0.0
  0
LINE
  5
FE
330
E6
100
AcDbEntity
  8
0
  6
Continuous
 62
     7
370
    25
100
AcDbLine
 10
0.367299213
 20
-0.255220472
 30
0.0
 11
0.367299213
 21
-0.236220472
 31
0.0
  0
LINE
  5
FF
330
E6
100
AcDbEntity
  8
0
  6
Continuous
 62
     7
370
    25
100
AcDbLine
 10
-0.367700787
 20
-0.255220472
 30
0.0
 11
-0.367700787
 21
-0.236220472
 31
0.0
  0
VIEWPORT
  5
259
330
E6
100
AcDbEntity
  8
0
100
AcDbViewport
 10
0.0
 20
0.0
 30
0.0
 40
8.4
 41
6.4
 68
     1
 69
     1
 12
0.0000000001
 22
-0.0068491622
 13
0.0
 23
0.0
 14
0.5
 24
0.5
 15
0.5
 25
0.5
 16
0.0
 26
0.0
 36
1.0
 17
0.0
 27
0.0
 37
0.0
 42
50.0
 43
0.0
 44
0.0
 45
1.3679743623
 50
0.0
 51
0.0
 72
   100
 90
   557152
  1

281
     0
 71
     1
 74
     0
110
0.0
120
0.0
130
0.0
111
1.0
121
0.0
131
0.0
112
0.0
122
1.0
132
0.0
 79
     0
146
0.0
  0
ENDBLK
  5
E9
330
E6
100
AcDbEntity
  8
0
100
AcDbBlockEnd
  0
BLOCK
  5
102
330
100
100
AcDbEntity
  8
0
100
AcDbBlockBegin
  2
*Paper_Space2
 70
     0
 10
0.0
 20
0.0
 30
0.0
  3
*Paper_Space2
  1

  0
SPLINE
  5
108
330
100
100
AcDbEntity
  8
0
  6
Continuous
 62
     7
370
    25
100
AcDbSpline
210
0.0
220
0.0
230
1.0
 70
     8
 71
     3
 72
    12
 73
     8
 74
     0
 42
0.00000001
 43
0.00000001
 40
0.0
 40
0.0
 40
0.0
 40
0.0
 40
0.3333333333333333
 40
0.3333333333333333
 40
0.6666666666666665
 40
0.6666666666666665
 40
0.9999999999999999
 40
0.9999999999999999
 40
0.9999999999999999
 40
0.9999999999999999
 10
0.118110236
 20
0.010220472
 30
0.0
 10
0.118110236
 20
0.0524110345867372
 30
0.0
 10
0.09559321698897
 20
0.0914116555426777
 30
0.0
 10
0.0225170189830576
 20
0.1336022181194228
 30
0.0
 10
-0.0225170190336696
 20
0.1336022181101861
 30
0.0
 10
-0.0955932170222751
 20
0.0914116555034648
 30
0.0
 10
-0.1181102360173068
 20
0.0524110345382876
 30
0.0
 10
-0.118110236
 20
0.0102204719515504
 30
0.0
  0
SPLINE
  5
109
330
100
100
AcDbEntity
  8
0
  6
Continuous
 62
     7
370
    25
100
AcDbSpline
210
0.0
220
0.0
230
1.0
 70
     8
 71
     3
 72
    14
 73
    10
 74
     0
 42
0.00000001
 43
0.00000001
 40
0.0
 40
0.0
 40
0.0
 40
0.0
 40
0.25
 40
0.25
 40
0.5000000000000001
 40
0.5000000000000001
 40
0.75
 40
0.75
 40
1.0
 40
1.0
 40
1.0
 40
1.0
 10
-0.118110236
 20
0.0102204719515504
 30
0.0
 10
-0.1181102359871507
 20
-0.0211034237319481
 30
0.0
 10
-0.1056658878380005
 20
-0.0511467377799263
 30
0.0
 10
-0.061367209724397
 20
-0.09544541587025
 30
0.0
 10
-0.0313238956698791
 20
-0.1078897640036119
 30
0.0
 10
0.0313238956971178
 20
-0.107889763996388
 30
0.0
 10
0.0613672097487658
 20
-0.0954454158560975
 30
0.0
 10
0.1056658878521531
 20
-0.0511467377555575
 30
0.0
 10
0.1181102359943746
 20
-0.0211034237047094
 30
0.0
 10
0.118110236
 20
0.0102204719787891
 30
0.0
  0
SPLINE
  5
10D
330
100
100
AcDbEntity
  8
0
  6
Continuous
 62
     7
370
    25
100
AcDbSpline
210
0.0
220
0.0
230
1.0
 70
     8
 71
     3
 72
    28
 73
    24
 74
     0
 42
0.00000001
 43
0.00000001
 40
0.0
 40
0.0
 40
0.0
 40
0.0
 40
0.0208715803012836
 40
0.0416983130010125
 40
0.0625698930639837
 40
0.093847849343248
 40
0.1251258054334642
 40
0.1876060025173522
 40
0.2500862001477294
 40
0.3125663977781067
 40
0.3750465948619946
 40
0.4375267915170281
 40
0.500006989616215
 40
0.5624871877154018
 40
0.6249673843704354
 40
0.6874475814543234
 40
0.7499277790847005
 40
0.8124079767150778
 40
0.8748881737989657
 40
0.906166129889182
 40
0.9374440861684464
 40
0.9687220429500465
 40
1.0
 40
1.0
 40
1.0
 40
1.0
 10
-0.0492125984976214
 20
0.010220472
 30
0.0
 10
-0.04919245362034
 20
0.0112948999639599
 30
0.0
 10
-0.0491522071518827
 20
0.0134414472254283
 30
0.0
 10
-0.0488244986300959
 20
0.0166487261142161
 30
0.0
 10
-0.0482149532732682
 20
0.020356751479862
 30
0.0
 10
-0.0471697344128908
 20
0.0245297487171179
 30
0.0
 10
-0.0449982670203517
 20
0.0305965237198155
 30
0.0
 10
-0.0411823515673716
 20
0.0377390089357722
 30
0.0
 10
-0.035022933492249
 20
0.0452430208814411
 30
0.0
 10
-0.0275172861123792
 20
0.0514031111872034
 30
0.0
 10
-0.018954250187567
 20
0.0559800466845264
 30
0.0
 10
-0.009662789860026
 20
0.0587986091635561
 30
0.0
 10
-0.0000000004858231
 20
0.059750301193633
 30
0.0
 10
0.0096627918033183
 20
0.0587986090623052
 30
0.0
 10
0.0189542433860442
 20
0.0559800470895304
 30
0.0
 10
0.0275173113751783
 20
0.0514031096684386
 30
0.0
 10
0.0350228392425744
 20
0.0452430265514966
 30
0.0
 10
0.041182703303269
 20
0.0377389877743151
 30
0.0
 10
0.0449972313952484
 20
0.0305965860262745
 30
0.0
 10
0.0471715305551575
 20
0.0245296406555419
 30
0.0
 10
0.0483384736549988
 20
0.0198366427005124
 30
0.0
 10
0.049076527302167
 20
0.0150520309450447
 30
0.0
 10
0.0491672414323402
 20
0.0118309916529541
 30
0.0
 10
0.0492125984976214
 20
0.010220472
 30
0.0
  0
SPLINE
  5
10E
330
100
100
AcDbEntity
  8
0
  6
Continuous
 62
     7
370
    25
100
AcDbSpline
210
0.0
220
0.0
230
1.0
 70
     8
 71
     3
 72
    28
 73
    24
 74
     0
 42
0.00000001
 43
0.00000001
 40
0.0
 40
0.0
 40
0.0
 40
0.0
 40
0.0208715803012834
 40
0.0416983130010123
 40
0.0625698930639836
 40
0.0938478493432481
 40
0.1251258054334642
 40
0.1876060025173522
 40
0.2500862001477294
 40
0.3125663977781067
 40
0.3750465948619945
 40
0.4375267915170281
 40
0.5000069896162149
 40
0.5624871877154017
 40
0.6249673843704353
 40
0.6874475814543232
 40
0.7499277790847004
 40
0.8124079767150777
 40
0.8748881737989657
 40
0.9061661298891819
 40
0.9374440861684463
 40
0.9687220429500464
 40
1.0
 40
1.0
 40
1.0
 40
1.0
 10
0.0492125984976214
 20
0.010220472
 30
0.0
 10
0.0491924536203399
 20
0.0091460440360402
 30
0.0
 10
0.0491522071518826
 20
0.0069994967745718
 30
0.0
 10
0.0488244986300959
 20
0.0037922178857839
 30
0.0
 10
0.0482149532732682
 20
0.000084192520138
 30
0.0
 10
0.0471697344128908
 20
-0.004088804717118
 30
0.0
 10
0.0449982670203517
 20
-0.0101555797198155
 30
0.0
 10
0.0411823515673716
 20
-0.0172980649357722
 30
0.0
 10
0.035022933492249
 20
-0.0248020768814411
 30
0.0
 10
0.0275172861123792
 20
-0.0309621671872034
 30
0.0
 10
0.018954250187567
 20
-0.0355391026845264
 30
0.0
 10
0.0096627898600261
 20
-0.0383576651635561
 30
0.0
 10
0.0000000004858231
 20
-0.039309357193633
 30
0.0
 10
-0.0096627918033183
 20
-0.0383576650623051
 30
0.0
 10
-0.0189542433860442
 20
-0.0355391030895303
 30
0.0
 10
-0.0275173113751783
 20
-0.0309621656684386
 30
0.0
 10
-0.0350228392425744
 20
-0.0248020825514966
 30
0.0
 10
-0.041182703303269
 20
-0.0172980437743151
 30
0.0
 10
-0.0449972313952484
 20
-0.0101556420262745
 30
0.0
 10
-0.0471715305551575
 20
-0.0040886966555419
 30
0.0
 10
-0.0483384736549988
 20
0.0006043012994876
 30
0.0
 10
-0.049076527302167
 20
0.0053889130549553
 30
0.0
 10
-0.0491672414323402
 20
0.0086099523470459
 30
0.0
 10
-0.0492125984976214
 20
0.010220472
 30
0.0
  0
SPLINE
  5
111
330
100
100
AcDbEntity
  8
0
  6
Continuous
 62
     7
370
    25
100
AcDbSpline
210
0.0
220
0.0
230
1.0
 70
    24
 71
     3
 72
    10
 73
     6
 74
     0
 42
0.00000001
 43
0.00000001
 40
0.0
 40
0.0
 40
0.0
 40
0.0
 40
0.5
 40
0.5
 40
1.0
 40
1.0
 40
1.0
 40
1.0
 10
-0.3372992129938469
 20
-0.255220472
 30
0.0
 10
-0.3452554825149177
 20
-0.255220472
 30
0.0
 10
-0.352886484301547
 20
-0.255220472
 30
0.0
 10
-0.3641383485652949
 20
-0.255220472
 30
0.0
 10
-0.367299213
 20
-0.255220472
 30
0.0
 10
-0.367299213
 20
-0.255220472
 30
0.0
  0
SPLINE
  5
113
330
100
100
AcDbEntity
  8
0
  6
Continuous
 62
     7
370
    25
100
AcDbSpline
210
0.0
220
0.0
230
1.0
 70
    24
 71
     3
 72
    10
 73
     6
 74
     0
 42
0.00000001
 43
0.00000001
 40
0.0
 40
0.0
 40
0.0
 40
0.0
 40
0.5
 40
0.5
 40
1.0
 40
1.0
 40
1.0
 40
1.0
 10
0.3677007869999999
 20
-0.255220472
 30
0.0
 10
0.3677007870032636
 20
-0.255220472
 30
0.0
 10
0.3645399225716888
 20
-0.255220472
 30
0.0
 10
0.3532880583125566
 20
-0.255220472
 30
0.0
 10
0.3456570565272238
 20
-0.255220472
 30
0.0
 10
0.337700787006153
 20
-0.255220472
 30
0.0
  0
LINE
  5
114
330
100
100
AcDbEntity
  8
0
  6
Continuous
 62
     7
370
    25
100
AcDbLine
 10
0.393700787
 20
0.216535433
 30
0.0
 11
0.393700787
 21
-0.236220472
 31
0.0
  0
LINE
  5
115
330
100
100
AcDbEntity
  8
0
  6
Continuous
 62
     7
370
    25
100
AcDbLine
 10
0.393700787
 20
-0.236220472
 30
0.0
 11
-0.393700787
 21
-0.236220472
 31
0.0
  0
LINE
  5
116
330
100
100
AcDbEntity
  8
0
  6
Continuous
 62
     7
370
    25
100
AcDbLine
 10
-0.393700787
 20
-0.236220472
 30
0.0
 11
-0.393700787
 21
0.216535433
 31
0.0
  0
LINE
  5
117
330
100
100
AcDbEntity
  8
0
  6
Continuous
 62
     7
370
    25
100
AcDbLine
 10
-0.3937007874
 20
0.216535433
 30
0.0
 11
0.3937007874
 21
0.216535433
 31
0.0
  0
LINE
  5
118
330
100
100
AcDbEntity
  8
0
  6
Continuous
 62
     7
370
    25
100
AcDbLine
 10
0.3740157482
 20
0.236220472
 30
0.0
 11
-0.3740157482
 21
0.236220472
 31
0.0
  0
LINE
  5
119
330
100
100
AcDbEntity
  8
0
  6
Continuous
 62
     7
370
    25
100
AcDbLine
 10
-0.3740157482
 20
0.236220472
 30
0.0
 11
-0.3937007874
 21
0.216535433
 31
0.0
  0
LINE
  5
11A
330
100
100
AcDbEntity
  8
0
  6
Continuous
 62
     7
370
    25
100
AcDbLine
 10
0.3937007874
 20
0.216535433
 30
0.0
 11
0.3740157482
 21
0.236220472
 31
0.0
  0
LINE
  5
11B
330
100
100
AcDbEntity
  8
0
  6
Continuous
 62
     7
370
    25
100
AcDbLine
 10
-0.337299213
 20
-0.255220472
 30
0.0
 11
0.337700787
 21
-0.255220472
 31
0.0
  0
LINE
  5
11C
330
100
100
AcDbEntity
  8
0
  6
Continuous
 62
     7
370
    25
100
AcDbLine
 10
-0.367299213
 20
-0.255220472
 30
0.0
 11
-0.367299213
 21
-0.236220472
 31
0.0
  0
LINE
  5
11D
330
100
100
AcDbEntity
  8
0
  6
Continuous
 62
     7
370
    25
100
AcDbLine
 10
0.367700787
 20
-0.255220472
 30
0.0
 11
0.367700787
 21
-0.236220472
 31
0.0
  0
VIEWPORT
  5
25B
330
100
100
AcDbEntity
  8
0
100
AcDbViewport
 10
0.0
 20
0.0
 30
0.0
 40
8.4
 41
6.4
 68
     1
 69
     1
 12
0.0000000001
 22
-0.0068491622
 13
0.0
 23
0.0
 14
0.5
 24
0.5
 15
0.5
 25
0.5
 16
0.0
 26
0.0
 36
1.0
 17
0.0
 27
0.0
 37
0.0
 42
50.0
 43
0.0
 44
0.0
 45
1.3679743623
 50
0.0
 51
0.0
 72
   100
 90
   557152
  1

281
     0
 71
     1
 74
     0
110
0.0
120
0.0
130
0.0
111
1.0
121
0.0
131
0.0
112
0.0
122
1.0
132
0.0
 79
     0
146
0.0
  0
ENDBLK
  5
103
330
100
100
AcDbEntity
  8
0
100
AcDbBlockEnd
  0
BLOCK
  5
120
330
11E
100
AcDbEntity
  8
0
100
AcDbBlockBegin
  2
*Paper_Space3
 70
     0
 10
0.0
 20
0.0
 30
0.0
  3
*Paper_Space3
  1

  0
SPLINE
  5
126
330
11E
100
AcDbEntity
  8
0
  6
Continuous
 62
     7
370
    25
100
AcDbSpline
210
0.0
220
0.0
230
1.0
 70
     8
 71
     3
 72
    33
 73
    29
 74
     0
 42
0.00000001
 43
0.00000001
 40
0.0
 40
0.0
 40
0.0
 40
0.0
 40
0.0125326067531856
 40
0.0250361822953101
 40
0.0375300657498707
 40
0.0500336412123375
 40
0.0625662478065768
 40
0.0938388079043408
 40
0.1251113680193449
 40
0.1563839278965199
 40
0.1876564873384955
 40
0.2501259052265496
 40
0.3125953222159227
 40
0.3750647407286645
 40
0.4375341572117584
 40
0.5000035755495185
 40
0.5624729938872786
 40
0.6249424103703726
 40
0.6874118288831146
 40
0.7498812458724875
 40
0.8123506637605417
 40
0.8436232232025174
 40
0.8748957830796923
 40
0.9061683431946965
 40
0.9374409032924604
 40
0.9583088819902795
 40
0.9791320210812137
 40
1.0
 40
1.0
 40
1.0
 40
1.0
 10
0.2551472707860677
 20
0.0
 30
0.0
 10
0.2551096445408579
 20
-0.003345058326744
 30
0.0
 10
0.2550344792099167
 20
-0.0100274263054187
 30
0.0
 10
0.2544239336836609
 20
-0.0200291766426847
 30
0.0
 10
0.2534485859441614
 20
-0.0299922066064498
 30
0.0
 10
0.252072831194475
 20
-0.0399167515162042
 30
0.0
 10
0.2494290914702857
 20
-0.0547133446326023
 30
0.0
 10
0.244558626212816
 20
-0.0741871737257647
 30
0.0
 10
0.2361020568893847
 20
-0.0977960075146182
 30
0.0
 10
0.2253851950095916
 20
-0.1204725964423068
 30
0.0
 10
0.2082042945420761
 20
-0.1491258628268343
 30
0.0
 10
0.1815774416829684
 20
-0.1815854203427713
 30
0.0
 10
0.142666507032058
 20
-0.2135131218049347
 30
0.0
 10
0.0982699067359078
 20
-0.2372453093304776
 30
0.0
 10
0.0500976685907211
 20
-0.2518576895593684
 30
0.0
 10
0.0000000000920283
 20
-0.2567920629031444
 30
0.0
 10
-0.0500976690481446
 20
-0.2518576896629441
 30
0.0
 10
-0.098269905268891
 20
-0.2372453089161748
 30
0.0
 10
-0.1426665126213223
 20
-0.2135131233585703
 30
0.0
 10
-0.1815774209715498
 20
-0.1815854145425324
 30
0.0
 10
-0.2082043556391886
 20
-0.1491258799051047
 30
0.0
 10
-0.2253850891269725
 20
-0.1204725668224796
 30
0.0
 10
-0.2361024611704759
 20
-0.0977961205689754
 30
0.0
 10
-0.2445571151496803
 20
-0.0741867511281606
 30
0.0
 10
-0.2499746733441573
 20
-0.0525526526687519
 30
0.0
 10
-0.253135179004986
 20
-0.0333278397368553
 30
0.0
 10
-0.2548341545580118
 20
-0.0166994534878206
 30
0.0
 10
-0.2550428239202102
 20
-0.005570474326657
 30
0.0
 10
-0.2551472708158377
 20
0.0
 30
0.0
  0
SPLINE
  5
127
330
11E
100
AcDbEntity
  8
0
  6
Continuous
 62
     7
370
    25
100
AcDbSpline
210
0.0
220
0.0
230
1.0
 70
     8
 71
     3
 72
    33
 73
    29
 74
     0
 42
0.00000001
 43
0.00000001
 40
0.0
 40
0.0
 40
0.0
 40
0.0
 40
0.0125326067531859
 40
0.0250361822953101
 40
0.0375300657498708
 40
0.0500336412123374
 40
0.0625662478065767
 40
0.0938388079043405
 40
0.125111368019345
 40
0.1563839278965198
 40
0.1876564873384955
 40
0.2501259052265496
 40
0.3125953222159225
 40
0.3750647407286646
 40
0.4375341572117585
 40
0.5000035755495186
 40
0.5624729938872787
 40
0.6249424103703726
 40
0.6874118288831144
 40
0.7498812458724875
 40
0.8123506637605417
 40
0.8436232232025173
 40
0.8748957830796921
 40
0.9061683431946964
 40
0.9374409032924603
 40
0.9583088819902793
 40
0.9791320210812137
 40
1.0
 40
1.0
 40
1.0
 40
1.0
 10
-0.2551472708158377
 20
0.0
 30
0.0
 10
-0.2551096445706278
 20
0.0033450583267442
 30
0.0
 10
-0.2550344792396865
 20
0.0100274263054188
 30
0.0
 10
-0.2544239337134308
 20
0.0200291766426849
 30
0.0
 10
-0.2534485859739312
 20
0.0299922066064499
 30
0.0
 10
-0.2520728312242451
 20
0.0399167515162043
 30
0.0
 10
-0.2494290915000557
 20
0.0547133446326023
 30
0.0
 10
-0.2445586262425862
 20
0.0741871737257648
 30
0.0
 10
-0.2361020569191545
 20
0.0977960075146181
 30
0.0
 10
-0.2253851950393619
 20
0.120472596442307
 30
0.0
 10
-0.2082042945718461
 20
0.1491258628268343
 30
0.0
 10
-0.1815774417127385
 20
0.1815854203427713
 30
0.0
 10
-0.1426665070618282
 20
0.2135131218049349
 30
0.0
 10
-0.0982699067656779
 20
0.2372453093304776
 30
0.0
 10
-0.0500976686204911
 20
0.2518576895593684
 30
0.0
 10
-0.0000000001217984
 20
0.2567920629031445
 30
0.0
 10
0.0500976690183745
 20
0.2518576896629441
 30
0.0
 10
0.0982699052391209
 20
0.2372453089161749
 30
0.0
 10
0.1426665125915521
 20
0.2135131233585703
 30
0.0
 10
0.1815774209417797
 20
0.1815854145425324
 30
0.0
 10
0.2082043556094187
 20
0.149125879905105
 30
0.0
 10
0.2253850890972021
 20
0.1204725668224796
 30
0.0
 10
0.236102461140706
 20
0.0977961205689753
 30
0.0
 10
0.2445571151199103
 20
0.0741867511281607
 30
0.0
 10
0.2499746733143874
 20
0.052552652668752
 30
0.0
 10
0.2531351789752158
 20
0.0333278397368552
 30
0.0
 10
0.2548341545282418
 20
0.0166994534878207
 30
0.0
 10
0.2550428238904403
 20
0.005570474326657
 30
0.0
 10
0.2551472707860677
 20
0.0
 30
0.0
  0
SPLINE
  5
128
330
11E
100
AcDbEntity
  8
0
  6
Continuous
 62
     7
370
    25
100
AcDbSpline
210
0.0
220
0.0
230
1.0
 70
     8
 71
     3
 72
    25
 73
    21
 74
     0
 42
0.00000001
 43
0.00000001
 40
0.0
 40
0.0
 40
0.0
 40
0.0
 40
0.0312831329788903
 40
0.0625662572676009
 40
0.1250567951293662
 40
0.1875473362123356
 40
0.2500378674090636
 40
0.3125283968556399
 40
0.3750189285896849
 40
0.4375094677711663
 40
0.4999999973155621
 40
0.5624905335572163
 40
0.6249810662988114
 40
0.6874716039678896
 40
0.749962133414466
 40
0.8124526646111945
 40
0.8749432056941635
 40
0.9374337435559289
 40
0.9687168671034627
 40
1.0
 40
1.0
 40
1.0
 40
1.0
 10
0.2505496467729131
 20
0.2151165757299165
 30
0.0
 10
0.2493900188365908
 20
0.2151493901511867
 30
0.0
 10
0.2470707632860807
 20
0.2152150189846117
 30
0.0
 10
0.2424813897805597
 20
0.2159199766930877
 30
0.0
 10
0.236901714836059
 20
0.2175997579443686
 30
0.0
 10
0.2307374243129093
 20
0.2208990083889892
 30
0.0
 10
0.225333109751294
 20
0.2253329593381421
 30
0.0
 10
0.2208982279565667
 20
0.2307372483008372
 30
0.0
 10
0.2176027311809328
 20
0.2369025740934148
 30
0.0
 10
0.2155733928247943
 20
0.2435924408977049
 30
0.0
 10
0.2148881677134165
 20
0.2505496467870224
 30
0.0
 10
0.2155733926131886
 20
0.2575068525286824
 30
0.0
 10
0.2176027315444855
 20
0.2641967193511731
 30
0.0
 10
0.2208982276976399
 20
0.2703620454448762
 30
0.0
 10
0.225333109784425
 20
0.2757663344920666
 30
0.0
 10
0.2307374242989107
 20
0.2802002855060119
 30
0.0
 10
0.2369017148589219
 20
0.2834995357780589
 30
0.0
 10
0.2424813896933408
 20
0.2851793175427499
 30
0.0
 10
0.2470707633333353
 20
0.285884274189932
 30
0.0
 10
0.2493900188442018
 20
0.2859499029783699
 30
0.0
 10
0.2505496467729131
 20
0.2859827173774921
 30
0.0
  0
SPLINE
  5
129
330
11E
100
AcDbEntity
  8
0
  6
Continuous
 62
     7
370
    25
100
AcDbSpline
210
0.0
220
0.0
230
1.0
 70
     8
 71
     3
 72
    25
 73
    21
 74
     0
 42
0.00000001
 43
0.00000001
 40
0.0
 40
0.0
 40
0.0
 40
0.0
 40
0.031283133156832
 40
0.0625662569646641
 40
0.1250567953463901
 40
0.1875473247668869
 40
0.2500378671615733
 40
0.3125283971281131
 40
0.3750189353171541
 40
0.4375094645688594
 40
0.5000000026844378
 40
0.5624905341027578
 40
0.6249810697943496
 40
0.6874716020483574
 40
0.7499621320148969
 40
0.8124526744095831
 40
0.8749432038300802
 40
0.9374337422118059
 40
0.968716866760815
 40
1.0
 40
1.0
 40
1.0
 40
1.0
 10
0.2505496467729131
 20
0.2859827173774921
 30
0.0
 10
0.2517092747031482
 20
0.285949902980893
 30
0.0
 10
0.2540285302170623
 20
0.2858842741975012
 30
0.0
 10
0.258617903826599
 20
0.2851793174998876
 30
0.0
 10
0.2641975784617634
 20
0.2834995362564907
 30
0.0
 10
0.2703618680476368
 20
0.2802002845195176
 30
0.0
 10
0.275766183800062
 20
0.2757663351260828
 30
0.0
 10
0.2802010655903565
 20
0.270362045315907
 30
0.0
 10
0.2834965626709098
 20
0.264196719672722
 30
0.0
 10
0.2855258981716262
 20
0.2575068521424143
 30
0.0
 10
0.2862111272227182
 20
0.2505496467870224
 30
0.0
 10
0.2855258979600205
 20
0.2435924412839731
 30
0.0
 10
0.2834965630344625
 20
0.2369025737718659
 30
0.0
 10
0.2802010653314299
 20
0.2307372484298065
 30
0.0
 10
0.2757661838331932
 20
0.2253329587041261
 30
0.0
 10
0.2703618680336381
 20
0.2208990093754837
 30
0.0
 10
0.2641975784846263
 20
0.217599757465937
 30
0.0
 10
0.2586179037393803
 20
0.21591997673595
 30
0.0
 10
0.2540285302643168
 20
0.2152150189770424
 30
0.0
 10
0.2517092747107592
 20
0.2151493901486637
 30
0.0
 10
0.2505496467729131
 20
0.2151165757299165
 30
0.0
  0
SPLINE
  5
12A
330
11E
100
AcDbEntity
  8
0
  6
Continuous
 62
     7
370
    25
100
AcDbSpline
210
0.0
220
0.0
230
1.0
 70
     8
 71
     3
 72
    25
 73
    21
 74
     0
 42
0.00000001
 43
0.00000001
 40
0.0
 40
0.0
 40
0.0
 40
0.0
 40
0.0312831328965373
 40
0.0625662564440714
 40
0.1250567943058366
 40
0.1875473353888057
 40
0.2500378665855339
 40
0.3125283960321102
 40
0.3750189337011886
 40
0.4375094664427839
 40
0.5000000026844379
 40
0.5624905322288334
 40
0.6249810714103149
 40
0.68747160314436
 40
0.7499621325909362
 40
0.8124526637876641
 40
0.8749432048706336
 40
0.9374337427323989
 40
0.9687168670211098
 40
1.0
 40
1.0
 40
1.0
 40
1.0
 10
0.2505496467729131
 20
-0.285982717377492
 30
0.0
 10
0.2493900188442018
 20
-0.2859499029783698
 30
0.0
 10
0.2470707633333354
 20
-0.2858842741899319
 30
0.0
 10
0.2424813896933408
 20
-0.2851793175427499
 30
0.0
 10
0.2369017148589219
 20
-0.2834995357780588
 30
0.0
 10
0.2307374242989108
 20
-0.2802002855060119
 30
0.0
 10
0.225333109784425
 20
-0.2757663344920665
 30
0.0
 10
0.22089822769764
 20
-0.2703620454448762
 30
0.0
 10
0.2176027315444855
 20
-0.2641967193511729
 30
0.0
 10
0.2155733926131887
 20
-0.2575068525286822
 30
0.0
 10
0.2148881677134165
 20
-0.2505496467870224
 30
0.0
 10
0.2155733928247943
 20
-0.2435924408977049
 30
0.0
 10
0.2176027311809327
 20
-0.2369025740934148
 30
0.0
 10
0.2208982279565667
 20
-0.2307372483008371
 30
0.0
 10
0.225333109751294
 20
-0.2253329593381422
 30
0.0
 10
0.2307374243129093
 20
-0.220899008388989
 30
0.0
 10
0.2369017148360591
 20
-0.2175997579443686
 30
0.0
 10
0.2424813897805597
 20
-0.2159199766930877
 30
0.0
 10
0.2470707632860808
 20
-0.2152150189846117
 30
0.0
 10
0.2493900188365908
 20
-0.2151493901511866
 30
0.0
 10
0.2505496467729132
 20
-0.2151165757299164
 30
0.0
  0
SPLINE
  5
12B
330
11E
100
AcDbEntity
  8
0
  6
Continuous
 62
     7
370
    25
100
AcDbSpline
210
0.0
220
0.0
230
1.0
 70
     8
 71
     3
 72
    25
 73
    21
 74
     0
 42
0.00000001
 43
0.00000001
 40
0.0
 40
0.0
 40
0.0
 40
0.0
 40
0.0312831332391849
 40
0.0625662577881938
 40
0.1250567961699194
 40
0.1875473255904165
 40
0.2500378679851028
 40
0.3125283979516424
 40
0.3750189302056502
 40
0.4375094658972424
 40
0.4999999973155621
 40
0.5624905354311401
 40
0.6249810646828459
 40
0.6874716028718866
 40
0.7499621328384265
 40
0.812452675233113
 40
0.8749432046536095
 40
0.9374337430353362
 40
0.968716866843168
 40
1.0
 40
1.0
 40
1.0
 40
1.0
 10
0.2505496467729132
 20
-0.2151165757299164
 30
0.0
 10
0.2517092747107592
 20
-0.2151493901486635
 30
0.0
 10
0.2540285302643169
 20
-0.2152150189770424
 30
0.0
 10
0.2586179037393802
 20
-0.2159199767359499
 30
0.0
 10
0.2641975784846263
 20
-0.2175997574659369
 30
0.0
 10
0.2703618680336383
 20
-0.2208990093754837
 30
0.0
 10
0.2757661838331932
 20
-0.225332958704126
 30
0.0
 10
0.2802010653314298
 20
-0.2307372484298063
 30
0.0
 10
0.2834965630344626
 20
-0.2369025737718659
 30
0.0
 10
0.2855258979600203
 20
-0.2435924412839729
 30
0.0
 10
0.2862111272227183
 20
-0.2505496467870225
 30
0.0
 10
0.2855258981716261
 20
-0.2575068521424141
 30
0.0
 10
0.2834965626709098
 20
-0.2641967196727219
 30
0.0
 10
0.2802010655903566
 20
-0.270362045315907
 30
0.0
 10
0.2757661838000621
 20
-0.2757663351260828
 30
0.0
 10
0.2703618680476367
 20
-0.2802002845195173
 30
0.0
 10
0.2641975784617634
 20
-0.2834995362564907
 30
0.0
 10
0.2586179038265991
 20
-0.2851793174998876
 30
0.0
 10
0.2540285302170623
 20
-0.2858842741975011
 30
0.0
 10
0.2517092747031482
 20
-0.2859499029808928
 30
0.0
 10
0.2505496467729131
 20
-0.285982717377492
 30
0.0
  0
SPLINE
  5
12C
330
11E
100
AcDbEntity
  8
0
  6
Continuous
 62
     7
370
    25
100
AcDbSpline
210
0.0
220
0.0
230
1.0
 70
     8
 71
     3
 72
    25
 73
    21
 74
     0
 42
0.00000001
 43
0.00000001
 40
0.0
 40
0.0
 40
0.0
 40
0.0
 40
0.0312831331568326
 40
0.062566256964665
 40
0.1250567953463917
 40
0.1875473247668872
 40
0.2500378671615736
 40
0.3125283971281136
 40
0.3750189353171539
 40
0.43750946456886
 40
0.500000002684438
 40
0.5624905341027577
 40
0.6249810697943502
 40
0.6874716020483574
 40
0.749962132014897
 40
0.8124526744095832
 40
0.8749432038300791
 40
0.9374337422118055
 40
0.9687168667608141
 40
1.0
 40
1.0
 40
1.0
 40
1.0
 10
-0.2505496468026832
 20
-0.285982717377492
 30
0.0
 10
-0.2517092747329183
 20
-0.2859499029808928
 30
0.0
 10
-0.2540285302468324
 20
-0.2858842741975012
 30
0.0
 10
-0.2586179038563692
 20
-0.2851793174998876
 30
0.0
 10
-0.2641975784915335
 20
-0.2834995362564907
 30
0.0
 10
-0.2703618680774069
 20
-0.2802002845195173
 30
0.0
 10
-0.2757661838298321
 20
-0.2757663351260827
 30
0.0
 10
-0.2802010656201267
 20
-0.2703620453159071
 30
0.0
 10
-0.2834965627006796
 20
-0.2641967196727218
 30
0.0
 10
-0.2855258982013963
 20
-0.2575068521424143
 30
0.0
 10
-0.2862111272524882
 20
-0.2505496467870223
 30
0.0
 10
-0.2855258979897904
 20
-0.2435924412839729
 30
0.0
 10
-0.2834965630642324
 20
-0.236902573771866
 30
0.0
 10
-0.2802010653611999
 20
-0.2307372484298063
 30
0.0
 10
-0.2757661838629633
 20
-0.225332958704126
 30
0.0
 10
-0.2703618680634082
 20
-0.2208990093754837
 30
0.0
 10
-0.2641975785143964
 20
-0.2175997574659369
 30
0.0
 10
-0.2586179037691505
 20
-0.21591997673595
 30
0.0
 10
-0.254028530294087
 20
-0.2152150189770423
 30
0.0
 10
-0.2517092747405293
 20
-0.2151493901486636
 30
0.0
 10
-0.2505496468026832
 20
-0.2151165757299164
 30
0.0
  0
SPLINE
  5
12D
330
11E
100
AcDbEntity
  8
0
  6
Continuous
 62
     7
370
    25
100
AcDbSpline
210
0.0
220
0.0
230
1.0
 70
     8
 71
     3
 72
    25
 73
    21
 74
     0
 42
0.00000001
 43
0.00000001
 40
0.0
 40
0.0
 40
0.0
 40
0.0
 40
0.03128313297889
 40
0.0625662572676026
 40
0.1250567951293664
 40
0.1875473362123348
 40
0.2500378674090639
 40
0.3125283968556403
 40
0.3750189285896847
 40
0.4375094677711666
 40
0.4999999973155626
 40
0.5624905335572165
 40
0.6249810662988123
 40
0.6874716039678899
 40
0.7499621334144663
 40
0.8124526646111957
 40
0.8749432056941635
 40
0.9374337435559273
 40
0.9687168671034627
 40
1.0
 40
1.0
 40
1.0
 40
1.0
 10
-0.2505496468026832
 20
-0.2151165757299164
 30
0.0
 10
-0.2493900188663609
 20
-0.2151493901511867
 30
0.0
 10
-0.2470707633158508
 20
-0.2152150189846117
 30
0.0
 10
-0.2424813898103297
 20
-0.2159199766930875
 30
0.0
 10
-0.2369017148658292
 20
-0.2175997579443688
 30
0.0
 10
-0.2307374243426794
 20
-0.2208990083889891
 30
0.0
 10
-0.2253331097810641
 20
-0.2253329593381421
 30
0.0
 10
-0.2208982279863366
 20
-0.2307372483008371
 30
0.0
 10
-0.217602731210703
 20
-0.2369025740934149
 30
0.0
 10
-0.2155733928545644
 20
-0.2435924408977048
 30
0.0
 10
-0.2148881677431863
 20
-0.2505496467870224
 30
0.0
 10
-0.2155733926429587
 20
-0.2575068525286823
 30
0.0
 10
-0.2176027315742557
 20
-0.2641967193511728
 30
0.0
 10
-0.22089822772741
 20
-0.2703620454448762
 30
0.0
 10
-0.2253331098141951
 20
-0.2757663344920667
 30
0.0
 10
-0.2307374243286809
 20
-0.2802002855060119
 30
0.0
 10
-0.236901714888692
 20
-0.2834995357780588
 30
0.0
 10
-0.2424813897231108
 20
-0.2851793175427498
 30
0.0
 10
-0.2470707633631054
 20
-0.2858842741899319
 30
0.0
 10
-0.2493900188739718
 20
-0.2859499029783698
 30
0.0
 10
-0.2505496468026832
 20
-0.285982717377492
 30
0.0
  0
SPLINE
  5
12E
330
11E
100
AcDbEntity
  8
0
  6
Continuous
 62
     7
370
    25
100
AcDbSpline
210
0.0
220
0.0
230
1.0
 70
     8
 71
     3
 72
    25
 73
    21
 74
     0
 42
0.00000001
 43
0.00000001
 40
0.0
 40
0.0
 40
0.0
 40
0.0
 40
0.0312831332391858
 40
0.0625662577881947
 40
0.1250567961699212
 40
0.1875473255904169
 40
0.2500378679851032
 40
0.3125283979516428
 40
0.37501893020565
 40
0.4375094658972422
 40
0.4999999973155622
 40
0.5624905354311406
 40
0.6249810646828461
 40
0.6874716028718865
 40
0.7499621328384264
 40
0.8124526752331129
 40
0.8749432046536084
 40
0.937433743035335
 40
0.9687168668431674
 40
1.0
 40
1.0
 40
1.0
 40
1.0
 10
-0.2505496468026832
 20
0.2151165757299165
 30
0.0
 10
-0.2517092747405292
 20
0.2151493901486637
 30
0.0
 10
-0.254028530294087
 20
0.2152150189770424
 30
0.0
 10
-0.2586179037691504
 20
0.21591997673595
 30
0.0
 10
-0.2641975785143965
 20
0.2175997574659369
 30
0.0
 10
-0.2703618680634083
 20
0.2208990093754839
 30
0.0
 10
-0.2757661838629632
 20
0.225332958704126
 30
0.0
 10
-0.2802010653611999
 20
0.2307372484298064
 30
0.0
 10
-0.2834965630642324
 20
0.236902573771866
 30
0.0
 10
-0.2855258979897904
 20
0.2435924412839729
 30
0.0
 10
-0.2862111272524883
 20
0.2505496467870225
 30
0.0
 10
-0.2855258982013962
 20
0.2575068521424143
 30
0.0
 10
-0.2834965627006796
 20
0.2641967196727219
 30
0.0
 10
-0.2802010656201266
 20
0.2703620453159071
 30
0.0
 10
-0.2757661838298321
 20
0.2757663351260828
 30
0.0
 10
-0.2703618680774068
 20
0.2802002845195173
 30
0.0
 10
-0.2641975784915335
 20
0.2834995362564907
 30
0.0
 10
-0.2586179038563692
 20
0.2851793174998877
 30
0.0
 10
-0.2540285302468324
 20
0.2858842741975012
 30
0.0
 10
-0.2517092747329183
 20
0.2859499029808928
 30
0.0
 10
-0.2505496468026832
 20
0.2859827173774921
 30
0.0
  0
SPLINE
  5
12F
330
11E
100
AcDbEntity
  8
0
  6
Continuous
 62
     7
370
    25
100
AcDbSpline
210
0.0
220
0.0
230
1.0
 70
     8
 71
     3
 72
    25
 73
    21
 74
     0
 42
0.00000001
 43
0.00000001
 40
0.0
 40
0.0
 40
0.0
 40
0.0
 40
0.031283132896537
 40
0.0625662564440728
 40
0.1250567943058365
 40
0.1875473353888043
 40
0.250037866585534
 40
0.3125283960321104
 40
0.3750189337011878
 40
0.4375094664427834
 40
0.5000000026844379
 40
0.5624905322288339
 40
0.6249810714103156
 40
0.68747160314436
 40
0.7499621325909364
 40
0.8124526637876656
 40
0.8749432048706339
 40
0.9374337427323977
 40
0.9687168670211098
 40
1.0
 40
1.0
 40
1.0
 40
1.0
 10
-0.2505496468026832
 20
0.2859827173774921
 30
0.0
 10
-0.2493900188739718
 20
0.2859499029783699
 30
0.0
 10
-0.2470707633631053
 20
0.285884274189932
 30
0.0
 10
-0.2424813897231107
 20
0.2851793175427497
 30
0.0
 10
-0.2369017148886921
 20
0.283499535778059
 30
0.0
 10
-0.2307374243286809
 20
0.2802002855060119
 30
0.0
 10
-0.2253331098141951
 20
0.2757663344920667
 30
0.0
 10
-0.22089822772741
 20
0.2703620454448764
 30
0.0
 10
-0.2176027315742557
 20
0.2641967193511729
 30
0.0
 10
-0.2155733926429587
 20
0.2575068525286824
 30
0.0
 10
-0.2148881677431863
 20
0.2505496467870225
 30
0.0
 10
-0.2155733928545644
 20
0.243592440897705
 30
0.0
 10
-0.2176027312107029
 20
0.2369025740934148
 30
0.0
 10
-0.2208982279863367
 20
0.2307372483008372
 30
0.0
 10
-0.2253331097810639
 20
0.2253329593381421
 30
0.0
 10
-0.2307374243426795
 20
0.2208990083889892
 30
0.0
 10
-0.2369017148658291
 20
0.2175997579443687
 30
0.0
 10
-0.2424813898103297
 20
0.2159199766930876
 30
0.0
 10
-0.2470707633158507
 20
0.2152150189846117
 30
0.0
 10
-0.2493900188663609
 20
0.2151493901511868
 30
0.0
 10
-0.2505496468026832
 20
0.2151165757299165
 30
0.0
  0
SPLINE
  5
130
330
11E
100
AcDbEntity
  8
0
  6
Continuous
 62
     7
370
    25
100
AcDbSpline
210
0.0
220
0.0
230
1.0
 70
     8
 71
     3
 72
    29
 73
    25
 74
     0
 42
0.00000001
 43
0.00000001
 40
0.0
 40
0.0
 40
0.0
 40
0.0
 40
0.0156625311555114
 40
0.0312872383925571
 40
0.0469119450785907
 40
0.0625744745850577
 40
0.0938522785231681
 40
0.1251300816531743
 40
0.1876099763416512
 40
0.2500898676973014
 40
0.3125697599567719
 40
0.3750496505856
 40
0.4375295425661138
 40
0.5000094346492798
 40
0.5624893267324459
 40
0.6249692167795184
 40
0.6874491091902164
 40
0.7499290014496868
 40
0.8124088928053367
 40
0.8748887874938137
 40
0.9061665902833747
 40
0.9374443944668319
 40
0.9687221960334929
 40
1.0
 40
1.0
 40
1.0
 40
1.0
 10
0.6292204720711151
 20
0.1177007870767026
 30
0.0
 10
0.6272873505034582
 20
0.1177279679651685
 30
0.0
 10
0.6234257757216717
 20
0.1177822641021536
 30
0.0
 10
0.6176496812431718
 20
0.1182236546124345
 30
0.0
 10
0.6119014101081598
 20
0.1189290586961416
 30
0.0
 10
0.6042917454094924
 20
0.1202520958229332
 30
0.0
 10
0.5949101371097582
 20
0.1225981840835777
 30
0.0
 10
0.5803636623958806
 20
0.1278062628840984
 30
0.0
 10
0.5632376001904789
 20
0.1369552153264643
 30
0.0
 10
0.5452448108327913
 20
0.1517242454159499
 30
0.0
 10
0.5304743850671895
 20
0.1697209267674014
 30
0.0
 10
0.519499993944287
 20
0.1902530476712798
 30
0.0
 10
0.5127417582884546
 20
0.212531735648777
 30
0.0
 10
0.5104598291187984
 20
0.2357007865668387
 30
0.0
 10
0.5127417585088299
 20
0.2588698428438992
 30
0.0
 10
0.5194999928703719
 20
0.2811485140231942
 30
0.0
 10
0.5304743901986357
 20
0.3016806960168794
 30
0.0
 10
0.5452447907418617
 20
0.3196771508755293
 30
0.0
 10
0.5632376752823394
 20
0.334447026550299
 30
0.0
 10
0.5803634412383295
 20
0.3435933486042443
 30
0.0
 10
0.5949105205611568
 20
0.3488067962912899
 30
0.0
 10
0.6061632029817934
 20
0.3516048464437053
 30
0.0
 10
0.617635553613057
 20
0.3533745211768343
 30
0.0
 10
0.6253588324863318
 20
0.353592031839456
 30
0.0
 10
0.6292204720711151
 20
0.3537007871749391
 30
0.0
  0
SPLINE
  5
131
330
11E
100
AcDbEntity
  8
0
  6
Continuous
 62
     7
370
    25
100
AcDbSpline
210
0.0
220
0.0
230
1.0
 70
     8
 71
     3
 72
    29
 73
    25
 74
     0
 42
0.00000001
 43
0.00000001
 40
0.0
 40
0.0
 40
0.0
 40
0.0
 40
0.0156625311526155
 40
0.0312872383620116
 40
0.0469119449709011
 40
0.0625744743263496
 40
0.0938522785101891
 40
0.1251300813001327
 40
0.1876099759893737
 40
0.2500898673457874
 40
0.3125697596060216
 40
0.3750496520174835
 40
0.4375295420653199
 40
0.5000094341492497
 40
0.5624893262331795
 40
0.6249692182144572
 40
0.6874491088440493
 40
0.7499290011042836
 40
0.8124088924606976
 40
0.8748887871499385
 40
0.9061665902803279
 40
0.9374443942188201
 40
0.9687221960083873
 40
1.0
 40
1.0
 40
1.0
 40
1.0
 10
0.6292204720711151
 20
0.3537007871749391
 30
0.0
 10
0.6311535936380738
 20
0.3536736062946998
 30
0.0
 10
0.6350151684154098
 20
0.353619310174191
 30
0.0
 10
0.6407912628921654
 20
0.3531779198218281
 30
0.0
 10
0.6465395340121367
 20
0.352472515927963
 30
0.0
 10
0.6541491988379258
 20
0.3511494794452947
 30
0.0
 10
0.6635308068764567
 20
0.3488033902455324
 30
0.0
 10
0.6780772819023174
 20
0.343595312472443
 30
0.0
 10
0.6952033439197696
 20
0.3344463595493685
 30
0.0
 10
0.7131961332886305
 20
0.3196773296022968
 30
0.0
 10
0.7279665593306669
 20
0.3016806481107352
 30
0.0
 10
0.7389409498353054
 20
0.2811485269210011
 30
0.0
 10
0.7456991859925377
 20
0.2588698391588136
 30
0.0
 10
0.7479811150234336
 20
0.2357007884093737
 30
0.0
 10
0.7456991854946284
 20
0.2125317319637226
 30
0.0
 10
0.7389409516345274
 20
0.1902530605689625
 30
0.0
 10
0.7279665536878478
 20
0.1697208788617257
 30
0.0
 10
0.7131961534216241
 20
0.1517244241409742
 30
0.0
 10
0.6952032688902002
 20
0.1369545483320402
 30
0.0
 10
0.6780775027528536
 20
0.1278082267331453
 30
0.0
 10
0.6635304237285512
 20
0.1225947780710205
 30
0.0
 10
0.6522777410330063
 20
0.119796728884425
 30
0.0
 10
0.6408053905892581
 20
0.118027053087857
 30
0.0
 10
0.6330821116677862
 20
0.1178095424163063
 30
0.0
 10
0.6292204720711151
 20
0.1177007870767026
 30
0.0
  0
SPLINE
  5
132
330
11E
100
AcDbEntity
  8
0
  6
Continuous
 62
     7
370
    25
100
AcDbSpline
210
0.0
220
0.0
230
1.0
 70
     8
 71
     3
 72
    17
 73
    13
 74
     0
 42
0.00000001
 43
0.00000001
 40
0.0
 40
0.0
 40
0.0
 40
0.0
 40
0.062860079053804
 40
0.1251008471469756
 40
0.1873484671882867
 40
0.2502276470085521
 40
0.3751325863703557
 40
0.5001518254426468
 40
0.6250205554110047
 40
0.7500757680779074
 40
0.8749887687945924
 40
1.0
 40
1.0
 40
1.0
 40
1.0
 10
-0.0000000002559979
 20
-0.0295275616897022
 30
0.0
 10
-0.0009710943254565
 20
-0.0295009151643095
 30
0.0
 10
-0.0029037150376369
 20
-0.0294478846407986
 30
0.0
 10
-0.0057704912075436
 20
-0.0290097754328321
 30
0.0
 10
-0.0085813636190369
 20
-0.0283070960170404
 30
0.0
 10
-0.0122192285497119
 20
-0.0269985248243461
 30
0.0
 10
-0.0165167954580293
 20
-0.0247191227190837
 30
0.0
 10
-0.0210071091494472
 20
-0.021011564544894
 30
0.0
 10
-0.0247212803236047
 20
-0.016517617267466
 30
0.0
 10
-0.0274367637794966
 20
-0.0113725703476699
 30
0.0
 10
-0.0292069696338318
 20
-0.0058005714627248
 30
0.0
 10
-0.0294206680286775
 20
-0.0019340320615518
 30
0.0
 10
-0.0295275592222237
 20
-0.0000000025065644
 30
0.0
  0
SPLINE
  5
133
330
11E
100
AcDbEntity
  8
0
  6
Continuous
 62
     7
370
    25
100
AcDbSpline
210
0.0
220
0.0
230
1.0
 70
     8
 71
     3
 72
    17
 73
    13
 74
     0
 42
0.00000001
 43
0.00000001
 40
0.0
 40
0.0
 40
0.0
 40
0.0
 40
0.0628953650863959
 40
0.1251628201773543
 40
0.1874058622391366
 40
0.2502270459451192
 40
0.3752822641454555
 40
0.5001509985788944
 40
0.625170238071905
 40
0.7500751798192574
 40
0.8750505260219869
 40
0.9999999999999999
 40
0.9999999999999999
 40
0.9999999999999999
 40
0.9999999999999999
 10
0.0295275589669487
 20
-0.0000000025065644
 30
0.0
 10
0.0295008572718991
 20
-0.0009716417931505
 30
0.0
 10
0.0294477204556754
 20
-0.0029052200963716
 30
0.0
 10
0.0290091554210108
 20
-0.0057728289054461
 30
0.0
 10
0.0283064331639246
 20
-0.0085831133020633
 30
0.0
 10
0.0269973661604298
 20
-0.0122222295761144
 30
0.0
 10
0.0247176866805386
 20
-0.0165187530106362
 30
0.0
 10
0.0210082920199129
 20
-0.02101038274237
 30
0.0
 10
0.0165156566343636
 20
-0.0247227170331053
 30
0.0
 10
0.0113694649355904
 20
-0.0274378365738288
 30
0.0
 10
0.0057996379248259
 20
-0.0292073944954075
 30
0.0
 10
0.0019330790488473
 20
-0.0294208466571287
 30
0.0
 10
-0.0000000002559979
 20
-0.0295275616897022
 30
0.0
  0
SPLINE
  5
134
330
11E
100
AcDbEntity
  8
0
  6
Continuous
 62
     7
370
    25
100
AcDbSpline
210
0.0
220
0.0
230
1.0
 70
     8
 71
     3
 72
    17
 73
    13
 74
     0
 42
0.00000001
 43
0.00000001
 40
0.0
 40
0.0
 40
0.0
 40
0.0
 40
0.0628600793503314
 40
0.1251008482758867
 40
0.1873484695151055
 40
0.2502276507183577
 40
0.3751325900234974
 40
0.5001518239389661
 40
0.6250205545008511
 40
0.7500757687813326
 40
0.8749887691504908
 40
1.0
 40
1.0
 40
1.0
 40
1.0
 10
-0.0000000002559979
 20
0.0295275564558603
 30
0.0
 10
0.0009710938205525
 20
0.0295009099328519
 30
0.0
 10
0.0029037145551698
 20
0.0294478794138577
 30
0.0
 10
0.0057704907773048
 20
0.0290097702579037
 30
0.0
 10
0.0085813632622268
 20
0.0283070909043941
 30
0.0
 10
0.0122192283413269
 20
0.0269985199544533
 30
0.0
 10
0.0165167950705891
 20
0.0247191175727329
 30
0.0
 10
0.0210071087396353
 20
0.0210115594955978
 30
0.0
 10
0.0247212798762749
 20
0.0165176122303581
 30
0.0
 10
0.027436763588224
 20
0.0113725653948636
 30
0.0
 10
0.0292069693792249
 20
0.0058005664439208
 30
0.0
 10
0.0294206677736275
 20
0.001934027046489
 30
0.0
 10
0.0295275589669487
 20
-0.0000000025065644
 30
0.0
  0
SPLINE
  5
135
330
11E
100
AcDbEntity
  8
0
  6
Continuous
 62
     7
370
    25
100
AcDbSpline
210
0.0
220
0.0
230
1.0
 70
     8
 71
     3
 72
    17
 73
    13
 74
     0
 42
0.00000001
 43
0.00000001
 40
0.0
 40
0.0
 40
0.0
 40
0.0
 40
0.0628953653745552
 40
0.1251628207510187
 40
0.1874058630993789
 40
0.2502270470974422
 40
0.3752822639589407
 40
0.5001509981580918
 40
0.6251702397649569
 40
0.7500751847892445
 40
0.8750505266603966
 40
1.0
 40
1.0
 40
1.0
 40
1.0
 10
-0.0295275592222237
 20
-0.0000000025065644
 30
0.0
 10
-0.0295008575294655
 20
0.0009716367801249
 30
0.0
 10
-0.0294477207178016
 20
0.0029052150835549
 30
0.0
 10
-0.0290091556881646
 20
0.0057728238930472
 30
0.0
 10
-0.0283064334420753
 20
0.0085831082935126
 30
0.0
 10
-0.0269973664300737
 20
0.0122222245309774
 30
0.0
 10
-0.0247176871774967
 20
0.0165187480212552
 30
0.0
 10
-0.0210082925931072
 20
0.0210103778476423
 30
0.0
 10
-0.0165156569050166
 20
0.0247227118272055
 30
0.0
 10
-0.0113694653654367
 20
0.027437831625999
 30
0.0
 10
-0.0057996383121632
 20
0.0292073892924544
 30
0.0
 10
-0.0019330795383366
 20
0.029420841432531
 30
0.0
 10
-0.0000000002559979
 20
0.0295275564558603
 30
0.0
  0
SPLINE
  5
13E
330
11E
100
AcDbEntity
  8
0
  6
Continuous
 62
     7
370
    25
100
AcDbSpline
210
0.0
220
0.0
230
1.0
 70
     8
 71
     3
 72
    14
 73
    10
 74
     0
 42
0.00000001
 43
0.00000001
 40
0.0
 40
0.0
 40
0.0
 40
0.0
 40
0.25
 40
0.25
 40
0.5
 40
0.5
 40
0.75
 40
0.75
 40
1.0
 40
1.0
 40
1.0
 40
1.0
 10
-0.250549647019304
 20
0.225943348
 30
0.0
 10
-0.2570754585758314
 20
0.225943348001172
 30
0.0
 10
-0.2633344822940303
 20
0.2285359205132411
 30
0.0
 10
-0.2725633735024657
 20
0.2377648117222698
 30
0.0
 10
-0.2751559460141326
 20
0.2440238354406354
 30
0.0
 10
-0.2751559460156376
 20
0.2570754585536901
 30
0.0
 10
-0.2725633735054142
 20
0.2633344822726535
 30
0.0
 10
-0.2633344822991071
 20
0.2725633734838105
 30
0.0
 10
-0.2570754585815061
 20
0.2751559459973231
 30
0.0
 10
-0.2505496470249787
 20
0.2751559460000001
 30
0.0
  0
SPLINE
  5
13F
330
11E
100
AcDbEntity
  8
0
  6
Continuous
 62
     7
370
    25
100
AcDbSpline
210
0.0
220
0.0
230
1.0
 70
     8
 71
     3
 72
    12
 73
     8
 74
     0
 42
0.00000001
 43
0.00000001
 40
0.0
 40
0.0
 40
0.0
 40
0.0
 40
0.3333333333333333
 40
0.3333333333333333
 40
0.6666666666666665
 40
0.6666666666666665
 40
0.9999999999999999
 40
0.9999999999999999
 40
0.9999999999999999
 40
0.9999999999999999
 10
-0.250549647014885
 20
0.225943348
 30
0.0
 10
-0.241759946535517
 20
0.225943348
 30
0.0
 10
-0.2336348172247303
 20
0.230634393595524
 30
0.0
 10
-0.224845116747444
 20
0.2458586014103037
 30
0.0
 10
-0.2248451167493683
 20
0.2552406926002405
 30
0.0
 10
-0.2336348172328996
 20
0.2704649004114147
 30
0.0
 10
-0.2417599465456107
 20
0.2751559460036057
 30
0.0
 10
-0.2505496470249787
 20
0.2751559460000001
 30
0.0
  0
SPLINE
  5
140
330
11E
100
AcDbEntity
  8
0
  6
Continuous
 62
     7
370
    25
100
AcDbSpline
210
0.0
220
0.0
230
1.0
 70
     8
 71
     3
 72
    12
 73
     8
 74
     0
 42
0.00000001
 43
0.00000001
 40
0.0
 40
0.0
 40
0.0
 40
0.0
 40
0.3333333333333333
 40
0.3333333333333333
 40
0.6666666666666665
 40
0.6666666666666665
 40
0.9999999999999999
 40
0.9999999999999999
 40
0.9999999999999999
 40
0.9999999999999999
 10
0.250549646985115
 20
0.225943348
 30
0.0
 10
0.259339347464483
 20
0.225943348
 30
0.0
 10
0.2674644767752697
 20
0.230634393595524
 30
0.0
 10
0.2762541772525561
 20
0.2458586014103037
 30
0.0
 10
0.2762541772506318
 20
0.2552406926002405
 30
0.0
 10
0.2674644767671004
 20
0.2704649004114147
 30
0.0
 10
0.2593393474543894
 20
0.2751559460036057
 30
0.0
 10
0.2505496469750214
 20
0.2751559460000001
 30
0.0
  0
SPLINE
  5
141
330
11E
100
AcDbEntity
  8
0
  6
Continuous
 62
     7
370
    25
100
AcDbSpline
210
0.0
220
0.0
230
1.0
 70
     8
 71
     3
 72
    14
 73
    10
 74
     0
 42
0.00000001
 43
0.00000001
 40
0.0
 40
0.0
 40
0.0
 40
0.0
 40
0.25
 40
0.25
 40
0.5
 40
0.5
 40
0.75
 40
0.75
 40
1.0
 40
1.0
 40
1.0
 40
1.0
 10
0.250549646980696
 20
0.225943348
 30
0.0
 10
0.2440238354241687
 20
0.225943348001172
 30
0.0
 10
0.2377648117059698
 20
0.2285359205132411
 30
0.0
 10
0.2285359204975343
 20
0.2377648117222698
 30
0.0
 10
0.2259433479858675
 20
0.2440238354406354
 30
0.0
 10
0.2259433479843625
 20
0.2570754585536901
 30
0.0
 10
0.2285359204945859
 20
0.2633344822726535
 30
0.0
 10
0.237764811700893
 20
0.2725633734838105
 30
0.0
 10
0.244023835418494
 20
0.2751559459973231
 30
0.0
 10
0.2505496469750214
 20
0.2751559460000001
 30
0.0
  0
SPLINE
  5
142
330
11E
100
AcDbEntity
  8
0
  6
Continuous
 62
     7
370
    25
100
AcDbSpline
210
0.0
220
0.0
230
1.0
 70
     8
 71
     3
 72
    12
 73
     8
 74
     0
 42
0.00000001
 43
0.00000001
 40
0.0
 40
0.0
 40
0.0
 40
0.0
 40
0.3333333333333333
 40
0.3333333333333333
 40
0.6666666666666665
 40
0.6666666666666665
 40
0.9999999999999999
 40
0.9999999999999999
 40
0.9999999999999999
 40
0.9999999999999999
 10
-0.250549647014885
 20
-0.275155946
 30
0.0
 10
-0.241759946535517
 20
-0.275155946
 30
0.0
 10
-0.2336348172247303
 20
-0.2704649004044761
 30
0.0
 10
-0.224845116747444
 20
-0.2552406925896963
 30
0.0
 10
-0.2248451167493683
 20
-0.2458586013997595
 30
0.0
 10
-0.2336348172328997
 20
-0.2306343935885853
 30
0.0
 10
-0.2417599465456107
 20
-0.2259433479963944
 30
0.0
 10
-0.2505496470249787
 20
-0.225943348
 30
0.0
  0
SPLINE
  5
143
330
11E
100
AcDbEntity
  8
0
  6
Continuous
 62
     7
370
    25
100
AcDbSpline
210
0.0
220
0.0
230
1.0
 70
     8
 71
     3
 72
    14
 73
    10
 74
     0
 42
0.00000001
 43
0.00000001
 40
0.0
 40
0.0
 40
0.0
 40
0.0
 40
0.25
 40
0.25
 40
0.5
 40
0.5
 40
0.75
 40
0.75
 40
1.0
 40
1.0
 40
1.0
 40
1.0
 10
-0.250549647019304
 20
-0.275155946
 30
0.0
 10
-0.2570754585758314
 20
-0.275155945998828
 30
0.0
 10
-0.2633344822940303
 20
-0.2725633734867589
 30
0.0
 10
-0.2725633735024657
 20
-0.2633344822777303
 30
0.0
 10
-0.2751559460141326
 20
-0.2570754585593647
 30
0.0
 10
-0.2751559460156375
 20
-0.24402383544631
 30
0.0
 10
-0.2725633735054142
 20
-0.2377648117273465
 30
0.0
 10
-0.2633344822991071
 20
-0.2285359205161895
 30
0.0
 10
-0.2570754585815061
 20
-0.2259433480026769
 30
0.0
 10
-0.2505496470249787
 20
-0.225943348
 30
0.0
  0
SPLINE
  5
144
330
11E
100
AcDbEntity
  8
0
  6
Continuous
 62
     7
370
    25
100
AcDbSpline
210
0.0
220
0.0
230
1.0
 70
     8
 71
     3
 72
    14
 73
    10
 74
     0
 42
0.00000001
 43
0.00000001
 40
0.0
 40
0.0
 40
0.0
 40
0.0
 40
0.25
 40
0.25
 40
0.5
 40
0.5
 40
0.75
 40
0.75
 40
1.0
 40
1.0
 40
1.0
 40
1.0
 10
0.250549646980696
 20
-0.275155946
 30
0.0
 10
0.2440238354241687
 20
-0.275155945998828
 30
0.0
 10
0.2377648117059698
 20
-0.2725633734867589
 30
0.0
 10
0.2285359204975343
 20
-0.2633344822777303
 30
0.0
 10
0.2259433479858675
 20
-0.2570754585593647
 30
0.0
 10
0.2259433479843625
 20
-0.24402383544631
 30
0.0
 10
0.2285359204945859
 20
-0.2377648117273465
 30
0.0
 10
0.237764811700893
 20
-0.2285359205161895
 30
0.0
 10
0.244023835418494
 20
-0.2259433480026769
 30
0.0
 10
0.2505496469750214
 20
-0.225943348
 30
0.0
  0
SPLINE
  5
145
330
11E
100
AcDbEntity
  8
0
  6
Continuous
 62
     7
370
    25
100
AcDbSpline
210
0.0
220
0.0
230
1.0
 70
     8
 71
     3
 72
    12
 73
     8
 74
     0
 42
0.00000001
 43
0.00000001
 40
0.0
 40
0.0
 40
0.0
 40
0.0
 40
0.3333333333333333
 40
0.3333333333333333
 40
0.6666666666666665
 40
0.6666666666666665
 40
0.9999999999999999
 40
0.9999999999999999
 40
0.9999999999999999
 40
0.9999999999999999
 10
0.250549646985115
 20
-0.275155946
 30
0.0
 10
0.259339347464483
 20
-0.275155946
 30
0.0
 10
0.2674644767752697
 20
-0.2704649004044761
 30
0.0
 10
0.2762541772525561
 20
-0.2552406925896963
 30
0.0
 10
0.2762541772506318
 20
-0.2458586013997595
 30
0.0
 10
0.2674644767671004
 20
-0.2306343935885853
 30
0.0
 10
0.2593393474543894
 20
-0.2259433479963944
 30
0.0
 10
0.2505496469750214
 20
-0.225943348
 30
0.0
  0
SPLINE
  5
146
330
11E
100
AcDbEntity
  8
0
  6
Continuous
 62
     7
370
    25
100
AcDbSpline
210
0.0
220
0.0
230
1.0
 70
     8
 71
     3
 72
    28
 73
    24
 74
     0
 42
0.00000001
 43
0.00000001
 40
0.0
 40
0.0
 40
0.0
 40
0.0
 40
0.02087158042572
 40
0.0416983128781346
 40
0.0625698923122901
 40
0.0938478491506538
 40
0.1251258057079745
 40
0.187606002923797
 40
0.2500861999963099
 40
0.3125663970688233
 40
0.3750465950137894
 40
0.4375267922582143
 40
0.500006989615457
 40
0.5624871869726996
 40
0.624967384217125
 40
0.6874475821620912
 40
0.7499277792346041
 40
0.8124079763071174
 40
0.8748881735229396
 40
0.9061661300802605
 40
0.937444086918624
 40
0.9687220429010326
 40
1.0
 40
1.0
 40
1.0
 40
1.0
 10
0.629221245561963
 20
0.1831897657732481
 30
0.0
 10
0.6281468175906522
 20
0.1832099106478932
 30
0.0
 10
0.6260002703336207
 20
0.1832501571107251
 30
0.0
 10
0.6227929914801899
 20
0.1835778656095877
 30
0.0
 10
0.6190849661142279
 20
0.1841874108933576
 30
0.0
 10
0.6149119688880481
 20
0.1852326299265041
 30
0.0
 10
0.6088451938913547
 20
0.1874040974751709
 30
0.0
 10
0.6017027084149265
 20
0.1912200124557892
 30
0.0
 10
0.5941986965813586
 20
0.1973794306472356
 30
0.0
 10
0.5880386062322581
 20
0.2048850779743908
 30
0.0
 10
0.5834616708723119
 20
0.2134481140386041
 30
0.0
 10
0.5806431083431797
 20
0.2227395743957937
 30
0.0
 10
0.5796914164643479
 20
0.2324023637416964
 30
0.0
 10
0.5806431084444299
 20
0.2420651560025409
 30
0.0
 10
0.5834616704673097
 20
0.251356607614905
 30
0.0
 10
0.5880386077510159
 20
0.2599196757434785
 30
0.0
 10
0.5941986909113299
 20
0.2674252035580199
 30
0.0
 10
0.601702729576283
 20
0.2735850677355608
 30
0.0
 10
0.6088451315851905
 20
0.2773995953535351
 30
0.0
 10
0.6149120769491143
 20
0.2795738946729642
 30
0.0
 10
0.6196050748831465
 20
0.280740837954063
 30
0.0
 10
0.6243896866516263
 20
0.2814788914923524
 30
0.0
 10
0.6276107259060201
 20
0.2815696056181057
 30
0.0
 10
0.6292212455619629
 20
0.281614962681792
 30
0.0
  0
SPLINE
  5
147
330
11E
100
AcDbEntity
  8
0
  6
Continuous
 62
     7
370
    25
100
AcDbSpline
210
0.0
220
0.0
230
1.0
 70
     8
 71
     3
 72
    28
 73
    24
 74
     0
 42
0.00000001
 43
0.00000001
 40
0.0
 40
0.0
 40
0.0
 40
0.0
 40
0.0208715797586191
 40
0.0416983122309777
 40
0.0625698923633816
 40
0.093847848481468
 40
0.1251258057968882
 40
0.1876060017084127
 40
0.2500862000364321
 40
0.3125663971687793
 40
0.3750465944444361
 40
0.4375267921977004
 40
0.5000069896147772
 40
0.5624871870318544
 40
0.6249673847851186
 40
0.6874475820607755
 40
0.7499277791931228
 40
0.8124079775211431
 40
0.8748881734326667
 40
0.9061661307480869
 40
0.9374440868661733
 40
0.968722043643538
 40
1.0
 40
1.0
 40
1.0
 40
1.0
 10
0.629221245561963
 20
0.281614962681792
 30
0.0
 10
0.6302956734979923
 20
0.2815948178068647
 30
0.0
 10
0.6324422207198304
 20
0.2815545713428076
 30
0.0
 10
0.6356494995705847
 20
0.2812268628330307
 30
0.0
 10
0.6393575249421761
 20
0.2806173175955474
 30
0.0
 10
0.6435305221788513
 20
0.2795720984755407
 30
0.0
 10
0.6495972971583078
 20
0.277400631079901
 30
0.0
 10
0.6567397825250276
 20
0.2735847158336562
 30
0.0
 10
0.6642437945174453
 20
0.2674252978969959
 30
0.0
 10
0.6704038849495766
 20
0.2599196505396486
 30
0.0
 10
0.6749808198883898
 20
0.2513566143040781
 30
0.0
 10
0.6777993828808807
 20
0.2420651541124639
 30
0.0
 10
0.6787510746083709
 20
0.2324023647133442
 30
0.0
 10
0.677799382779631
 20
0.2227395723992792
 30
0.0
 10
0.6749808202933897
 20
0.2134481209525011
 30
0.0
 10
0.670403883430826
 20
0.2048850526525323
 30
0.0
 10
0.6642438001874476
 20
0.1973795248079428
 30
0.0
 10
0.6567397613637685
 20
0.1912196608846466
 30
0.0
 10
0.6495973594641825
 20
0.1874051330026962
 30
0.0
 10
0.6435304141182833
 20
0.1852308338328928
 30
0.0
 10
0.6388374161697875
 20
0.1840638904642949
 30
0.0
 10
0.6340528044294732
 20
0.1833258369814107
 30
0.0
 10
0.6308317651772422
 20
0.1832351228424321
 30
0.0
 10
0.6292212455619629
 20
0.183189765773248
 30
0.0
  0
LINE
  5
148
330
11E
100
AcDbEntity
  8
0
  6
Continuous
 62
     7
370
    25
100
AcDbLine
 10
0.767716535
 20
0.3740157482
 30
0.0
 11
0.767716535
 21
-0.3740157482
 31
0.0
  0
LINE
  5
149
330
11E
100
AcDbEntity
  8
0
  6
Continuous
 62
     7
370
    25
100
AcDbLine
 10
-0.767716535
 20
-0.374015748
 30
0.0
 11
0.767716535
 21
-0.374015748
 31
0.0
  0
LINE
  5
14A
330
11E
100
AcDbEntity
  8
0
  6
Continuous
 62
     7
370
    25
100
AcDbLine
 10
-0.767716535
 20
0.374015748
 30
0.0
 11
-0.767716535
 21
-0.374015748
 31
0.0
  0
LINE
  5
14B
330
11E
100
AcDbEntity
  8
0
  6
Continuous
 62
     7
370
    25
100
AcDbLine
 10
0.767716535
 20
0.374015748
 30
0.0
 11
-0.767716535
 21
0.374015748
 31
0.0
  0
LINE
  5
14C
330
11E
100
AcDbEntity
  8
0
  6
Continuous
 62
     7
370
    25
100
AcDbLine
 10
-0.7677165364
 20
-0.374015748
 30
0.0
 11
-0.7874015747
 21
-0.393700787
 31
0.0
  0
LINE
  5
14D
330
11E
100
AcDbEntity
  8
0
  6
Continuous
 62
     7
370
    25
100
AcDbLine
 10
-0.787401575
 20
-0.393700787
 30
0.0
 11
-0.787401575
 21
0.393700787
 31
0.0
  0
LINE
  5
14E
330
11E
100
AcDbEntity
  8
0
  6
Continuous
 62
     7
370
    25
100
AcDbLine
 10
-0.7874015747
 20
0.393700787
 30
0.0
 11
-0.7677165364
 21
0.374015748
 31
0.0
  0
LINE
  5
14F
330
11E
100
AcDbEntity
  8
0
  6
Continuous
 62
     7
370
    25
100
AcDbLine
 10
0.787401575
 20
0.3937007874
 30
0.0
 11
0.767716535
 21
0.3740157482
 31
0.0
  0
LINE
  5
150
330
11E
100
AcDbEntity
  8
0
  6
Continuous
 62
     7
370
    25
100
AcDbLine
 10
0.787401575
 20
-0.3937007874
 30
0.0
 11
0.787401575
 21
0.3937007874
 31
0.0
  0
LINE
  5
151
330
11E
100
AcDbEntity
  8
0
  6
Continuous
 62
     7
370
    25
100
AcDbLine
 10
0.767716535
 20
-0.3740157482
 30
0.0
 11
0.787401575
 21
-0.3937007874
 31
0.0
  0
LINE
  5
152
330
11E
100
AcDbEntity
  8
0
  6
Continuous
 62
     7
370
    25
100
AcDbLine
 10
-0.787401575
 20
0.393700787
 30
0.0
 11
0.787401575
 21
0.393700787
 31
0.0
  0
LINE
  5
153
330
11E
100
AcDbEntity
  8
0
  6
Continuous
 62
     7
370
    25
100
AcDbLine
 10
0.787401575
 20
-0.393700787
 30
0.0
 11
-0.787401575
 21
-0.393700787
 31
0.0
  0
VIEWPORT
  5
25D
330
11E
100
AcDbEntity
  8
0
100
AcDbViewport
 10
0.0
 20
0.0
 30
0.0
 40
8.4
 41
6.4
 68
     1
 69
     1
 12
0.0000000001
 22
-0.0068491622
 13
0.0
 23
0.0
 14
0.5
 24
0.5
 15
0.5
 25
0.5
 16
0.0
 26
0.0
 36
1.0
 17
0.0
 27
0.0
 37
0.0
 42
50.0
 43
0.0
 44
0.0
 45
1.3679743623
 50
0.0
 51
0.0
 72
   100
 90
   557152
  1

281
     0
 71
     1
 74
     0
110
0.0
120
0.0
130
0.0
111
1.0
121
0.0
131
0.0
112
0.0
122
1.0
132
0.0
 79
     0
146
0.0
  0
ENDBLK
  5
121
330
11E
100
AcDbEntity
  8
0
100
AcDbBlockEnd
  0
BLOCK
  5
156
330
154
100
AcDbEntity
  8
0
100
AcDbBlockBegin
  2
*Paper_Space4
 70
     0
 10
0.0
 20
0.0
 30
0.0
  3
*Paper_Space4
  1

  0
SPLINE
  5
158
330
154
100
AcDbEntity
  8
0
  6
Continuous
 62
     7
370
    25
100
AcDbSpline
210
0.0
220
0.0
230
1.0
 70
     8
 71
     3
 72
    10
 73
     6
 74
     0
 42
0.00000001
 43
0.00000001
 40
0.0
 40
0.0
 40
0.0
 40
0.0
 40
0.5
 40
0.5
 40
1.0
 40
1.0
 40
1.0
 40
1.0
 10
0.761001574985115
 20
0.3372992129938469
 30
0.0
 10
0.7610015749867469
 20
0.3452554825149177
 30
0.0
 10
0.7578407105536069
 20
0.352886484301547
 30
0.0
 10
0.7465888462921669
 20
0.3641383485652949
 30
0.0
 10
0.7389578445061858
 20
0.367299213
 30
0.0
 10
0.7310015749851151
 20
0.367299213
 30
0.0
  0
SPLINE
  5
15A
330
154
100
AcDbEntity
  8
0
  6
Continuous
 62
     7
370
    25
100
AcDbSpline
210
0.0
220
0.0
230
1.0
 70
     8
 71
     3
 72
    10
 73
     6
 74
     0
 42
0.00000001
 43
0.00000001
 40
0.0
 40
0.0
 40
0.0
 40
0.0
 40
0.5
 40
0.5
 40
1.0
 40
1.0
 40
1.0
 40
1.0
 10
0.7310015749728089
 20
-0.3677007869999999
 30
0.0
 10
0.7389578444938797
 20
-0.3677007870032636
 30
0.0
 10
0.7465888462811573
 20
-0.3645399225716888
 30
0.0
 10
0.757840710547213
 20
-0.3532880583125566
 30
0.0
 10
0.7610015749834831
 20
-0.3456570565272238
 30
0.0
 10
0.761001574985115
 20
-0.337700787006153
 30
0.0
  0
SPLINE
  5
15C
330
154
100
AcDbEntity
  8
0
  6
Continuous
 62
     7
370
    25
100
AcDbSpline
210
0.0
220
0.0
230
1.0
 70
     8
 71
     3
 72
    10
 73
     6
 74
     0
 42
0.00000001
 43
0.00000001
 40
0.0
 40
0.0
 40
0.0
 40
0.0
 40
0.5
 40
0.5
 40
1.0
 40
1.0
 40
1.0
 40
1.0
 10
-0.760998425014885
 20
-0.3377007870115407
 30
0.0
 10
-0.7609984250118245
 20
-0.345657056527402
 30
0.0
 10
-0.7578375605782937
 20
-0.3532880583076406
 30
0.0
 10
-0.7465856963232106
 20
-0.3645399225630108
 30
0.0
 10
-0.7389546945430525
 20
-0.3677007869967363
 30
0.0
 10
-0.7309984250271913
 20
-0.3677007869999999
 30
0.0
  0
SPLINE
  5
15E
330
154
100
AcDbEntity
  8
0
  6
Continuous
 62
     7
370
    25
100
AcDbSpline
210
0.0
220
0.0
230
1.0
 70
     8
 71
     3
 72
    10
 73
     6
 74
     0
 42
0.00000001
 43
0.00000001
 40
0.0
 40
0.0
 40
0.0
 40
0.0
 40
0.4999999999999997
 40
0.4999999999999997
 40
1.0
 40
1.0
 40
1.0
 40
1.0
 10
-0.7309984250202727
 20
0.367299213
 30
0.0
 10
-0.7389546945413435
 20
0.3672992129985712
 30
0.0
 10
-0.746585696326757
 20
0.3641383485624957
 30
0.0
 10
-0.7578375605861762
 20
0.3528864842967271
 30
0.0
 10
-0.7609984250179458
 20
0.3452554825095301
 30
0.0
 10
-0.7609984250148851
 20
0.3372992129884593
 30
0.0
  0
SPLINE
  5
160
330
154
100
AcDbEntity
  8
0
  6
Continuous
 62
     7
370
    25
100
AcDbSpline
210
0.0
220
0.0
230
1.0
 70
     8
 71
     3
 72
    10
 73
     6
 74
     0
 42
0.00000001
 43
0.00000001
 40
0.0
 40
0.0
 40
0.0
 40
0.0
 40
0.5
 40
0.5
 40
1.0
 40
1.0
 40
1.0
 40
1.0
 10
0.539598424985115
 20
0.135299212997949
 30
0.0
 10
0.539598424985659
 20
0.1379513028383059
 30
0.0
 10
0.5385448035079456
 20
0.1404949701005157
 30
0.0
 10
0.5347941820874657
 20
0.144245591521765
 30
0.0
 10
0.532250514825472
 20
0.145299213
 30
0.0
 10
0.529598424985115
 20
0.145299213
 30
0.0
  0
SPLINE
  5
162
330
154
100
AcDbEntity
  8
0
  6
Continuous
 62
     7
370
    25
100
AcDbSpline
210
0.0
220
0.0
230
1.0
 70
     8
 71
     3
 72
    10
 73
     6
 74
     0
 42
0.00000001
 43
0.00000001
 40
0.0
 40
0.0
 40
0.0
 40
0.0
 40
0.5
 40
0.5
 40
1.0
 40
1.0
 40
1.0
 40
1.0
 10
-0.529401575016681
 20
0.145299213
 30
0.0
 10
-0.5320536648570379
 20
0.1452992129995238
 30
0.0
 10
-0.5345973321188423
 20
0.1442455915208319
 30
0.0
 10
-0.5383479535386488
 20
0.1404949700989091
 30
0.0
 10
-0.5394015750159052
 20
0.1379513028365101
 30
0.0
 10
-0.5394015750148851
 20
0.1352992129961531
 30
0.0
  0
SPLINE
  5
164
330
154
100
AcDbEntity
  8
0
  6
Continuous
 62
     7
370
    25
100
AcDbSpline
210
0.0
220
0.0
230
1.0
 70
     8
 71
     3
 72
    10
 73
     6
 74
     0
 42
0.00000001
 43
0.00000001
 40
0.0
 40
0.0
 40
0.0
 40
0.0
 40
0.4999999999999998
 40
0.4999999999999998
 40
1.0
 40
1.0
 40
1.0
 40
1.0
 10
-0.5394015750148851
 20
-0.1357007870038469
 30
0.0
 10
-0.5394015750138648
 20
-0.1383528768424673
 30
0.0
 10
-0.5383479535360213
 20
-0.1408965441025468
 30
0.0
 10
-0.5345973321176603
 20
-0.1446471655210036
 30
0.0
 10
-0.5320536648576075
 20
-0.145700786998912
 30
0.0
 10
-0.5294015750189871
 20
-0.1457007869999999
 30
0.0
  0
SPLINE
  5
166
330
154
100
AcDbEntity
  8
0
  6
Continuous
 62
     7
370
    25
100
AcDbSpline
210
0.0
220
0.0
230
1.0
 70
     8
 71
     3
 72
    10
 73
     6
 74
     0
 42
0.00000001
 43
0.00000001
 40
0.0
 40
0.0
 40
0.0
 40
0.0
 40
0.5000000000000001
 40
0.5000000000000001
 40
1.0
 40
1.0
 40
1.0
 40
1.0
 10
0.529598424981013
 20
-0.145700787
 30
0.0
 10
0.5322505148213699
 20
-0.1457007870010879
 30
0.0
 10
0.5347941820837958
 20
-0.1446471655238963
 30
0.0
 10
0.5385448035058144
 20
-0.1408965441041855
 30
0.0
 10
0.5395984249845711
 20
-0.1383528768424079
 30
0.0
 10
0.5395984249851151
 20
-0.135700787002051
 30
0.0
  0
SPLINE
  5
16C
330
154
100
AcDbEntity
  8
0
  6
Continuous
 62
     7
370
    25
100
AcDbSpline
210
0.0
220
0.0
230
1.0
 70
     8
 71
     3
 72
    21
 73
    17
 74
     0
 42
0.00000001
 43
0.00000001
 40
0.0
 40
0.0
 40
0.0
 40
0.0
 40
0.0313149866552251
 40
0.0625543506622777
 40
0.0937937144004568
 40
0.1251087002510101
 40
0.1876441896842765
 40
0.2501796753406058
 40
0.3750992716113805
 40
0.5000188639755359
 40
0.6249384564964023
 40
0.7498580484805316
 40
0.8123935366379843
 40
0.8749290244718363
 40
0.9374645122334861
 40
1.0
 40
1.0
 40
1.0
 40
1.0
 10
-0.3939015746158851
 20
-0.125200787115
 30
0.0
 10
-0.3959493728445725
 20
-0.1251719938061149
 30
0.0
 10
-0.4000400240683225
 20
-0.1251144767213862
 30
0.0
 10
-0.4061587682578901
 20
-0.1246469020445904
 30
0.0
 10
-0.4122480387580762
 20
-0.123899652185217
 30
0.0
 10
-0.4203091244688116
 20
-0.122498129314792
 30
0.0
 10
-0.4302472697133637
 20
-0.1200128721575199
 30
0.0
 10
-0.4456566664622078
 20
-0.1144958059850451
 30
0.0
 10
-0.4637987139175537
 20
-0.1048043743342075
 30
0.0
 10
-0.4828587368661899
 20
-0.0891581597167911
 30
0.0
 10
-0.4985058744306964
 20
-0.0700977943342324
 30
0.0
 10
-0.5081945129391243
 20
-0.0519561192404402
 30
0.0
 10
-0.5137172681253845
 20
-0.0365460748476448
 30
0.0
 10
-0.5166812971846648
 20
-0.02462586066421
 30
0.0
 10
-0.5185559547736852
 20
-0.0124729465581876
 30
0.0
 10
-0.5187863684231487
 20
-0.0042915068528352
 30
0.0
 10
-0.518901575247885
 20
-0.000200787
 30
0.0
  0
SPLINE
  5
16E
330
154
100
AcDbEntity
  8
0
  6
Continuous
 62
     7
370
    25
100
AcDbSpline
210
0.0
220
0.0
230
1.0
 70
     8
 71
     3
 72
    21
 73
    17
 74
     0
 42
0.00000001
 43
0.00000001
 40
0.0
 40
0.0
 40
0.0
 40
0.0
 40
0.031314986432177
 40
0.0625543504930951
 40
0.0937937145527961
 40
0.1251087009813304
 40
0.1876441888155007
 40
0.2501796769732714
 40
0.3750992689580368
 40
0.5000188614795393
 40
0.6249384538443307
 40
0.7498580501157409
 40
0.8123935357723886
 40
0.8749290252059736
 40
0.9374645120657281
 40
1.0
 40
1.0
 40
1.0
 40
1.0
 10
0.519098425218115
 20
-0.000200787
 30
0.0
 10
0.5190696319099852
 20
-0.0022485852139882
 30
0.0
 10
0.5190121148265112
 20
-0.0063392364264481
 30
0.0
 10
0.5185445401749006
 20
-0.012457980628273
 30
0.0
 10
0.5177972903314824
 20
-0.0185472511907524
 30
0.0
 10
0.5163957676502537
 20
-0.0266083368930994
 30
0.0
 10
0.51391050998752
 20
-0.0365464821149979
 30
0.0
 10
0.50839344394025
 20
-0.0519558786632174
 30
0.0
 10
0.4987020119244683
 20
-0.0700979257998361
 30
0.0
 10
0.4830557978221546
 20
-0.0891579487319844
 30
0.0
 10
0.4639954324212986
 20
-0.104805086807839
 30
0.0
 10
0.4458537570116755
 20
-0.1144937249622927
 30
0.0
 10
0.4304437124128083
 20
-0.1200164802512974
 30
0.0
 10
0.4185234982206493
 20
-0.122980508771886
 30
0.0
 10
0.4063705841176308
 20
-0.1248551666732258
 30
0.0
 10
0.3981891444533833
 20
-0.1250855803004154
 30
0.0
 10
0.394098424586115
 20
-0.125200787115
 30
0.0
  0
SPLINE
  5
16F
330
154
100
AcDbEntity
  8
0
  6
Continuous
 62
     7
370
    25
100
AcDbSpline
210
0.0
220
0.0
230
1.0
 70
     8
 71
     3
 72
    21
 73
    17
 74
     0
 42
0.00000001
 43
0.00000001
 40
0.0
 40
0.0
 40
0.0
 40
0.0
 40
0.0313149866552258
 40
0.0625543506622777
 40
0.0937937144004568
 40
0.1251087002510098
 40
0.1876441896842761
 40
0.2501796753406058
 40
0.3750992716113802
 40
0.5000188639755355
 40
0.6249384564964021
 40
0.7498580484805317
 40
0.8123935366379843
 40
0.8749290244718361
 40
0.9374645122334861
 40
1.0
 40
1.0
 40
1.0
 40
1.0
 10
0.394098424586115
 20
0.124799213115
 30
0.0
 10
0.3961462228148026
 20
0.124770419806115
 30
0.0
 10
0.4002368740385525
 20
0.1247129027213863
 30
0.0
 10
0.4063556182281197
 20
0.1242453280445905
 30
0.0
 10
0.4124448887283061
 20
0.123498078185217
 30
0.0
 10
0.4205059744390415
 20
0.1220965553147921
 30
0.0
 10
0.4304441196835935
 20
0.11961129815752
 30
0.0
 10
0.4458535164324378
 20
0.1140942319850452
 30
0.0
 10
0.4639955638877835
 20
0.1044028003342075
 30
0.0
 10
0.4830555868364197
 20
0.0887565857167913
 30
0.0
 10
0.4987027244009263
 20
0.0696962203342325
 30
0.0
 10
0.5083913629093544
 20
0.0515545452404404
 30
0.0
 10
0.5139141180956146
 20
0.0361445008476449
 30
0.0
 10
0.5168781471548947
 20
0.02422428666421
 30
0.0
 10
0.5187528047439149
 20
0.0120713725581877
 30
0.0
 10
0.5189832183933787
 20
0.0038899328528353
 30
0.0
 10
0.519098425218115
 20
-0.000200787
 30
0.0
  0
SPLINE
  5
171
330
154
100
AcDbEntity
  8
0
  6
Continuous
 62
     7
370
    25
100
AcDbSpline
210
0.0
220
0.0
230
1.0
 70
     8
 71
     3
 72
    21
 73
    17
 74
     0
 42
0.00000001
 43
0.00000001
 40
0.0
 40
0.0
 40
0.0
 40
0.0
 40
0.0313149864321769
 40
0.062554350493095
 40
0.0937937145527962
 40
0.1251087009813305
 40
0.1876441888155008
 40
0.2501796769732715
 40
0.375099268958037
 40
0.5000188614795392
 40
0.6249384538443307
 40
0.749858050115741
 40
0.8123935357723887
 40
0.8749290252059736
 40
0.9374645120657281
 40
1.0
 40
1.0
 40
1.0
 40
1.0
 10
-0.518901575247885
 20
-0.000200787
 30
0.0
 10
-0.5188727819397553
 20
0.0018470112139882
 30
0.0
 10
-0.5188152648562816
 20
0.0059376624264482
 30
0.0
 10
-0.5183476902046708
 20
0.0120564066282731
 30
0.0
 10
-0.5176004403612524
 20
0.0181456771907525
 30
0.0
 10
-0.5161989176800238
 20
0.0262067628930994
 30
0.0
 10
-0.5137136600172901
 20
0.036144908114998
 30
0.0
 10
-0.50819659397002
 20
0.0515543046632174
 30
0.0
 10
-0.4985051619542383
 20
0.0696963517998362
 30
0.0
 10
-0.4828589478519248
 20
0.0887563747319845
 30
0.0
 10
-0.4637985824510685
 20
0.104403512807839
 30
0.0
 10
-0.4456569070414458
 20
0.1140921509622928
 30
0.0
 10
-0.4302468624425783
 20
0.1196149062512975
 30
0.0
 10
-0.4183266482504195
 20
0.1225789347718861
 30
0.0
 10
-0.406173734147401
 20
0.1244535926732258
 30
0.0
 10
-0.3979922944831533
 20
0.1246840063004155
 30
0.0
 10
-0.3939015746158851
 20
0.124799213115
 30
0.0
  0
SPLINE
  5
172
330
154
100
AcDbEntity
  8
0
  6
Continuous
 62
     7
370
    25
100
AcDbSpline
210
0.0
220
0.0
230
1.0
 70
     8
 71
     3
 72
    27
 73
    23
 74
     0
 42
0.00000001
 43
0.00000001
 40
0.0
 40
0.0
 40
0.0
 40
0.0
 40
0.0312783930091729
 40
0.0625567873582349
 40
0.0938351819182544
 40
0.1251135757139119
 40
0.1875946474469838
 40
0.2500757175466423
 40
0.3125567888686995
 40
0.3750378578002277
 40
0.4375189301314799
 40
0.499999999234423
 40
0.56248107016842
 40
0.6249621424996723
 40
0.6874432114312001
 40
0.749924282753258
 40
0.812405351685687
 40
0.8748864242860885
 40
0.9061648180817455
 40
0.9374432126417651
 40
0.9687216069908281
 40
1.0
 40
1.0
 40
1.0
 40
1.0
 10
0.393999999952763
 20
0.0433070870000001
 30
0.0
 10
0.3954172571884063
 20
0.0432671727820458
 30
0.0
 10
0.3982517717204049
 20
0.0431873443444275
 30
0.0
 10
0.4024622300984787
 20
0.0425378573323863
 30
0.0
 10
0.4065920683794375
 20
0.0415109473119275
 30
0.0
 10
0.4119309802839907
 20
0.0395975636872752
 30
0.0
 10
0.418216294273378
 20
0.0362407797273266
 30
0.0
 10
0.4248198481082656
 20
0.0308200988975653
 30
0.0
 10
0.4302407213167804
 20
0.0242152345394001
 30
0.0
 10
0.4342684256295686
 20
0.0166797343962668
 30
0.0
 10
0.4367487607549091
 20
0.0085032571150503
 30
0.0
 10
0.4375862492676778
 20
0.0000000004176225
 30
0.0
 10
0.4367487607781307
 20
-0.0085032562839286
 30
0.0
 10
0.4342684256337572
 20
-0.0166797336518471
 30
0.0
 10
0.4302407213010339
 20
-0.0242152337683275
 30
0.0
 10
0.4248198482008205
 20
-0.030820098185146
 30
0.0
 10
0.4182162941092995
 20
-0.0362407786448181
 30
0.0
 10
0.4119309803440712
 20
-0.0395975629633605
 30
0.0
 10
0.4065920683750953
 20
-0.0415109465545116
 30
0.0
 10
0.4024622300996366
 20
-0.0425378565843638
 30
0.0
 10
0.3982517717201155
 20
-0.043187343593933
 30
0.0
 10
0.3954172571883098
 20
-0.0432671720318809
 30
0.0
 10
0.393999999952763
 20
-0.04330708625
 30
0.0
  0
SPLINE
  5
173
330
154
100
AcDbEntity
  8
0
  6
Continuous
 62
     7
370
    25
100
AcDbSpline
210
0.0
220
0.0
230
1.0
 70
     8
 71
     3
 72
    27
 73
    23
 74
     0
 42
0.00000001
 43
0.00000001
 40
0.0
 40
0.0
 40
0.0
 40
0.0
 40
0.0312783930091734
 40
0.0625567873582354
 40
0.0938351819182555
 40
0.1251135757139114
 40
0.1875946483143126
 40
0.2500757172467432
 40
0.3125567885687991
 40
0.375037857500328
 40
0.4375189298315802
 40
0.5000000007655772
 40
0.5624810698685201
 40
0.6249621421997724
 40
0.6874432111313006
 40
0.7499242824533572
 40
0.8124053525530165
 40
0.8748864242860889
 40
0.9061648180817454
 40
0.937443212641765
 40
0.9687216069908275
 40
0.9999999999999999
 40
0.9999999999999999
 40
0.9999999999999999
 40
0.9999999999999999
 10
0.393999999952763
 20
-0.04330708625
 30
0.0
 10
0.392582742717216
 20
-0.0432671720318809
 30
0.0
 10
0.3897482281854104
 20
-0.043187343593933
 30
0.0
 10
0.3855377698058892
 20
-0.0425378565843638
 30
0.0
 10
0.3814079315304308
 20
-0.0415109465545116
 30
0.0
 10
0.3760690195614547
 20
-0.0395975629633606
 30
0.0
 10
0.3697837057962264
 20
-0.0362407786448179
 30
0.0
 10
0.3631801517047056
 20
-0.0308200981851462
 30
0.0
 10
0.3577592786044923
 20
-0.0242152337683273
 30
0.0
 10
0.3537315742717687
 20
-0.0166797336518472
 30
0.0
 10
0.3512512391273954
 20
-0.0085032562839286
 30
0.0
 10
0.3504137506378482
 20
0.0000000004176225
 30
0.0
 10
0.3512512391506168
 20
0.0085032571150504
 30
0.0
 10
0.3537315742759574
 20
0.0166797343962668
 30
0.0
 10
0.3577592785887455
 20
0.0242152345394001
 30
0.0
 10
0.3631801517972602
 20
0.0308200988975653
 30
0.0
 10
0.369783705632148
 20
0.0362407797273266
 30
0.0
 10
0.3760690196215352
 20
0.0395975636872751
 30
0.0
 10
0.3814079315260883
 20
0.0415109473119275
 30
0.0
 10
0.3855377698070472
 20
0.0425378573323863
 30
0.0
 10
0.3897482281851211
 20
0.0431873443444275
 30
0.0
 10
0.3925827427171196
 20
0.0432671727820458
 30
0.0
 10
0.393999999952763
 20
0.0433070870000001
 30
0.0
  0
LINE
  5
174
330
154
100
AcDbEntity
  8
0
  6
Continuous
 62
     7
370
    25
100
AcDbLine
 10
0.761001575
 20
0.337299213
 30
0.0
 11
0.761001575
 21
-0.337700787
 31
0.0
  0
LINE
  5
175
330
154
100
AcDbEntity
  8
0
  6
Continuous
 62
     7
370
    25
100
AcDbLine
 10
0.731001575
 20
-0.367700787
 30
0.0
 11
-0.730998425
 21
-0.367700787
 31
0.0
  0
LINE
  5
176
330
154
100
AcDbEntity
  8
0
  6
Continuous
 62
     7
370
    25
100
AcDbLine
 10
-0.760998425
 20
-0.337700787
 30
0.0
 11
-0.760998425
 21
0.337299213
 31
0.0
  0
LINE
  5
177
330
154
100
AcDbEntity
  8
0
  6
Continuous
 62
     7
370
    25
100
AcDbLine
 10
-0.730998425
 20
0.367299213
 30
0.0
 11
0.731001575
 21
0.367299213
 31
0.0
  0
LINE
  5
178
330
154
100
AcDbEntity
  8
0
  6
Continuous
 62
     7
370
    25
100
AcDbLine
 10
0.529598425
 20
0.145299213
 30
0.0
 11
-0.529401575
 21
0.145299213
 31
0.0
  0
LINE
  5
179
330
154
100
AcDbEntity
  8
0
  6
Continuous
 62
     7
370
    25
100
AcDbLine
 10
-0.539401575
 20
0.135299213
 30
0.0
 11
-0.539401575
 21
-0.135700787
 31
0.0
  0
LINE
  5
17A
330
154
100
AcDbEntity
  8
0
  6
Continuous
 62
     7
370
    25
100
AcDbLine
 10
-0.529401575
 20
-0.145700787
 30
0.0
 11
0.529598425
 21
-0.145700787
 31
0.0
  0
LINE
  5
17B
330
154
100
AcDbEntity
  8
0
  6
Continuous
 62
     7
370
    25
100
AcDbLine
 10
0.539598425
 20
-0.135700787
 30
0.0
 11
0.539598425
 21
0.135299213
 31
0.0
  0
LINE
  5
17C
330
154
100
AcDbEntity
  8
0
  6
Continuous
 62
     7
370
    25
100
AcDbLine
 10
0.787401575
 20
-0.393700787
 30
0.0
 11
0.787401575
 21
0.393700787
 31
0.0
  0
LINE
  5
17D
330
154
100
AcDbEntity
  8
0
  6
Continuous
 62
     7
370
    25
100
AcDbLine
 10
-0.787401575
 20
-0.393700787
 30
0.0
 11
0.787401575
 21
-0.393700787
 31
0.0
  0
LINE
  5
17E
330
154
100
AcDbEntity
  8
0
  6
Continuous
 62
     7
370
    25
100
AcDbLine
 10
-0.787401575
 20
0.393700787
 30
0.0
 11
-0.787401575
 21
-0.393700787
 31
0.0
  0
LINE
  5
17F
330
154
100
AcDbEntity
  8
0
  6
Continuous
 62
     7
370
    25
100
AcDbLine
 10
0.787401575
 20
0.393700787
 30
0.0
 11
-0.787401575
 21
0.393700787
 31
0.0
  0
LINE
  5
180
330
154
100
AcDbEntity
  8
0
  6
Continuous
 62
     7
370
    25
100
AcDbLine
 10
0.3940984246
 20
-0.1252007871
 30
0.0
 11
-0.3939015746
 21
-0.1252007871
 31
0.0
  0
LINE
  5
181
330
154
100
AcDbEntity
  8
0
  6
Continuous
 62
     7
370
    25
100
AcDbLine
 10
-0.3939015746
 20
0.1247992131
 30
0.0
 11
0.3940984246
 21
0.1247992131
 31
0.0
  0
VIEWPORT
  5
25F
330
154
100
AcDbEntity
  8
0
100
AcDbViewport
 10
0.0
 20
0.0
 30
0.0
 40
8.4
 41
6.4
 68
     1
 69
     1
 12
0.0000000001
 22
-0.0068491622
 13
0.0
 23
0.0
 14
0.5
 24
0.5
 15
0.5
 25
0.5
 16
0.0
 26
0.0
 36
1.0
 17
0.0
 27
0.0
 37
0.0
 42
50.0
 43
0.0
 44
0.0
 45
1.3679743623
 50
0.0
 51
0.0
 72
   100
 90
   557152
  1

281
     0
 71
     1
 74
     0
110
0.0
120
0.0
130
0.0
111
1.0
121
0.0
131
0.0
112
0.0
122
1.0
132
0.0
 79
     0
146
0.0
  0
ENDBLK
  5
157
330
154
100
AcDbEntity
  8
0
100
AcDbBlockEnd
  0
BLOCK
  5
184
330
182
100
AcDbEntity
  8
0
100
AcDbBlockBegin
  2
*Paper_Space5
 70
     0
 10
0.0
 20
0.0
 30
0.0
  3
*Paper_Space5
  1

  0
SPLINE
  5
18F
330
182
100
AcDbEntity
  8
0
  6
Continuous
 62
     7
370
    25
100
AcDbSpline
210
0.0
220
0.0
230
1.0
 70
     8
 71
     3
 72
    33
 73
    29
 74
     0
 42
0.00000001
 43
0.00000001
 40
0.0
 40
0.0
 40
0.0
 40
0.0
 40
0.0125326067531856
 40
0.0250361822953101
 40
0.0375300657498707
 40
0.0500336412123375
 40
0.0625662478065768
 40
0.0938388079043408
 40
0.1251113680193449
 40
0.1563839278965199
 40
0.1876564873384955
 40
0.2501259052265496
 40
0.3125953222159227
 40
0.3750647407286645
 40
0.4375341572117584
 40
0.5000035755495185
 40
0.5624729938872786
 40
0.6249424103703726
 40
0.6874118288831146
 40
0.7498812458724875
 40
0.8123506637605417
 40
0.8436232232025174
 40
0.8748957830796923
 40
0.9061683431946965
 40
0.9374409032924604
 40
0.9583088819902795
 40
0.9791320210812137
 40
1.0
 40
1.0
 40
1.0
 40
1.0
 10
0.1804163653845938
 20
0.0887315051952532
 30
0.0
 10
0.1780244461851501
 20
0.0873813980049196
 30
0.0
 10
0.1732461485578267
 20
0.0846843110858866
 30
0.0
 10
0.1657421221887725
 20
0.080850783192138
 30
0.0
 10
0.1580075211396143
 20
0.0771819748549505
 30
0.0
 10
0.1500170026209837
 20
0.0736923240384757
 30
0.0
 10
0.1376848250032539
 20
0.0687314799928799
 30
0.0
 10
0.1204708093847205
 20
0.062770327645201
 30
0.0
 10
0.0977971454025437
 20
0.0565851118341742
 30
0.0
 10
0.0741844098893539
 20
0.0517031027456305
 30
0.0
 10
0.0417747596982387
 20
0.0470200364474071
 30
0.0
 10
-0.0000056417539266
 20
0.0446391027495564
 30
0.0
 10
-0.0500961217194873
 20
0.0474896868605776
 30
0.0
 10
-0.098270449582226
 20
0.0559249839665661
 30
0.0
 10
-0.1426658789887456
 20
0.0696242540838068
 30
0.0
 10
-0.1815794089580971
 20
0.0880600943443655
 30
0.0
 10
-0.2135146817497023
 20
0.1105243972491194
 30
0.0
 10
-0.2372450831309918
 20
0.1361533325441003
 30
0.0
 10
-0.2518570359114129
 20
0.1639637821343217
 30
0.0
 10
-0.256794903656417
 20
0.1928803929767429
 30
0.0
 10
-0.2526706326658307
 20
0.2169997293965527
 30
0.0
 10
-0.2445582938366161
 20
0.2357093731054236
 30
0.0
 10
-0.2361019513660113
 20
0.249340865176629
 30
0.0
 10
-0.225385949296154
 20
0.2624295295855174
 30
0.0
 10
-0.213919123707436
 20
0.2734721255507548
 30
0.0
 10
-0.2025599431009995
 20
0.2826099033931732
 30
0.0
 10
-0.1920032555587326
 20
0.2900912068149291
 30
0.0
 10
-0.1842814304472264
 20
0.2947192809266628
 30
0.0
 10
-0.1804163653845937
 20
0.2970358067865768
 30
0.0
  0
SPLINE
  5
190
330
182
100
AcDbEntity
  8
0
  6
Continuous
 62
     7
370
    25
100
AcDbSpline
210
0.0
220
0.0
230
1.0
 70
     8
 71
     3
 72
    33
 73
    29
 74
     0
 42
0.00000001
 43
0.00000001
 40
0.0
 40
0.0
 40
0.0
 40
0.0
 40
0.0125326067531859
 40
0.0250361822953101
 40
0.0375300657498708
 40
0.0500336412123374
 40
0.0625662478065767
 40
0.0938388079043405
 40
0.125111368019345
 40
0.1563839278965198
 40
0.1876564873384955
 40
0.2501259052265496
 40
0.3125953222159225
 40
0.3750647407286646
 40
0.4375341572117585
 40
0.5000035755495186
 40
0.5624729938872787
 40
0.6249424103703726
 40
0.6874118288831144
 40
0.7498812458724875
 40
0.8123506637605417
 40
0.8436232232025173
 40
0.8748957830796921
 40
0.9061683431946964
 40
0.9374409032924603
 40
0.9583088819902793
 40
0.9791320210812137
 40
1.0
 40
1.0
 40
1.0
 40
1.0
 10
-0.1804163653845937
 20
0.2970358067865768
 30
0.0
 10
-0.17802444618515
 20
0.2983859139769104
 30
0.0
 10
-0.1732461485578265
 20
0.3010830008959435
 30
0.0
 10
-0.1657421221887723
 20
0.3049165287896921
 30
0.0
 10
-0.1580075211396142
 20
0.3085853371268795
 30
0.0
 10
-0.1500170026209837
 20
0.3120749879433544
 30
0.0
 10
-0.1376848250032539
 20
0.3170358319889501
 30
0.0
 10
-0.1204708093847207
 20
0.322996984336629
 30
0.0
 10
-0.0977971454025437
 20
0.3291822001476559
 30
0.0
 10
-0.0741844098893541
 20
0.3340642092361997
 30
0.0
 10
-0.0417747596982387
 20
0.338747275534423
 30
0.0
 10
0.0000056417539264
 20
0.3411282092322737
 30
0.0
 10
0.0500961217194874
 20
0.3382776251212525
 30
0.0
 10
0.0982704495822259
 20
0.3298423280152641
 30
0.0
 10
0.1426658789887456
 20
0.3161430578980232
 30
0.0
 10
0.1815794089580972
 20
0.2977072176374645
 30
0.0
 10
0.2135146817497022
 20
0.2752429147327107
 30
0.0
 10
0.2372450831309919
 20
0.2496139794377298
 30
0.0
 10
0.2518570359114127
 20
0.2218035298475086
 30
0.0
 10
0.2567949036564169
 20
0.1928869190050871
 30
0.0
 10
0.2526706326658311
 20
0.1687675825852775
 30
0.0
 10
0.2445582938366158
 20
0.1500579388764067
 30
0.0
 10
0.2361019513660113
 20
0.1364264468052011
 30
0.0
 10
0.225385949296154
 20
0.1233377823963128
 30
0.0
 10
0.2139191237074361
 20
0.1122951864310752
 30
0.0
 10
0.2025599431009993
 20
0.1031574085886569
 30
0.0
 10
0.1920032555587327
 20
0.0956761051669011
 30
0.0
 10
0.1842814304472264
 20
0.0910480310551672
 30
0.0
 10
0.1804163653845938
 20
0.0887315051952532
 30
0.0
  0
SPLINE
  5
191
330
182
100
AcDbEntity
  8
0
  6
Continuous
 62
     7
370
    25
100
AcDbSpline
210
0.0
220
0.0
230
1.0
 70
     8
 71
     3
 72
    25
 73
    21
 74
     0
 42
0.00000001
 43
0.00000001
 40
0.0
 40
0.0
 40
0.0
 40
0.0
 40
0.0312831329788903
 40
0.0625662572676009
 40
0.1250567951293662
 40
0.1875473362123356
 40
0.2500378674090636
 40
0.3125283968556399
 40
0.3750189285896849
 40
0.4375094677711663
 40
0.4999999973155621
 40
0.5624905335572163
 40
0.6249810662988114
 40
0.6874716039678896
 40
0.749962133414466
 40
0.8124526646111945
 40
0.8749432056941635
 40
0.9374337435559289
 40
0.9687168671034627
 40
1.0
 40
1.0
 40
1.0
 40
1.0
 10
0.3292757437117997
 20
0.1784197326716922
 30
0.0
 10
0.3284789662341738
 20
0.1789064924785019
 30
0.0
 10
0.3268854115002597
 20
0.179880011956904
 30
0.0
 10
0.3241387147492211
 20
0.1820411794317956
 30
0.0
 10
0.3213810734728387
 20
0.1850045188946244
 30
0.0
 10
0.3193551842049395
 20
0.1888675747009516
 30
0.0
 10
0.3186690335143507
 20
0.19288359458558
 30
0.0
 10
0.3193545078965516
 20
0.1968999839955642
 30
0.0
 10
0.3213837834552784
 20
0.2007619301401658
 30
0.0
 10
0.3246792747248793
 20
0.2043211450509758
 30
0.0
 10
0.3291142348644321
 20
0.2074408163824825
 30
0.0
 10
0.3345182493957366
 20
0.2100010644007393
 30
0.0
 10
0.3406836589108005
 20
0.2119035107886126
 30
0.0
 10
0.3473734704771542
 20
0.2130749870101205
 30
0.0
 10
0.3543308151072431
 20
0.2134707028631865
 30
0.0
 10
0.3612875193775105
 20
0.2130745965465578
 30
0.0
 10
0.3679792532738946
 20
0.2119050754806612
 30
0.0
 10
0.3731124642628547
 20
0.2103131233119778
 30
0.0
 10
0.3768561211107585
 20
0.2087274885406607
 30
0.0
 10
0.378542488971142
 20
0.2078075489720551
 30
0.0
 10
0.379385673027327
 20
0.2073475791190211
 30
0.0
  0
SPLINE
  5
192
330
182
100
AcDbEntity
  8
0
  6
Continuous
 62
     7
370
    25
100
AcDbSpline
210
0.0
220
0.0
230
1.0
 70
     8
 71
     3
 72
    25
 73
    21
 74
     0
 42
0.00000001
 43
0.00000001
 40
0.0
 40
0.0
 40
0.0
 40
0.0
 40
0.031283133156832
 40
0.0625662569646641
 40
0.1250567953463901
 40
0.1875473247668869
 40
0.2500378671615733
 40
0.3125283971281131
 40
0.3750189353171541
 40
0.4375094645688594
 40
0.5000000026844378
 40
0.5624905341027578
 40
0.6249810697943496
 40
0.6874716020483574
 40
0.7499621320148969
 40
0.8124526744095831
 40
0.8749432038300802
 40
0.9374337422118059
 40
0.968716866760815
 40
1.0
 40
1.0
 40
1.0
 40
1.0
 10
0.379385673027327
 20
0.2073475791190211
 30
0.0
 10
0.3801824505180937
 20
0.2068608193247669
 30
0.0
 10
0.3817760052615094
 20
0.2058872998817274
 30
0.0
 10
0.3845227028008859
 20
0.2037261327770142
 30
0.0
 10
0.3872803438641093
 20
0.200762793443676
 30
0.0
 10
0.3893062315554227
 20
0.1968997374924055
 30
0.0
 10
0.3899923841881003
 20
0.192883717756734
 30
0.0
 10
0.3893069092035055
 20
0.1888673280026142
 30
0.0
 10
0.3872776339660257
 20
0.185005381794526
 30
0.0
 10
0.3839821401639646
 20
0.1814461677529473
 30
0.0
 10
0.3795471831877528
 20
0.1783264950311841
 30
0.0
 10
0.3741431657401172
 20
0.175766248891293
 30
0.0
 10
0.3679777585699059
 20
0.1738638005867565
 30
0.0
 10
0.3612879464391154
 20
0.1726923253047393
 30
0.0
 10
0.354330601745428
 20
0.1722966089344629
 30
0.0
 10
0.3473738977581685
 20
0.1726927164636099
 30
0.0
 10
0.3406821634187818
 20
0.1738622364483783
 30
0.0
 10
0.3355489532245227
 20
0.1754541890030313
 30
0.0
 10
0.331805295707134
 20
0.177039823253212
 30
0.0
 10
0.3301189277883209
 20
0.1779597628229403
 30
0.0
 10
0.3292757437117997
 20
0.1784197326716922
 30
0.0
  0
SPLINE
  5
193
330
182
100
AcDbEntity
  8
0
  6
Continuous
 62
     7
370
    25
100
AcDbSpline
210
0.0
220
0.0
230
1.0
 70
     8
 71
     3
 72
    25
 73
    21
 74
     0
 42
0.00000001
 43
0.00000001
 40
0.0
 40
0.0
 40
0.0
 40
0.0
 40
0.0312831328965373
 40
0.0625662564440714
 40
0.1250567943058366
 40
0.1875473353888057
 40
0.2500378665855339
 40
0.3125283960321102
 40
0.3750189337011886
 40
0.4375094664427839
 40
0.5000000026844379
 40
0.5624905322288334
 40
0.6249810714103149
 40
0.68747160314436
 40
0.7499621325909362
 40
0.8124526637876641
 40
0.8749432048706336
 40
0.9374337427323989
 40
0.9687168670211098
 40
1.0
 40
1.0
 40
1.0
 40
1.0
 10
-0.0250549644922348
 20
-0.0261310311890643
 30
0.0
 10
-0.0258517419801401
 20
-0.0256442713944022
 30
0.0
 10
-0.0274452967178325
 20
-0.0246707519505469
 30
0.0
 10
-0.0301919943144065
 20
-0.0225095848539871
 30
0.0
 10
-0.0329496351499134
 20
-0.019546245226518
 30
0.0
 10
-0.0349755245659056
 20
-0.0156831894755891
 30
0.0
 10
-0.0356616751773536
 20
-0.0116671695837507
 30
0.0
 10
-0.0349762009419215
 20
-0.007650780020056
 30
0.0
 10
-0.0329469247301073
 20
-0.0037888340066323
 30
0.0
 10
-0.0296514338543351
 20
-0.0002296188536106
 30
0.0
 10
-0.0252164736695642
 20
0.0028900523312433
 30
0.0
 10
-0.0198124588842222
 20
0.0054503003233961
 30
0.0
 10
-0.0136470497887265
 20
0.007352746938622
 30
0.0
 10
-0.0069572379951414
 20
0.0085242227831105
 30
0.0
 10
0.0000001063686844
 20
0.0089199387209044
 30
0.0
 10
0.0069568106264624
 20
0.0085238323585886
 30
0.0
 10
0.0136485446188095
 20
0.0073543113781842
 30
0.0
 10
0.0187817553225733
 20
0.0057623589549889
 30
0.0
 10
0.0225254128258382
 20
0.004176724671789
 30
0.0
 10
0.0242117807460646
 20
0.0032567851053646
 30
0.0
 10
0.0250549648232924
 20
0.0027968152582646
 30
0.0
  0
SPLINE
  5
194
330
182
100
AcDbEntity
  8
0
  6
Continuous
 62
     7
370
    25
100
AcDbSpline
210
0.0
220
0.0
230
1.0
 70
     8
 71
     3
 72
    25
 73
    21
 74
     0
 42
0.00000001
 43
0.00000001
 40
0.0
 40
0.0
 40
0.0
 40
0.0
 40
0.0312831332391849
 40
0.0625662577881938
 40
0.1250567961699194
 40
0.1875473255904165
 40
0.2500378679851028
 40
0.3125283979516424
 40
0.3750189302056502
 40
0.4375094658972424
 40
0.4999999973155621
 40
0.5624905354311401
 40
0.6249810646828459
 40
0.6874716028718866
 40
0.7499621328384265
 40
0.812452675233113
 40
0.8749432046536095
 40
0.9374337430353362
 40
0.968716866843168
 40
1.0
 40
1.0
 40
1.0
 40
1.0
 10
0.0250549648232924
 20
0.0027968152582646
 30
0.0
 10
0.0258517423037799
 20
0.0023100554518628
 30
0.0
 10
0.0274452970434172
 20
0.0013365359742767
 30
0.0
 10
0.0301919937372585
 20
-0.0008246315087685
 30
0.0
 10
0.032949635241357
 20
-0.0037879706774665
 30
0.0
 10
0.0349755227845775
 20
-0.0076510266841353
 30
0.0
 10
0.0356616754963959
 20
-0.0116670464125968
 30
0.0
 10
0.0349762003650324
 20
-0.015683436013006
 30
0.0
 10
0.0329469257806399
 20
-0.0195453823522721
 30
0.0
 10
0.02965143158475
 20
-0.0231045961516393
 30
0.0
 10
0.0252164746537565
 20
-0.0262242690200551
 30
0.0
 10
0.0198124574601584
 20
-0.0287845151860502
 30
0.0
 10
0.013647049870379
 20
-0.0306869632632341
 30
0.0
 10
0.0069572379668198
 20
-0.0318584389222708
 30
0.0
 10
-0.0000001069931309
 20
-0.0322541552078193
 30
0.0
 10
-0.0069568109928796
 20
-0.0318580477243592
 30
0.0
 10
-0.0136485452363035
 20
-0.0306885276540988
 30
0.0
 10
-0.0187817557157588
 20
-0.0290965753539575
 30
0.0
 10
-0.0225254125777862
 20
-0.0275109406156597
 30
0.0
 10
-0.0242117804367565
 20
-0.0265910010437503
 30
0.0
 10
-0.0250549644922348
 20
-0.0261310311890643
 30
0.0
  0
SPLINE
  5
195
330
182
100
AcDbEntity
  8
0
  6
Continuous
 62
     7
370
    25
100
AcDbSpline
210
0.0
220
0.0
230
1.0
 70
     8
 71
     3
 72
    25
 73
    21
 74
     0
 42
0.00000001
 43
0.00000001
 40
0.0
 40
0.0
 40
0.0
 40
0.0
 40
0.0312831331568326
 40
0.062566256964665
 40
0.1250567953463917
 40
0.1875473247668872
 40
0.2500378671615736
 40
0.3125283971281136
 40
0.3750189353171539
 40
0.43750946456886
 40
0.500000002684438
 40
0.5624905341027577
 40
0.6249810697943502
 40
0.6874716020483574
 40
0.749962132014897
 40
0.8124526744095832
 40
0.8749432038300791
 40
0.9374337422118055
 40
0.9687168667608141
 40
1.0
 40
1.0
 40
1.0
 40
1.0
 10
-0.379385673027327
 20
0.178419732862809
 30
0.0
 10
-0.3801824505180937
 20
0.1789064926570632
 30
0.0
 10
-0.3817760052615095
 20
0.1798800121001028
 30
0.0
 10
-0.384522702800886
 20
0.1820411792048159
 30
0.0
 10
-0.3872803438641093
 20
0.1850045185381541
 30
0.0
 10
-0.3893062315554227
 20
0.188867574489425
 30
0.0
 10
-0.3899923841881002
 20
0.192883594225096
 30
0.0
 10
-0.3893069092035057
 20
0.1968999839792159
 30
0.0
 10
-0.3872776339660254
 20
0.200761930187304
 30
0.0
 10
-0.3839821401639647
 20
0.2043211442288829
 30
0.0
 10
-0.3795471831877527
 20
0.2074408169506459
 30
0.0
 10
-0.3741431657401171
 20
0.2100010630905372
 30
0.0
 10
-0.3679777585699059
 20
0.2119035113950734
 30
0.0
 10
-0.3612879464391153
 20
0.2130749866770908
 30
0.0
 10
-0.354330601745428
 20
0.2134707030473671
 30
0.0
 10
-0.3473738977581686
 20
0.2130745955182203
 30
0.0
 10
-0.3406821634187818
 20
0.2119050755334519
 30
0.0
 10
-0.3355489532245229
 20
0.2103131229787988
 30
0.0
 10
-0.3318052957071341
 20
0.2087274887286182
 30
0.0
 10
-0.3301189277883209
 20
0.2078075491588898
 30
0.0
 10
-0.3292757437117998
 20
0.2073475793101379
 30
0.0
  0
SPLINE
  5
196
330
182
100
AcDbEntity
  8
0
  6
Continuous
 62
     7
370
    25
100
AcDbSpline
210
0.0
220
0.0
230
1.0
 70
     8
 71
     3
 72
    25
 73
    21
 74
     0
 42
0.00000001
 43
0.00000001
 40
0.0
 40
0.0
 40
0.0
 40
0.0
 40
0.03128313297889
 40
0.0625662572676026
 40
0.1250567951293664
 40
0.1875473362123348
 40
0.2500378674090639
 40
0.3125283968556403
 40
0.3750189285896847
 40
0.4375094677711666
 40
0.4999999973155626
 40
0.5624905335572165
 40
0.6249810662988123
 40
0.6874716039678899
 40
0.7499621334144663
 40
0.8124526646111957
 40
0.8749432056941635
 40
0.9374337435559273
 40
0.9687168671034627
 40
1.0
 40
1.0
 40
1.0
 40
1.0
 10
-0.3292757437117998
 20
0.2073475793101379
 30
0.0
 10
-0.3284789662341739
 20
0.2068608195033281
 30
0.0
 10
-0.3268854115002598
 20
0.2058873000249263
 30
0.0
 10
-0.3241387147492208
 20
0.2037261325500345
 30
0.0
 10
-0.321381073472839
 20
0.2007627930872056
 30
0.0
 10
-0.3193551842049395
 20
0.1968997372808786
 30
0.0
 10
-0.3186690335143508
 20
0.1928837173962501
 30
0.0
 10
-0.3193545078965515
 20
0.1888673279862659
 30
0.0
 10
-0.3213837834552786
 20
0.1850053818416643
 30
0.0
 10
-0.3246792747248792
 20
0.1814461669308541
 30
0.0
 10
-0.329114234864432
 20
0.1783264955993476
 30
0.0
 10
-0.3345182493957366
 20
0.1757662475810907
 30
0.0
 10
-0.3406836589108005
 20
0.1738638011932175
 30
0.0
 10
-0.3473734704771542
 20
0.1726923249717096
 30
0.0
 10
-0.3543308151072432
 20
0.1722966091186435
 30
0.0
 10
-0.3612875193775106
 20
0.1726927154352726
 30
0.0
 10
-0.3679792532738946
 20
0.1738622365011688
 30
0.0
 10
-0.3731124642628546
 20
0.1754541886698523
 30
0.0
 10
-0.3768561211107586
 20
0.1770398234411694
 30
0.0
 10
-0.378542488971142
 20
0.177959763009775
 30
0.0
 10
-0.379385673027327
 20
0.178419732862809
 30
0.0
  0
SPLINE
  5
197
330
182
100
AcDbEntity
  8
0
  6
Continuous
 62
     7
370
    25
100
AcDbSpline
210
0.0
220
0.0
230
1.0
 70
     8
 71
     3
 72
    25
 73
    21
 74
     0
 42
0.00000001
 43
0.00000001
 40
0.0
 40
0.0
 40
0.0
 40
0.0
 40
0.0312831332391858
 40
0.0625662577881947
 40
0.1250567961699212
 40
0.1875473255904169
 40
0.2500378679851032
 40
0.3125283979516428
 40
0.37501893020565
 40
0.4375094658972422
 40
0.4999999973155622
 40
0.5624905354311406
 40
0.6249810646828461
 40
0.6874716028718865
 40
0.7499621328384264
 40
0.8124526752331129
 40
0.8749432046536084
 40
0.937433743035335
 40
0.9687168668431674
 40
1.0
 40
1.0
 40
1.0
 40
1.0
 10
-0.0250549648232924
 20
0.3829704967235655
 30
0.0
 10
-0.0258517423037799
 20
0.3834572565299673
 30
0.0
 10
-0.0274452970434172
 20
0.3844307760075535
 30
0.0
 10
-0.0301919937372585
 20
0.3865919434905986
 30
0.0
 10
-0.0329496352413571
 20
0.3895552826592966
 30
0.0
 10
-0.0349755227845775
 20
0.3934183386659657
 30
0.0
 10
-0.0356616754963959
 20
0.3974343583944268
 30
0.0
 10
-0.0349762003650324
 20
0.401450747994836
 30
0.0
 10
-0.0329469257806398
 20
0.4053126943341022
 30
0.0
 10
-0.0296514315847502
 20
0.4088719081334692
 30
0.0
 10
-0.0252164746537565
 20
0.4119915810018854
 30
0.0
 10
-0.0198124574601584
 20
0.4145518271678804
 30
0.0
 10
-0.0136470498703789
 20
0.4164542752450642
 30
0.0
 10
-0.0069572379668197
 20
0.4176257509041009
 30
0.0
 10
0.0000001069931308
 20
0.4180214671896493
 30
0.0
 10
0.0069568109928795
 20
0.4176253597061894
 30
0.0
 10
0.0136485452363035
 20
0.4164558396359289
 30
0.0
 10
0.0187817557157587
 20
0.4148638873357876
 30
0.0
 10
0.0225254125777862
 20
0.4132782525974899
 30
0.0
 10
0.0242117804367564
 20
0.4123583130255802
 30
0.0
 10
0.0250549644922348
 20
0.4118983431708944
 30
0.0
  0
SPLINE
  5
198
330
182
100
AcDbEntity
  8
0
  6
Continuous
 62
     7
370
    25
100
AcDbSpline
210
0.0
220
0.0
230
1.0
 70
     8
 71
     3
 72
    25
 73
    21
 74
     0
 42
0.00000001
 43
0.00000001
 40
0.0
 40
0.0
 40
0.0
 40
0.0
 40
0.031283132896537
 40
0.0625662564440728
 40
0.1250567943058365
 40
0.1875473353888043
 40
0.250037866585534
 40
0.3125283960321104
 40
0.3750189337011878
 40
0.4375094664427834
 40
0.5000000026844379
 40
0.5624905322288339
 40
0.6249810714103156
 40
0.68747160314436
 40
0.7499621325909364
 40
0.8124526637876656
 40
0.8749432048706339
 40
0.9374337427323977
 40
0.9687168670211098
 40
1.0
 40
1.0
 40
1.0
 40
1.0
 10
0.0250549644922348
 20
0.4118983431708944
 30
0.0
 10
0.0258517419801401
 20
0.4114115833762323
 30
0.0
 10
0.0274452967178326
 20
0.4104380639323769
 30
0.0
 10
0.0301919943144063
 20
0.4082768968358169
 30
0.0
 10
0.0329496351499134
 20
0.4053135572083481
 30
0.0
 10
0.0349755245659054
 20
0.4014505014574192
 30
0.0
 10
0.0356616751773537
 20
0.3974344815655809
 30
0.0
 10
0.0349762009419217
 20
0.3934180920018861
 30
0.0
 10
0.0329469247301071
 20
0.3895561459884623
 30
0.0
 10
0.0296514338543351
 20
0.3859969308354408
 30
0.0
 10
0.0252164736695643
 20
0.3828772596505869
 30
0.0
 10
0.0198124588842222
 20
0.380317011658434
 30
0.0
 10
0.0136470497887263
 20
0.3784145650432083
 30
0.0
 10
0.0069572379951414
 20
0.3772430891987198
 30
0.0
 10
-0.0000001063686844
 20
0.3768473732609255
 30
0.0
 10
-0.0069568106264624
 20
0.3772434796232418
 30
0.0
 10
-0.0136485446188094
 20
0.3784130006036457
 30
0.0
 10
-0.0187817553225734
 20
0.3800049530268411
 30
0.0
 10
-0.0225254128258381
 20
0.3815905873100411
 30
0.0
 10
-0.0242117807460647
 20
0.3825105268764655
 30
0.0
 10
-0.0250549648232924
 20
0.3829704967235655
 30
0.0
  0
SPLINE
  5
199
330
182
100
AcDbEntity
  8
0
  6
Continuous
 62
     7
370
    25
100
AcDbSpline
210
0.0
220
0.0
230
1.0
 70
     8
 71
     3
 72
    29
 73
    25
 74
     0
 42
0.00000001
 43
0.00000001
 40
0.0
 40
0.0
 40
0.0
 40
0.0
 40
0.0156625311555114
 40
0.0312872383925571
 40
0.0469119450785907
 40
0.0625744745850577
 40
0.0938522785231681
 40
0.1251300816531743
 40
0.1876099763416512
 40
0.2500898676973014
 40
0.3125697599567719
 40
0.3750496505856
 40
0.4375295425661138
 40
0.5000094346492798
 40
0.5624893267324459
 40
0.6249692167795184
 40
0.6874491091902164
 40
0.7499290014496868
 40
0.8124088928053367
 40
0.8748887874938137
 40
0.9061665902833747
 40
0.9374443944668319
 40
0.9687221960334929
 40
1.0
 40
1.0
 40
1.0
 40
1.0
 10
0.5281530873663411
 20
-0.0159207541083791
 30
0.0
 10
0.5268053837875459
 20
-0.0151205506949768
 30
0.0
 10
0.5241132312399401
 20
-0.0135220763035089
 30
0.0
 10
0.5203410258883897
 20
-0.0109840737135207
 30
0.0
 10
0.5167751803997899
 20
-0.0083496573137049
 30
0.0
 10
0.5123298634129221
 20
-0.0047032921983058
 30
0.0
 10
0.5073549994841079
 20
0.0000840011041385
 30
0.0
 10
0.5007517564083686
 20
0.0081478899714337
 30
0.0
 10
0.4951110880006567
 20
0.0188734575197827
 30
0.0
 10
0.492831545961198
 20
0.0322469650971544
 30
0.0
 10
0.4951128531637933
 20
0.0456226311228172
 30
0.0
 10
0.5018711887046701
 20
0.0584837171197691
 30
0.0
 10
0.5128458057884018
 20
0.0703367071180825
 30
0.0
 10
0.5276152312161684
 20
0.080725900416808
 30
0.0
 10
0.5456117957692507
 20
0.0892521103284285
 30
0.0
 10
0.5661439885818498
 20
0.095587615586951
 30
0.0
 10
0.5884225044723917
 20
0.0994891420529034
 30
0.0
 10
0.6115921701252174
 20
0.1008060305090498
 30
0.0
 10
0.6347589400438076
 20
0.0994903852178294
 30
0.0
 10
0.6533361116315627
 20
0.0962331438530976
 30
0.0
 10
0.6673089142800638
 20
0.092423117562989
 30
0.0
 10
0.6772442825631075
 20
0.0889719023798621
 30
0.0
 10
0.6866078084949139
 20
0.0850112307250502
 30
0.0
 10
0.6922227946237215
 20
0.0819473456987311
 30
0.0
 10
0.6950302877958303
 20
0.0804154031268009
 30
0.0
  0
SPLINE
  5
19A
330
182
100
AcDbEntity
  8
0
  6
Continuous
 62
     7
370
    25
100
AcDbSpline
210
0.0
220
0.0
230
1.0
 70
     8
 71
     3
 72
    29
 73
    25
 74
     0
 42
0.00000001
 43
0.00000001
 40
0.0
 40
0.0
 40
0.0
 40
0.0
 40
0.0156625311526155
 40
0.0312872383620116
 40
0.0469119449709011
 40
0.0625744743263496
 40
0.0938522785101891
 40
0.1251300813001327
 40
0.1876099759893737
 40
0.2500898673457874
 40
0.3125697596060216
 40
0.3750496520174835
 40
0.4375295420653199
 40
0.5000094341492497
 40
0.5624893262331795
 40
0.6249692182144572
 40
0.6874491088440493
 40
0.7499290011042836
 40
0.8124088924606976
 40
0.8748887871499385
 40
0.9061665902803279
 40
0.9374443942188201
 40
0.9687221960083873
 40
1.0
 40
1.0
 40
1.0
 40
1.0
 10
0.6950302877958303
 20
0.0804154031268009
 30
0.0
 10
0.696377991379949
 20
0.0796151997170418
 30
0.0
 10
0.6990701439360583
 20
0.0780167253341162
 30
0.0
 10
0.7028423493980401
 20
0.0754787228093028
 30
0.0
 10
0.7064081950102433
 20
0.0728443064931209
 30
0.0
 10
0.7108535125424637
 20
0.069197941588764
 30
0.0
 10
0.7158283756225227
 20
0.0644106480095923
 30
0.0
 10
0.7224316196453708
 20
0.0563467594343458
 30
0.0
 10
0.7280722875802703
 20
0.0456211917664915
 30
0.0
 10
0.7303518297283313
 20
0.0322476842426928
 30
0.0
 10
0.728070522622132
 20
0.0188720180469946
 30
0.0
 10
0.7213121864419461
 20
0.0060109321857331
 30
0.0
 10
0.7103375698650046
 20
-0.0058420579293634
 30
0.0
 10
0.6955681444583532
 20
-0.0162312511026144
 30
0.0
 10
0.6775715796879316
 20
-0.0247574610264061
 30
0.0
 10
0.6570393870775479
 20
-0.0310929665775728
 30
0.0
 10
0.6347608709522695
 20
-0.0349944926741558
 30
0.0
 10
0.6115912055928232
 20
-0.0363113811870849
 30
0.0
 10
0.5884244355857664
 20
-0.0349957359543268
 30
0.0
 10
0.5698472641915421
 20
-0.0317384943298112
 30
0.0
 10
0.5558744610646449
 20
-0.0279284685595929
 30
0.0
 10
0.5459390932701494
 20
-0.0244772528699957
 30
0.0
 10
0.5365755667189717
 20
-0.0205165817258284
 30
0.0
 10
0.5309605805497698
 20
-0.0174526966834799
 30
0.0
 10
0.5281530873663411
 20
-0.0159207541083791
 30
0.0
  0
SPLINE
  5
19E
330
182
100
AcDbEntity
  8
0
  6
Continuous
 62
     7
370
    25
100
AcDbSpline
210
0.0
220
0.0
230
1.0
 70
     8
 71
     3
 72
    12
 73
     8
 74
     0
 42
0.00000001
 43
0.00000001
 40
0.0
 40
0.0
 40
0.0
 40
0.0
 40
0.3333333333333333
 40
0.3333333333333333
 40
0.6666666666666665
 40
0.6666666666666665
 40
0.9999999999999999
 40
0.9999999999999999
 40
0.9999999999999999
 40
0.9999999999999999
 10
0.6402935420026106
 20
-0.2648620066614064
 30
0.0
 10
0.6402935420026106
 20
-0.2304116904329155
 30
0.0
 10
0.6243716051678049
 20
-0.2077576302208389
 30
0.0
 10
0.5726989300144933
 20
-0.2031373144171016
 30
0.0
 10
0.5408550563486526
 20
-0.2215203913971378
 30
0.0
 10
0.4891823812075788
 20
-0.2858007080514765
 30
0.0
 10
0.4732604443840856
 20
-0.3268378452392356
 30
0.0
 10
0.4732604443963234
 20
-0.3612881614606618
 30
0.0
  0
SPLINE
  5
19F
330
182
100
AcDbEntity
  8
0
  6
Continuous
 62
     7
370
    25
100
AcDbSpline
210
0.0
220
0.0
230
1.0
 70
     8
 71
     3
 72
    14
 73
    10
 74
     0
 42
0.00000001
 43
0.00000001
 40
0.0
 40
0.0
 40
0.0
 40
0.0
 40
0.25
 40
0.25
 40
0.5000000000000001
 40
0.5000000000000001
 40
0.75
 40
0.75
 40
1.0
 40
1.0
 40
1.0
 40
1.0
 10
0.4732604443963234
 20
-0.3612881614606618
 30
0.0
 10
0.4732604444054092
 20
-0.386865400668245
 30
0.0
 10
0.4820599273691196
 20
-0.4063171593250637
 30
0.0
 10
0.5133838230608487
 20
-0.4244059378209176
 30
0.0
 10
0.5346276541581155
 20
-0.4223034532990491
 30
0.0
 10
0.5789263322600792
 20
-0.396730370763254
 30
0.0
 10
0.6001701633553166
 20
-0.374305249980491
 30
0.0
 10
0.6314940590398218
 20
-0.3200506713254965
 30
0.0
 10
0.6402935419986329
 20
-0.2904392458938507
 30
0.0
 10
0.6402935420026106
 20
-0.264862006678726
 30
0.0
  0
SPLINE
  5
1A2
330
182
100
AcDbEntity
  8
0
  6
Continuous
 62
     7
370
    25
100
AcDbSpline
210
0.0
220
0.0
230
1.0
 70
     8
 71
     3
 72
    11
 73
     7
 74
     0
 42
0.00000001
 43
0.00000001
 40
0.0
 40
0.0
 40
0.0
 40
0.0
 40
0.114209645983859
 40
0.4094730973225727
 40
0.7047365486612864
 40
1.0
 40
1.0
 40
1.0
 40
1.0
 10
0.6080588268095503
 20
-0.2079093804865737
 30
0.0
 10
0.6094395277674588
 20
-0.2089622413263319
 30
0.0
 10
0.6143897217098423
 20
-0.2127370379767513
 30
0.0
 10
0.6201528740591088
 20
-0.2231080241707158
 30
0.0
 10
0.6252439188577823
 20
-0.2382627011079591
 30
0.0
 10
0.625848910538514
 20
-0.2505528507314392
 30
0.0
 10
0.6261514063788797
 20
-0.2566979255431792
 30
0.0
  0
SPLINE
  5
1A3
330
182
100
AcDbEntity
  8
0
  6
Continuous
 62
     7
370
    25
100
AcDbSpline
210
0.0
220
0.0
230
1.0
 70
     8
 71
     3
 72
    19
 73
    15
 74
     0
 42
0.00000001
 43
0.00000001
 40
0.0
 40
0.0
 40
0.0
 40
0.0
 40
0.0878287514240477
 40
0.1756575028480957
 40
0.2634862542721442
 40
0.3513150056961918
 40
0.4391437571202395
 40
0.5269725085442876
 40
0.6148012599683356
 40
0.7026300113923836
 40
0.7904587628164316
 40
0.8782875142404796
 40
0.9661162656645272
 40
0.9999999999999999
 40
0.9999999999999999
 40
0.9999999999999999
 40
0.9999999999999999
 10
0.6261514063788797
 20
-0.2566979255604988
 30
0.0
 10
0.6258405816826226
 20
-0.2631894116104502
 30
0.0
 10
0.6252189322901084
 20
-0.2761723837103528
 30
0.0
 10
0.6202528203183579
 20
-0.2972477011994742
 30
0.0
 10
0.6125343122618019
 20
-0.3184845153196713
 30
0.0
 10
0.6020679107948201
 20
-0.3392352556763178
 30
0.0
 10
0.5893338980019467
 20
-0.3586577391836566
 30
0.0
 10
0.5748014935311109
 20
-0.3760159973162671
 30
0.0
 10
0.5590316706789199
 20
-0.3906459992273519
 30
0.0
 10
0.5426405916442667
 20
-0.4019629464115822
 30
0.0
 10
0.5262151082562112
 20
-0.4096192006038658
 30
0.0
 10
0.5105484984620073
 20
-0.4129940493124046
 30
0.0
 10
0.4986904284508794
 20
-0.4131391307969274
 30
0.0
 10
0.4929508691051354
 20
-0.4107436016753361
 30
0.0
 10
0.491353023963281
 20
-0.4100767064768497
 30
0.0
  0
SPLINE
  5
1A4
330
182
100
AcDbEntity
  8
0
  6
Continuous
 62
     7
370
    25
100
AcDbSpline
210
0.0
220
0.0
230
1.0
 70
     8
 71
     3
 72
    28
 73
    24
 74
     0
 42
0.00000001
 43
0.00000001
 40
0.0
 40
0.0
 40
0.0
 40
0.0
 40
0.0208715803012836
 40
0.0416983130010125
 40
0.0625698930639837
 40
0.093847849343248
 40
0.1251258054334642
 40
0.1876060025173522
 40
0.2500862001477294
 40
0.3125663977781067
 40
0.3750465948619946
 40
0.4375267915170281
 40
0.500006989616215
 40
0.5624871877154018
 40
0.6249673843704354
 40
0.6874475814543234
 40
0.7499277790847005
 40
0.8124079767150778
 40
0.8748881737989657
 40
0.906166129889182
 40
0.9374440861684464
 40
0.9687220429500465
 40
1.0
 40
1.0
 40
1.0
 40
1.0
 10
0.5078362954582569
 20
-0.3249997852316924
 30
0.0
 10
0.5078505400375889
 20
-0.3241142477290758
 30
0.0
 10
0.5078789985883538
 20
-0.3223450755137848
 30
0.0
 10
0.5081107235063621
 20
-0.3195924294582401
 30
0.0
 10
0.5085417371616155
 20
-0.3163158565287635
 30
0.0
 10
0.5092808185056125
 20
-0.3124817713985365
 30
0.0
 10
0.5108162778240021
 20
-0.3066416002153917
 30
0.0
 10
0.5135145375172392
 20
-0.2992517973733514
 30
0.0
 10
0.5178699038063213
 20
-0.2906101659265157
 30
0.0
 10
0.5231771979658223
 20
-0.2825163650842558
 30
0.0
 10
0.5292321787358011
 20
-0.2752836444619001
 30
0.0
 10
0.535802233340531
 20
-0.2691893613758807
 30
0.0
 10
0.5426348572322073
 20
-0.2644678761790097
 30
0.0
 10
0.5494674831850562
 20
-0.261300580640733
 30
0.0
 10
0.5560375316062682
 20
-0.2598092433009602
 30
0.0
 10
0.5620925350491464
 20
-0.2600510204145195
 30
0.0
 10
0.567399744700567
 20
-0.2620171927668843
 30
0.0
 10
0.571755426349071
 20
-0.2656300651889879
 30
0.0
 10
0.5744527050299366
 20
-0.2699050218726137
 30
0.0
 10
0.5759901667102362
 20
-0.2739713726354583
 30
0.0
 10
0.576815320089393
 20
-0.2773270460894634
 30
0.0
 10
0.5773372028281851
 20
-0.2809326003645768
 30
0.0
 10
0.5774013474047801
 20
-0.2835256805273912
 30
0.0
 10
0.5774334196932152
 20
-0.2848222206143603
 30
0.0
  0
SPLINE
  5
1A5
330
182
100
AcDbEntity
  8
0
  6
Continuous
 62
     7
370
    25
100
AcDbSpline
210
0.0
220
0.0
230
1.0
 70
     8
 71
     3
 72
    28
 73
    24
 74
     0
 42
0.00000001
 43
0.00000001
 40
0.0
 40
0.0
 40
0.0
 40
0.0
 40
0.0208715803012834
 40
0.0416983130010123
 40
0.0625698930639836
 40
0.0938478493432481
 40
0.1251258054334642
 40
0.1876060025173522
 40
0.2500862001477294
 40
0.3125663977781067
 40
0.3750465948619945
 40
0.4375267915170281
 40
0.5000069896162149
 40
0.5624871877154017
 40
0.6249673843704353
 40
0.6874475814543232
 40
0.7499277790847004
 40
0.8124079767150777
 40
0.8748881737989657
 40
0.9061661298891819
 40
0.9374440861684463
 40
0.9687220429500464
 40
1.0
 40
1.0
 40
1.0
 40
1.0
 10
0.5774334196932152
 20
-0.2848222206143603
 30
0.0
 10
0.5774191751138832
 20
-0.285707758116977
 30
0.0
 10
0.5773907165631182
 20
-0.287476930332268
 30
0.0
 10
0.5771589916451102
 20
-0.2902295763878128
 30
0.0
 10
0.5767279779898565
 20
-0.2935061493172893
 30
0.0
 10
0.5759888966458595
 20
-0.2973402344475163
 30
0.0
 10
0.5744534373274698
 20
-0.303180405630661
 30
0.0
 10
0.5717551776342329
 20
-0.3105702084727013
 30
0.0
 10
0.5673998113451507
 20
-0.3192118399195369
 30
0.0
 10
0.5620925171856498
 20
-0.3273056407617969
 30
0.0
 10
0.5560375364156711
 20
-0.3345383613841529
 30
0.0
 10
0.5494674818109411
 20
-0.3406326444701721
 30
0.0
 10
0.5426348579192649
 20
-0.3453541296670431
 30
0.0
 10
0.5358022319664161
 20
-0.34852142520532
 30
0.0
 10
0.5292321835452038
 20
-0.3500127625450925
 30
0.0
 10
0.5231771801023257
 20
-0.3497709854315333
 30
0.0
 10
0.5178699704509053
 20
-0.3478048130791687
 30
0.0
 10
0.5135142888024008
 20
-0.3441919406570647
 30
0.0
 10
0.5108170101215356
 20
-0.3399169839734393
 30
0.0
 10
0.5092795484412355
 20
-0.3358506332105942
 30
0.0
 10
0.5084543950620791
 20
-0.3324949597565894
 30
0.0
 10
0.507932512323287
 20
-0.3288894054814758
 30
0.0
 10
0.507868367746692
 20
-0.3262963253186615
 30
0.0
 10
0.5078362954582569
 20
-0.3249997852316924
 30
0.0
  0
SPLINE
  5
1A6
330
182
100
AcDbEntity
  8
0
  6
Continuous
 62
     7
370
    25
100
AcDbSpline
210
0.0
220
0.0
230
1.0
 70
     8
 71
     3
 72
     9
 73
     5
 74
     0
 42
0.00000001
 43
0.00000001
 40
0.0
 40
0.0
 40
0.0
 40
0.0
 40
0.4188782336220208
 40
1.0
 40
1.0
 40
1.0
 40
1.0
 10
0.5541241963141802
 20
-0.2605129267195733
 30
0.0
 10
0.5546659898814097
 20
-0.261996212464787
 30
0.0
 10
0.5559594291765113
 20
-0.2655373029921888
 30
0.0
 10
0.5561243669661121
 20
-0.2699890765985231
 30
0.0
 10
0.5562202159057472
 20
-0.2725760991401508
 30
0.0
  0
SPLINE
  5
1A7
330
182
100
AcDbEntity
  8
0
  6
Continuous
 62
     7
370
    25
100
AcDbSpline
210
0.0
220
0.0
230
1.0
 70
     8
 71
     3
 72
    11
 73
     7
 74
     0
 42
0.00000001
 43
0.00000001
 40
0.0
 40
0.0
 40
0.0
 40
0.0
 40
0.2953706686616139
 40
0.5907413373232391
 40
0.8861120059848642
 40
1.0
 40
1.0
 40
1.0
 40
1.0
 10
0.6950302875770921
 20
0.0640845868725392
 30
0.0
 10
0.7001957233310105
 20
0.0607537369508612
 30
0.0
 10
0.7105265948388476
 20
0.0540920371075053
 30
0.0
 10
0.721093943014288
 20
0.0421188134152591
 30
0.0
 10
0.7271855314188097
 20
0.0319588046184801
 30
0.0
 10
0.7279780431915235
 20
0.0257966987440207
 30
0.0
 10
0.7281985823865584
 20
0.0240819155495466
 30
0.0
  0
SPLINE
  5
1A8
330
182
100
AcDbEntity
  8
0
  6
Continuous
 62
     7
370
    25
100
AcDbSpline
210
0.0
220
0.0
230
1.0
 70
     8
 71
     3
 72
    19
 73
    15
 74
     0
 42
0.00000001
 43
0.00000001
 40
0.0
 40
0.0
 40
0.0
 40
0.0
 40
0.033865343242624
 40
0.1216957665842034
 40
0.2095261899257829
 40
0.2973566132673623
 40
0.3851870366089417
 40
0.473017459950521
 40
0.5608478832921001
 40
0.6486783066336798
 40
0.7365087299752592
 40
0.824339153316838
 40
0.9121695766584175
 40
1.0
 40
1.0
 40
1.0
 40
1.0
 10
0.4949847926154659
 20
0.0240819163735973
 30
0.0
 10
0.4952060243073063
 20
0.0257962907690856
 30
0.0
 10
0.4960010246750377
 20
0.0319569283500055
 30
0.0
 10
0.5020507063664074
 20
0.0421416572017307
 30
0.0
 10
0.5127977074199358
 20
0.0540089052595543
 30
0.0
 10
0.5276281030006256
 20
0.0643942703205224
 30
0.0
 10
0.5456084040275935
 20
0.0729215345417151
 30
0.0
 10
0.5661446804093768
 20
0.0792566516390998
 30
0.0
 10
0.5884231286846029
 20
0.0831586739125642
 30
0.0
 10
0.6115889812957668
 20
0.0844739679484566
 30
0.0
 10
0.6347710705341326
 20
0.0831642039816192
 30
0.0
 10
0.6570008089349013
 20
0.0792345314047832
 30
0.0
 10
0.6777156882084855
 20
0.0730044854921224
 30
0.0
 10
0.6892587544542231
 20
0.0670578864124003
 30
0.0
 10
0.6950302875770921
 20
0.0640845868725392
 30
0.0
  0
SPLINE
  5
1A9
330
182
100
AcDbEntity
  8
0
  6
Continuous
 62
     7
370
    25
100
AcDbSpline
210
0.0
220
0.0
230
1.0
 70
     8
 71
     3
 72
    28
 73
    24
 74
     0
 42
0.00000001
 43
0.00000001
 40
0.0
 40
0.0
 40
0.0
 40
0.0
 40
0.02087158042572
 40
0.0416983128781346
 40
0.0625698923122901
 40
0.0938478491506538
 40
0.1251258057079745
 40
0.187606002923797
 40
0.2500861999963099
 40
0.3125663970688233
 40
0.3750465950137894
 40
0.4375267922582143
 40
0.500006989615457
 40
0.5624871869726996
 40
0.624967384217125
 40
0.6874475821620912
 40
0.7499277792346041
 40
0.8124079763071174
 40
0.8748881735229396
 40
0.9061661300802605
 40
0.937444086918624
 40
0.9687220429010326
 40
1.0
 40
1.0
 40
1.0
 40
1.0
 10
0.5744613352362737
 20
-0.0055190193667734
 30
0.0
 10
0.573715844509331
 20
-0.0050722102915637
 30
0.0
 10
0.5722264649345339
 20
-0.0041795522256739
 30
0.0
 10
0.5701903012099149
 20
-0.0027365560508725
 30
0.0
 10
0.5679993449324254
 20
-0.000974106199968
 30
0.0
 10
0.5657876717620843
 20
0.0011559908417114
 30
0.0
 10
0.5630332734507781
 20
0.0045188748623091
 30
0.0
 10
0.5606810328950959
 20
0.0089921383751762
 30
0.0
 10
0.5597302616128115
 20
0.014569605929048
 30
0.0
 10
0.5606817140764668
 20
0.0201480154755162
 30
0.0
 10
0.5635003129149466
 20
0.0255118051054174
 30
0.0
 10
0.5680773428630936
 20
0.0304551655647934
 30
0.0
 10
0.5742370189536364
 20
0.0347880398521249
 30
0.0
 10
0.5817425927391934
 20
0.0383439463181826
 30
0.0
 10
0.590305665500936
 20
0.0409862061020765
 30
0.0
 10
0.5995970524327868
 20
0.0426133608803447
 30
0.0
 10
0.6092600986221643
 20
0.0431625768452045
 30
0.0
 10
0.618921936979566
 20
0.0426138793675902
 30
0.0
 10
0.6266696562197179
 20
0.0412554275436478
 30
0.0
 10
0.6324970962207344
 20
0.0396664336400578
 30
0.0
 10
0.6366407003913079
 20
0.0382270838293653
 30
0.0
 10
0.6405458144799482
 20
0.03657526234732
 30
0.0
 10
0.6428875777526676
 20
0.0352974509334878
 30
0.0
 10
0.6440584594099263
 20
0.0346585452151679
 30
0.0
  0
SPLINE
  5
1AA
330
182
100
AcDbEntity
  8
0
  6
Continuous
 62
     7
370
    25
100
AcDbSpline
210
0.0
220
0.0
230
1.0
 70
     8
 71
     3
 72
    28
 73
    24
 74
     0
 42
0.00000001
 43
0.00000001
 40
0.0
 40
0.0
 40
0.0
 40
0.0
 40
0.0208715797586191
 40
0.0416983122309777
 40
0.0625698923633816
 40
0.093847848481468
 40
0.1251258057968882
 40
0.1876060017084127
 40
0.2500862000364321
 40
0.3125663971687793
 40
0.3750465944444361
 40
0.4375267921977004
 40
0.5000069896147772
 40
0.5624871870318544
 40
0.6249673847851186
 40
0.6874475820607755
 40
0.7499277791931228
 40
0.8124079775211431
 40
0.8748881734326667
 40
0.9061661307480869
 40
0.9374440868661733
 40
0.968722043643538
 40
1.0
 40
1.0
 40
1.0
 40
1.0
 10
0.6440584594099265
 20
0.0346585452151679
 30
0.0
 10
0.6448039501117216
 20
0.0342117361542452
 30
0.0
 10
0.646293329660767
 20
0.0333190781022214
 30
0.0
 10
0.6483294933757758
 20
0.0318760819240571
 30
0.0
 10
0.6505204496899755
 20
0.0301136320897492
 30
0.0
 10
0.6527321228063186
 20
0.0279835350083287
 30
0.0
 10
0.6554865212136429
 20
0.0246206510572336
 30
0.0
 10
0.6578387615039233
 20
0.02014738748072
 30
0.0
 10
0.6587895330786924
 20
0.0145699199660097
 30
0.0
 10
0.6578380806523996
 20
0.0089915103733235
 30
0.0
 10
0.6550194813949661
 20
0.0036277208453818
 30
0.0
 10
0.6504424518915426
 20
-0.0013156397355504
 30
0.0
 10
0.644282775656355
 20
-0.0056485139828271
 30
0.0
 10
0.6367772019401806
 20
-0.0092044205323881
 30
0.0
 10
0.628214128967879
 20
-0.0118466800595431
 30
0.0
 10
0.618922742212626
 20
-0.0134738350796876
 30
0.0
 10
0.6092596959432659
 20
-0.014023051022906
 30
0.0
 10
0.5995978576534061
 20
-0.0134743533767156
 30
0.0
 10
0.5918501383038969
 20
-0.0121159017051545
 30
0.0
 10
0.5860226984214271
 20
-0.0105269077478444
 30
0.0
 10
0.5818790941787549
 20
-0.0090875579669653
 30
0.0
 10
0.5779739801492081
 20
-0.0074357364738008
 30
0.0
 10
0.5756322168686663
 20
-0.0061579250662499
 30
0.0
 10
0.5744613352362735
 20
-0.0055190193667734
 30
0.0
  0
SPLINE
  5
1AB
330
182
100
AcDbEntity
  8
0
  6
Continuous
 62
     7
370
    25
100
AcDbSpline
210
0.0
220
0.0
230
1.0
 70
     8
 71
     3
 72
    17
 73
    13
 74
     0
 42
0.00000001
 43
0.00000001
 40
0.0
 40
0.0
 40
0.0
 40
0.0
 40
0.1028801113662221
 40
0.2057602227324446
 40
0.3086403340986676
 40
0.4115204454648896
 40
0.5144005568311116
 40
0.6172806681973342
 40
0.7201607795635567
 40
0.8230408909297792
 40
0.9259210022960018
 40
1.0
 40
1.0
 40
1.0
 40
1.0
 10
0.5562202159057472
 20
-0.2725760991473673
 30
0.0
 10
0.556090705404024
 20
-0.2752808859892034
 30
0.0
 10
0.5558316844005777
 20
-0.2806904596728758
 30
0.0
 10
0.5537624742804296
 20
-0.2894718268103773
 30
0.0
 10
0.5505464171665319
 20
-0.2983205566431068
 30
0.0
 10
0.5461854618458934
 20
-0.3069664841196368
 30
0.0
 10
0.5408794542859889
 20
-0.3150599853043362
 30
0.0
 10
0.5348249162650031
 20
-0.3222896079782864
 30
0.0
 10
0.5282518038498462
 20
-0.3283965816177536
 30
0.0
 10
0.5214309689158177
 20
-0.3330704028736751
 30
0.0
 10
0.5151959544063486
 20
-0.3361034960875611
 30
0.0
 10
0.5114855660489105
 20
-0.3367798293738463
 30
0.0
 10
0.5099323154021608
 20
-0.337062957449169
 30
0.0
  0
SPLINE
  5
1AC
330
182
100
AcDbEntity
  8
0
  6
Continuous
 62
     7
370
    25
100
AcDbSpline
210
0.0
220
0.0
230
1.0
 70
     8
 71
     3
 72
    11
 73
     7
 74
     0
 42
0.00000001
 43
0.00000001
 40
0.0
 40
0.0
 40
0.0
 40
0.0
 40
0.1677092680032339
 40
0.4451395120021558
 40
0.7225697560010771
 40
1.0
 40
1.0
 40
1.0
 40
1.0
 10
0.0195088164189548
 20
-0.0287294197872617
 30
0.0
 10
0.0206951050767731
 20
-0.0278327881003469
 30
0.0
 10
0.0238437918519414
 20
-0.02545291848246
 30
0.0
 10
0.0251304854837114
 20
-0.0204927769583991
 30
0.0
 10
0.0234674424305144
 20
-0.0148684363892077
 30
0.0
 10
0.0194220013939487
 20
-0.0119316238362389
 30
0.0
 10
0.0173992808756659
 20
-0.0104632175597545
 30
0.0
  0
SPLINE
  5
1AD
330
182
100
AcDbEntity
  8
0
  6
Continuous
 62
     7
370
    25
100
AcDbSpline
210
0.0
220
0.0
230
1.0
 70
     8
 71
     3
 72
    15
 73
    11
 74
     0
 42
0.00000001
 43
0.00000001
 40
0.0
 40
0.0
 40
0.0
 40
0.0
 40
0.0666483290274098
 40
0.1999842820234942
 40
0.3333202350195781
 40
0.4666561880156627
 40
0.5999921410117474
 40
0.7333280940078315
 40
0.8666640470039156
 40
0.9999999999999999
 40
0.9999999999999999
 40
0.9999999999999999
 40
0.9999999999999999
 10
-0.0200670544298955
 20
-0.0282471177114418
 30
0.0
 10
-0.0210369333852044
 20
-0.0275033483723434
 30
0.0
 10
-0.0239471420784694
 20
-0.0252716018388403
 30
0.0
 10
-0.0251445723852357
 20
-0.0204681725168543
 30
0.0
 10
-0.0233519331405892
 20
-0.0149403341622575
 30
0.0
 10
-0.0178472311564784
 20
-0.0102002309406375
 30
0.0
 10
-0.0096548275423614
 20
-0.0070380474653904
 30
0.0
 10
-0.0000319964545937
 20
-0.0059514547781302
 30
0.0
 10
0.0097828133219396
 20
-0.0069723008063261
 30
0.0
 10
0.0148604583577571
 20
-0.009299578641945
 30
0.0
 10
0.0173992808756659
 20
-0.0104632175597545
 30
0.0
  0
SPLINE
  5
1AE
330
182
100
AcDbEntity
  8
0
  6
Continuous
 62
     7
370
    25
100
AcDbSpline
210
0.0
220
0.0
230
1.0
 70
     8
 71
     3
 72
    15
 73
    11
 74
     0
 42
0.00000001
 43
0.00000001
 40
0.0
 40
0.0
 40
0.0
 40
0.0
 40
0.1148302521382824
 40
0.2412830732613844
 40
0.3677358943844858
 40
0.4941887155075876
 40
0.6206415366306897
 40
0.7470943577537916
 40
0.8735471788768936
 40
1.0
 40
1.0
 40
1.0
 40
1.0
 10
0.575146772308957
 20
-0.0058437572305085
 30
0.0
 10
0.5773358024002646
 20
-0.0047202350346443
 30
0.0
 10
0.5819354257404299
 20
-0.0023594730991132
 30
0.0
 10
0.5903249551074233
 20
0.0001472359101778
 30
0.0
 10
0.5995922223572717
 20
0.0017896461524703
 30
0.0
 10
0.6092601336923429
 20
0.0023341650508716
 30
0.0
 10
0.6189266318070084
 20
0.0017890005740442
 30
0.0
 10
0.6281981387210541
 20
0.0001498182413581
 30
0.0
 10
0.6368372800337816
 20
-0.0024483832310402
 30
0.0
 10
0.6416514004292467
 20
-0.0049284577473558
 30
0.0
 10
0.6440584606269794
 20
-0.0061684950055137
 30
0.0
  0
SPLINE
  5
1AF
330
182
100
AcDbEntity
  8
0
  6
Continuous
 62
     7
370
    25
100
AcDbSpline
210
0.0
220
0.0
230
1.0
 70
     8
 71
     3
 72
    11
 73
     7
 74
     0
 42
0.00000001
 43
0.00000001
 40
0.0
 40
0.0
 40
0.0
 40
0.0
 40
0.1677095592163485
 40
0.4451397061442327
 40
0.7225698530721162
 40
1.0
 40
1.0
 40
1.0
 40
1.0
 10
0.3738395185269645
 20
0.1758213423620697
 30
0.0
 10
0.3750258097967575
 20
0.1767179758803356
 30
0.0
 10
0.3781744994105434
 20
0.1790978472645607
 30
0.0
 10
0.3794611945281123
 20
0.1840579909430183
 30
0.0
 10
0.3777981512134044
 20
0.1896823315872247
 30
0.0
 10
0.3737527102117068
 20
0.1926191441301915
 30
0.0
 10
0.371729989710858
 20
0.194087550401675
 30
0.0
  0
SPLINE
  5
1B0
330
182
100
AcDbEntity
  8
0
  6
Continuous
 62
     7
370
    25
100
AcDbSpline
210
0.0
220
0.0
230
1.0
 70
     8
 71
     3
 72
    11
 73
     7
 74
     0
 42
0.00000001
 43
0.00000001
 40
0.0
 40
0.0
 40
0.0
 40
0.0
 40
0.1677092680032339
 40
0.4451395120021558
 40
0.7225697560010771
 40
1.0
 40
1.0
 40
1.0
 40
1.0
 10
-0.3348218924162361
 20
0.1758213444378549
 30
0.0
 10
-0.3336356037584178
 20
0.1767179761247698
 30
0.0
 10
-0.3304869169832495
 20
0.1790978457426566
 30
0.0
 10
-0.3292002233514795
 20
0.1840579872667175
 30
0.0
 10
-0.3308632664046766
 20
0.189682327835909
 30
0.0
 10
-0.3349087074412422
 20
0.1926191403888778
 30
0.0
 10
-0.336931427959525
 20
0.1940875466653621
 30
0.0
  0
SPLINE
  5
1B1
330
182
100
AcDbEntity
  8
0
  6
Continuous
 62
     7
370
    25
100
AcDbSpline
210
0.0
220
0.0
230
1.0
 70
     8
 71
     3
 72
    15
 73
    11
 74
     0
 42
0.00000001
 43
0.00000001
 40
0.0
 40
0.0
 40
0.0
 40
0.0
 40
0.0666483290274101
 40
0.1999842820234944
 40
0.3333202350195786
 40
0.4666561880156631
 40
0.5999921410117476
 40
0.7333280940078318
 40
0.8666640470039162
 40
1.0
 40
1.0
 40
1.0
 40
1.0
 10
0.3342636544052967
 20
0.1763036465136741
 30
0.0
 10
0.3332937754499877
 20
0.1770474158527725
 30
0.0
 10
0.3303835667567226
 20
0.1792791623862756
 30
0.0
 10
0.3291861364499563
 20
0.1840825917082617
 30
0.0
 10
0.3309787756946029
 20
0.1896104300628585
 30
0.0
 10
0.3364834776787137
 20
0.1943505332844783
 30
0.0
 10
0.3446758812928306
 20
0.1975127167597255
 30
0.0
 10
0.3542987123805984
 20
0.1985993094469858
 30
0.0
 10
0.3641135221571317
 20
0.1975784634187898
 30
0.0
 10
0.3691911671929492
 20
0.1952511855831709
 30
0.0
 10
0.371729989710858
 20
0.1940875466653614
 30
0.0
  0
SPLINE
  5
1B2
330
182
100
AcDbEntity
  8
0
  6
Continuous
 62
     7
370
    25
100
AcDbSpline
210
0.0
220
0.0
230
1.0
 70
     8
 71
     3
 72
    15
 73
    11
 74
     0
 42
0.00000001
 43
0.00000001
 40
0.0
 40
0.0
 40
0.0
 40
0.0
 40
0.0666483290274098
 40
0.1999842820234942
 40
0.3333202350195781
 40
0.4666561880156627
 40
0.5999921410117474
 40
0.7333280940078315
 40
0.8666640470039156
 40
0.9999999999999999
 40
0.9999999999999999
 40
0.9999999999999999
 40
0.9999999999999999
 10
-0.3743977632650863
 20
0.1763036465136748
 30
0.0
 10
-0.3753676422203953
 20
0.1770474158527732
 30
0.0
 10
-0.3782778509136601
 20
0.1792791623862763
 30
0.0
 10
-0.3794752812204267
 20
0.1840825917082624
 30
0.0
 10
-0.3776826419757801
 20
0.1896104300628591
 30
0.0
 10
-0.3721779399916692
 20
0.194350533284479
 30
0.0
 10
-0.3639855363775523
 20
0.1975127167597261
 30
0.0
 10
-0.3543627052897845
 20
0.1985993094469864
 30
0.0
 10
-0.3445478955132513
 20
0.1975784634187905
 30
0.0
 10
-0.3394702504774338
 20
0.1952511855831716
 30
0.0
 10
-0.336931427959525
 20
0.1940875466653621
 30
0.0
  0
SPLINE
  5
1B3
330
182
100
AcDbEntity
  8
0
  6
Continuous
 62
     7
370
    25
100
AcDbSpline
210
0.0
220
0.0
230
1.0
 70
     8
 71
     3
 72
    11
 73
     7
 74
     0
 42
0.00000001
 43
0.00000001
 40
0.0
 40
0.0
 40
0.0
 40
0.0
 40
0.1677098447402662
 40
0.4451398964935111
 40
0.7225699482467554
 40
1.0
 40
1.0
 40
1.0
 40
1.0
 10
0.0195088030960102
 20
0.3803721045519532
 30
0.0
 10
0.0206950969267518
 20
0.3812687398657938
 30
0.0
 10
0.0238437893237011
 20
0.3836486129818508
 30
0.0
 10
0.0251304858980428
 20
0.3886087587726181
 30
0.0
 10
0.0234674423269331
 20
0.3942330994903739
 30
0.0
 10
0.0194220013594224
 20
0.397169912023534
 30
0.0
 10
0.0173992808756671
 20
0.3986383182901143
 30
0.0
  0
SPLINE
  5
1B4
330
182
100
AcDbEntity
  8
0
  6
Continuous
 62
     7
370
    25
100
AcDbSpline
210
0.0
220
0.0
230
1.0
 70
     8
 71
     3
 72
    15
 73
    11
 74
     0
 42
0.00000001
 43
0.00000001
 40
0.0
 40
0.0
 40
0.0
 40
0.0
 40
0.0666483290274101
 40
0.1999842820234944
 40
0.3333202350195786
 40
0.4666561880156631
 40
0.5999921410117476
 40
0.7333280940078318
 40
0.8666640470039162
 40
1.0
 40
1.0
 40
1.0
 40
1.0
 10
-0.0200670544298943
 20
0.3808544107387907
 30
0.0
 10
-0.0210369333852032
 20
0.3815981800778891
 30
0.0
 10
-0.0239471420784682
 20
0.3838299266113922
 30
0.0
 10
-0.0251445723852346
 20
0.3886333559333783
 30
0.0
 10
-0.0233519331405879
 20
0.3941611942879751
 30
0.0
 10
-0.0178472311564772
 20
0.3989012975095949
 30
0.0
 10
-0.0096548275423602
 20
0.4020634809848421
 30
0.0
 10
-0.0000319964545924
 20
0.4031500736721024
 30
0.0
 10
0.0097828133219408
 20
0.4021292276439065
 30
0.0
 10
0.0148604583577583
 20
0.3998019498082875
 30
0.0
 10
0.0173992808756671
 20
0.398638310890478
 30
0.0
  0
LINE
  5
1B5
330
182
100
AcDbEntity
  8
0
  6
Continuous
 62
     7
370
    25
100
AcDbLine
 10
-0.8073266406
 20
0.3535939146
 30
0.0
 11
-0.8351654892
 21
0.3375202766
 31
0.0
  0
LINE
  5
1B6
330
182
100
AcDbEntity
  8
0
  6
Continuous
 62
     7
370
    25
100
AcDbLine
 10
-0.8073266396
 20
0.3535939141
 30
0.0
 11
0.2783884962
 21
-0.2731760927
 31
0.0
  0
LINE
  5
1B7
330
182
100
AcDbEntity
  8
0
  6
Continuous
 62
     7
370
    25
100
AcDbLine
 10
0.278388497
 20
-0.6750144306
 30
0.0
 11
0.2783884961
 21
-0.2731760928
 31
0.0
  0
LINE
  5
1B8
330
182
100
AcDbEntity
  8
0
  6
Continuous
 62
     7
370
    25
100
AcDbLine
 10
0.278388497
 20
-0.3053207564
 30
0.0
 11
-0.8351654894
 21
0.3375202767
 31
0.0
  0
LINE
  5
1B9
330
182
100
AcDbEntity
  8
0
  6
Continuous
 62
     7
370
    25
100
AcDbLine
 10
0.8073266398
 20
0.032173398
 30
0.0
 11
0.2783884961
 21
-0.2731760928
 31
0.0
  0
LINE
  5
1BA
330
182
100
AcDbEntity
  8
0
  6
Continuous
 62
     7
370
    25
100
AcDbLine
 10
0.8351654897
 20
0.0160997599
 30
0.0
 11
0.8073266398
 21
0.032173398
 31
0.0
  0
LINE
  5
1BB
330
182
100
AcDbEntity
  8
0
  6
Continuous
 62
     7
370
    25
100
AcDbLine
 10
0.2783884967
 20
-0.3053207565
 30
0.0
 11
0.8351654897
 21
0.0160997599
 31
0.0
  0
LINE
  5
1BC
330
182
100
AcDbEntity
  8
0
  6
Continuous
 62
     7
370
    25
100
AcDbLine
 10
-0.2783884962
 20
0.6589434047
 30
0.0
 11
-0.8073266396
 21
0.3535939141
 31
0.0
  0
LINE
  5
1BD
330
182
100
AcDbEntity
  8
0
  6
Continuous
 62
     7
370
    25
100
AcDbLine
 10
0.8073266396
 20
0.0321733979
 30
0.0
 11
-0.2783884962
 21
0.6589434047
 31
0.0
  0
LINE
  5
1BE
330
182
100
AcDbEntity
  8
0
  6
Continuous
 62
     7
370
    25
100
AcDbLine
 10
0.8351654894
 20
0.0160997598
 30
0.0
 11
0.8351654894
 21
-0.3535939145
 31
0.0
  0
LINE
  5
1BF
330
182
100
AcDbEntity
  8
0
  6
Continuous
 62
     7
370
    25
100
AcDbLine
 10
0.8351654894
 20
-0.3535939145
 30
0.0
 11
0.278388497
 21
-0.6750144306
 31
0.0
  0
LINE
  5
1C0
330
182
100
AcDbEntity
  8
0
  6
Continuous
 62
     7
370
    25
100
AcDbLine
 10
0.278388497
 20
-0.6750144306
 30
0.0
 11
-0.8351654894
 21
-0.0321733975
 31
0.0
  0
LINE
  5
1C1
330
182
100
AcDbEntity
  8
0
  6
Continuous
 62
     7
370
    25
100
AcDbLine
 10
-0.8351654894
 20
-0.0321733975
 30
0.0
 11
-0.8351654894
 21
0.3375202767
 31
0.0
  0
VIEWPORT
  5
261
330
182
100
AcDbEntity
  8
0
100
AcDbViewport
 10
0.0
 20
0.0
 30
0.0
 40
8.4
 41
6.4
 68
     1
 69
     1
 12
0.0000000001
 22
-0.0068491622
 13
0.0
 23
0.0
 14
0.5
 24
0.5
 15
0.5
 25
0.5
 16
0.0
 26
0.0
 36
1.0
 17
0.0
 27
0.0
 37
0.0
 42
50.0
 43
0.0
 44
0.0
 45
1.3679743623
 50
0.0
 51
0.0
 72
   100
 90
   557152
  1

281
     0
 71
     1
 74
     0
110
0.0
120
0.0
130
0.0
111
1.0
121
0.0
131
0.0
112
0.0
122
1.0
132
0.0
 79
     0
146
0.0
  0
ENDBLK
  5
185
330
182
100
AcDbEntity
  8
0
100
AcDbBlockEnd
  0
BLOCK
  5
1C4
330
1C2
100
AcDbEntity
  8
0
100
AcDbBlockBegin
  2
*Paper_Space6
 70
     0
 10
0.0
 20
0.0
 30
0.0
  3
*Paper_Space6
  1

  0
SPLINE
  5
1CF
330
1C2
100
AcDbEntity
  8
0
  6
Continuous
 62
     7
370
    25
100
AcDbSpline
210
0.0
220
0.0
230
1.0
 70
     8
 71
     3
 72
    33
 73
    29
 74
     0
 42
0.00000001
 43
0.00000001
 40
0.0
 40
0.0
 40
0.0
 40
0.0
 40
0.0125326067531856
 40
0.0250361822953101
 40
0.0375300657498707
 40
0.0500336412123375
 40
0.0625662478065768
 40
0.0938388079043408
 40
0.1251113680193449
 40
0.1563839278965199
 40
0.1876564873384955
 40
0.2501259052265496
 40
0.3125953222159227
 40
0.3750647407286645
 40
0.4375341572117584
 40
0.5000035755495185
 40
0.5624729938872786
 40
0.6249424103703726
 40
0.6874118288831146
 40
0.7498812458724875
 40
0.8123506637605417
 40
0.8436232232025174
 40
0.8748957830796923
 40
0.9061683431946965
 40
0.9374409032924604
 40
0.9583088819902795
 40
0.9791320210812137
 40
1.0
 40
1.0
 40
1.0
 40
1.0
 10
0.225656869992899
 20
0.1411517623325923
 30
0.0
 10
0.2240624693629912
 20
0.1396371022025682
 30
0.0
 10
0.2208773614594035
 20
0.1366112905835223
 30
0.0
 10
0.2156696131682421
 20
0.1322021575427536
 30
0.0
 10
0.2101572978086304
 20
0.1278983479912306
 30
0.0
 10
0.2043088160304123
 20
0.123708312917678
 30
0.0
 10
0.1950651429300434
 20
0.1176037963472567
 30
0.0
 10
0.181669268952746
 20
0.1099039855374928
 30
0.0
 10
0.1631719919286078
 20
0.1011826199579082
 30
0.0
 10
0.14311074558539
 20
0.0934291975516884
 30
0.0
 10
0.1145432985657396
 20
0.0845070791515238
 30
0.0
 10
0.0758453015545085
 20
0.0761216456562297
 30
0.0
 10
0.0265312547663102
 20
0.0709311516940099
 30
0.0
 10
-0.0238096055638686
 20
0.0707923550760659
 30
0.0
 10
-0.0732335364153482
 20
0.075715247391652
 30
0.0
 10
-0.1198436715761799
 20
0.085509366800894
 30
0.0
 10
-0.1618481087790872
 20
0.0997987893191959
 30
0.0
 10
-0.1976329767386331
 20
0.1180338230183276
 30
0.0
 10
-0.2258224392531538
 20
0.1395154775381648
 30
0.0
 10
-0.2453354372454777
 20
0.1634116917690606
 30
0.0
 10
-0.253736065648155
 20
0.1845975091271615
 30
0.0
 10
-0.2555586485952306
 20
0.2017790136871972
 30
0.0
 10
-0.2544542937434331
 20
0.2146844299178785
 30
0.0
 10
-0.2509133590815791
 20
0.2274709208110937
 30
0.0
 10
-0.2456082117293516
 20
0.2386276437358623
 30
0.0
 10
-0.2394312886610934
 20
0.2481443969512872
 30
0.0
 10
-0.2331735022407039
 20
0.2561271524351921
 30
0.0
 10
-0.2281642099480571
 20
0.2612466596775771
 30
0.0
 10
-0.2256568699928989
 20
0.2638091663770558
 30
0.0
  0
SPLINE
  5
1D0
330
1C2
100
AcDbEntity
  8
0
  6
Continuous
 62
     7
370
    25
100
AcDbSpline
210
0.0
220
0.0
230
1.0
 70
     8
 71
     3
 72
    33
 73
    29
 74
     0
 42
0.00000001
 43
0.00000001
 40
0.0
 40
0.0
 40
0.0
 40
0.0
 40
0.0125326067531859
 40
0.0250361822953101
 40
0.0375300657498708
 40
0.0500336412123374
 40
0.0625662478065767
 40
0.0938388079043405
 40
0.125111368019345
 40
0.1563839278965198
 40
0.1876564873384955
 40
0.2501259052265496
 40
0.3125953222159225
 40
0.3750647407286646
 40
0.4375341572117585
 40
0.5000035755495186
 40
0.5624729938872787
 40
0.6249424103703726
 40
0.6874118288831144
 40
0.7498812458724875
 40
0.8123506637605417
 40
0.8436232232025173
 40
0.8748957830796921
 40
0.9061683431946964
 40
0.9374409032924603
 40
0.9583088819902793
 40
0.9791320210812137
 40
1.0
 40
1.0
 40
1.0
 40
1.0
 10
-0.2256568699928989
 20
0.2638091663770558
 30
0.0
 10
-0.2240624693629911
 20
0.2653238265070799
 30
0.0
 10
-0.2208773614594033
 20
0.2683496381261258
 30
0.0
 10
-0.2156696131682419
 20
0.2727587711668944
 30
0.0
 10
-0.2101572978086302
 20
0.2770625807184175
 30
0.0
 10
-0.2043088160304123
 20
0.2812526157919701
 30
0.0
 10
-0.1950651429300435
 20
0.2873571323623914
 30
0.0
 10
-0.1816692689527461
 20
0.2950569431721553
 30
0.0
 10
-0.1631719919286077
 20
0.3037783087517399
 30
0.0
 10
-0.1431107455853903
 20
0.3115317311579597
 30
0.0
 10
-0.1145432985657395
 20
0.3204538495581242
 30
0.0
 10
-0.0758453015545086
 20
0.3288392830534184
 30
0.0
 10
-0.0265312547663102
 20
0.3340297770156382
 30
0.0
 10
0.0238096055638686
 20
0.3341685736335824
 30
0.0
 10
0.0732335364153482
 20
0.329245681317996
 30
0.0
 10
0.1198436715761799
 20
0.3194515619087542
 30
0.0
 10
0.1618481087790871
 20
0.3051621393904522
 30
0.0
 10
0.1976329767386331
 20
0.2869271056913205
 30
0.0
 10
0.2258224392531536
 20
0.2654454511714835
 30
0.0
 10
0.2453354372454775
 20
0.2415492369405874
 30
0.0
 10
0.2537360656481553
 20
0.2203634195824867
 30
0.0
 10
0.2555586485952303
 20
0.2031819150224511
 30
0.0
 10
0.2544542937434333
 20
0.1902764987917695
 30
0.0
 10
0.2509133590815792
 20
0.1774900078985545
 30
0.0
 10
0.2456082117293518
 20
0.1663332849737856
 30
0.0
 10
0.2394312886610932
 20
0.1568165317583608
 30
0.0
 10
0.2331735022407039
 20
0.1488337762744561
 30
0.0
 10
0.2281642099480572
 20
0.143714269032071
 30
0.0
 10
0.225656869992899
 20
0.1411517623325923
 30
0.0
  0
SPLINE
  5
1D1
330
1C2
100
AcDbEntity
  8
0
  6
Continuous
 62
     7
370
    25
100
AcDbSpline
210
0.0
220
0.0
230
1.0
 70
     8
 71
     3
 72
    25
 73
    21
 74
     0
 42
0.00000001
 43
0.00000001
 40
0.0
 40
0.0
 40
0.0
 40
0.0
 40
0.0312831329788903
 40
0.0625662572676009
 40
0.1250567951293662
 40
0.1875473362123356
 40
0.2500378674090636
 40
0.3125283968556399
 40
0.3750189285896849
 40
0.4375094677711663
 40
0.4999999973155621
 40
0.5624905335572163
 40
0.6249810662988114
 40
0.6874716039678896
 40
0.749962133414466
 40
0.8124526646111945
 40
0.8749432056941635
 40
0.9374337435559289
 40
0.9687168671034627
 40
1.0
 40
1.0
 40
1.0
 40
1.0
 10
0.3219845619745824
 20
0.2402444120998049
 30
0.0
 10
0.3209742803523927
 20
0.2405380943706611
 30
0.0
 10
0.3189537173886609
 20
0.2411254588307913
 30
0.0
 10
0.3152237928051684
 20
0.2425497022851115
 30
0.0
 10
0.3110729733355665
 20
0.2446560213346113
 30
0.0
 10
0.3071609080590383
 20
0.2476405448345274
 30
0.0
 10
0.3044505387882123
 20
0.250959262332351
 30
0.0
 10
0.3030504057007937
 20
0.2544869589606386
 30
0.0
 10
0.3030131377511411
 20
0.2580874454199436
 30
0.0
 10
0.3043404841240756
 20
0.2616225237332082
 30
0.0
 10
0.3069813545265262
 20
0.2649562984249404
 30
0.0
 10
0.3108342756847798
 20
0.2679606636063634
 30
0.0
 10
0.3157511898092568
 20
0.2705201743304909
 30
0.0
 10
0.3215431155862062
 20
0.2725364110147778
 30
0.0
 10
0.3279875624500306
 20
0.2739321189505388
 30
0.0
 10
0.3348365406348361
 20
0.2746528106796923
 30
0.0
 10
0.3418280958022856
 20
0.2746739636787622
 30
0.0
 10
0.3475468077429033
 20
0.2740979558684242
 30
0.0
 10
0.3519347329738985
 20
0.273315941069606
 30
0.0
 10
0.3540165532294541
 20
0.2727883656479752
 30
0.0
 10
0.3550574635127705
 20
0.272524577897743
 30
0.0
  0
SPLINE
  5
1D2
330
1C2
100
AcDbEntity
  8
0
  6
Continuous
 62
     7
370
    25
100
AcDbSpline
210
0.0
220
0.0
230
1.0
 70
     8
 71
     3
 72
    25
 73
    21
 74
     0
 42
0.00000001
 43
0.00000001
 40
0.0
 40
0.0
 40
0.0
 40
0.0
 40
0.031283133156832
 40
0.0625662569646641
 40
0.1250567953463901
 40
0.1875473247668869
 40
0.2500378671615733
 40
0.3125283971281131
 40
0.3750189353171541
 40
0.4375094645688594
 40
0.5000000026844378
 40
0.5624905341027578
 40
0.6249810697943496
 40
0.6874716020483574
 40
0.7499621320148969
 40
0.8124526744095831
 40
0.8749432038300802
 40
0.9374337422118059
 40
0.968716866760815
 40
1.0
 40
1.0
 40
1.0
 40
1.0
 10
0.3550574635127705
 20
0.272524577897743
 30
0.0
 10
0.3560677451410904
 20
0.2722308956395879
 30
0.0
 10
0.3580883080958063
 20
0.2716435312110447
 30
0.0
 10
0.361818233243057
 20
0.2702192881921796
 30
0.0
 10
0.3659690524427557
 20
0.268112969220625
 30
0.0
 10
0.3698811162872047
 20
0.2651284453573201
 30
0.0
 10
0.3725914873372511
 20
0.2618097282819098
 30
0.0
 10
0.3739916200252339
 20
0.2582820312686527
 30
0.0
 10
0.3740288883142835
 20
0.2546815448041052
 30
0.0
 10
0.3727015390771329
 20
0.251146466846479
 30
0.0
 10
0.3700606724082175
 20
0.2478126914509819
 30
0.0
 10
0.366207747502672
 20
0.2448083274269467
 30
0.0
 10
0.3612908365991022
 20
0.2422488154258496
 30
0.0
 10
0.3554989098022012
 20
0.2402325794564812
 30
0.0
 10
0.3490544631422515
 20
0.2388368710701947
 30
0.0
 10
0.3422054846074304
 20
0.2381161804175989
 30
0.0
 10
0.3352139295699136
 20
0.2380950264296232
 30
0.0
 10
0.3294952181910536
 20
0.2386710346898441
 30
0.0
 10
0.3251072925870891
 20
0.2394530489426175
 30
0.0
 10
0.3230254722751365
 20
0.2399806243563165
 30
0.0
 10
0.3219845619745824
 20
0.2402444120998049
 30
0.0
  0
SPLINE
  5
1D3
330
1C2
100
AcDbEntity
  8
0
  6
Continuous
 62
     7
370
    25
100
AcDbSpline
210
0.0
220
0.0
230
1.0
 70
     8
 71
     3
 72
    25
 73
    21
 74
     0
 42
0.00000001
 43
0.00000001
 40
0.0
 40
0.0
 40
0.0
 40
0.0
 40
0.0312831328965373
 40
0.0625662564440714
 40
0.1250567943058366
 40
0.1875473353888057
 40
0.2500378665855339
 40
0.3125283960321102
 40
0.3750189337011886
 40
0.4375094664427839
 40
0.5000000026844379
 40
0.5624905322288334
 40
0.6249810714103149
 40
0.68747160314436
 40
0.7499621325909362
 40
0.8124526637876641
 40
0.8749432048706336
 40
0.9374337427323989
 40
0.9687168670211098
 40
1.0
 40
1.0
 40
1.0
 40
1.0
 10
0.0881238324852411
 20
0.0119891707861259
 30
0.0
 10
0.0871135508594464
 20
0.0122828530450641
 30
0.0
 10
0.0850929879097809
 20
0.0128702174751732
 30
0.0
 10
0.0813630627120565
 20
0.0142944604783873
 30
0.0
 10
0.0772122435794191
 20
0.0164007797352901
 30
0.0
 10
0.0733001781897507
 20
0.0193853031654577
 30
0.0
 10
0.0705898089908453
 20
0.0227040206814663
 30
0.0
 10
0.0691896756845591
 20
0.0262317174184431
 30
0.0
 10
0.0691524084259724
 20
0.0298322038652906
 30
0.0
 10
0.0704797542987207
 20
0.0333672823250944
 30
0.0
 10
0.073120624819408
 20
0.0367010568987044
 30
0.0
 10
0.0769735462337205
 20
0.0397054220965238
 30
0.0
 10
0.0818904598410228
 20
0.0422649329506094
 30
0.0
 10
0.0876823860279706
 20
0.044281169348108
 30
0.0
 10
0.0941268325940601
 20
0.0456768773155813
 30
0.0
 10
0.1009758107903096
 20
0.046397569003893
 30
0.0
 10
0.1079673660056975
 20
0.046418722090432
 30
0.0
 10
0.1136860778040673
 20
0.0458427140197711
 30
0.0
 10
0.1180740034114329
 20
0.0450606997367048
 30
0.0
 10
0.1201558237230452
 20
0.0445331243260369
 30
0.0
 10
0.1211967340234293
 20
0.044269336584064
 30
0.0
  0
SPLINE
  5
1D4
330
1C2
100
AcDbEntity
  8
0
  6
Continuous
 62
     7
370
    25
100
AcDbSpline
210
0.0
220
0.0
230
1.0
 70
     8
 71
     3
 72
    25
 73
    21
 74
     0
 42
0.00000001
 43
0.00000001
 40
0.0
 40
0.0
 40
0.0
 40
0.0
 40
0.0312831332391849
 40
0.0625662577881938
 40
0.1250567961699194
 40
0.1875473255904165
 40
0.2500378679851028
 40
0.3125283979516424
 40
0.3750189302056502
 40
0.4375094658972424
 40
0.4999999973155621
 40
0.5624905354311401
 40
0.6249810646828459
 40
0.6874716028718866
 40
0.7499621328384265
 40
0.812452675233113
 40
0.8749432046536095
 40
0.9374337430353362
 40
0.968716866843168
 40
1.0
 40
1.0
 40
1.0
 40
1.0
 10
0.1211967340234293
 20
0.044269336584064
 30
0.0
 10
0.122207015648144
 20
0.0439756543139908
 30
0.0
 10
0.1242275786169262
 20
0.0433882898554267
 30
0.0
 10
0.1279575031499453
 20
0.0419640463854554
 30
0.0
 10
0.1321083226866082
 20
0.0398577276213037
 30
0.0
 10
0.136020386417917
 20
0.0368732036882502
 30
0.0
 10
0.138730757539884
 20
0.0335544866310252
 30
0.0
 10
0.1401308900089993
 20
0.0300267897264572
 30
0.0
 10
0.1401681589891149
 20
0.0264263032494523
 30
0.0
 10
0.1388408092517777
 20
0.022891225438365
 30
0.0
 10
0.1361999427010994
 20
0.0195574499247459
 30
0.0
 10
0.1323470180516128
 20
0.0165530859171071
 30
0.0
 10
0.1274301066308684
 20
0.0139935740459681
 30
0.0
 10
0.1216381802439653
 20
0.0119773377898112
 30
0.0
 10
0.1151937332862809
 20
0.0105816294352372
 30
0.0
 10
0.108344754762904
 20
0.0098609387417997
 30
0.0
 10
0.1013531997733254
 20
0.0098397848412928
 30
0.0
 10
0.0956344882522176
 20
0.010415792841191
 30
0.0
 10
0.0912465630246235
 20
0.0111978076097162
 30
0.0
 10
0.0891647427687276
 20
0.0117253830343782
 30
0.0
 10
0.0881238324852411
 20
0.0119891707861259
 30
0.0
  0
SPLINE
  5
1D5
330
1C2
100
AcDbEntity
  8
0
  6
Continuous
 62
     7
370
    25
100
AcDbSpline
210
0.0
220
0.0
230
1.0
 70
     8
 71
     3
 72
    25
 73
    21
 74
     0
 42
0.00000001
 43
0.00000001
 40
0.0
 40
0.0
 40
0.0
 40
0.0
 40
0.0312831331568326
 40
0.062566256964665
 40
0.1250567953463917
 40
0.1875473247668872
 40
0.2500378671615736
 40
0.3125283971281136
 40
0.3750189353171539
 40
0.43750946456886
 40
0.500000002684438
 40
0.5624905341027577
 40
0.6249810697943502
 40
0.6874716020483574
 40
0.749962132014897
 40
0.8124526744095832
 40
0.8749432038300791
 40
0.9374337422118055
 40
0.9687168667608141
 40
1.0
 40
1.0
 40
1.0
 40
1.0
 10
-0.3550574635127705
 20
0.132436350811905
 30
0.0
 10
-0.3560677451410904
 20
0.1327300330700603
 30
0.0
 10
-0.3580883080958063
 20
0.1333173974986034
 30
0.0
 10
-0.3618182332430572
 20
0.1347416405174684
 30
0.0
 10
-0.3659690524427558
 20
0.1368479594890231
 30
0.0
 10
-0.3698811162872047
 20
0.1398324833523285
 30
0.0
 10
-0.3725914873372511
 20
0.1431512004277381
 30
0.0
 10
-0.3739916200252341
 20
0.1466788974409954
 30
0.0
 10
-0.3740288883142833
 20
0.1502793839055429
 30
0.0
 10
-0.372701539077133
 20
0.1538144618631692
 30
0.0
 10
-0.3700606724082175
 20
0.1571482372586661
 30
0.0
 10
-0.3662077475026719
 20
0.1601526012827015
 30
0.0
 10
-0.3612908365991022
 20
0.1627121132837984
 30
0.0
 10
-0.3554989098022011
 20
0.164728349253167
 30
0.0
 10
-0.3490544631422515
 20
0.1661240576394533
 30
0.0
 10
-0.3422054846074306
 20
0.1668447482920492
 30
0.0
 10
-0.3352139295699135
 20
0.166865902280025
 30
0.0
 10
-0.3294952181910538
 20
0.166289894019804
 30
0.0
 10
-0.3251072925870893
 20
0.1655078797670307
 30
0.0
 10
-0.3230254722751366
 20
0.1649803043533316
 30
0.0
 10
-0.3219845619745824
 20
0.1647165166098432
 30
0.0
  0
SPLINE
  5
1D6
330
1C2
100
AcDbEntity
  8
0
  6
Continuous
 62
     7
370
    25
100
AcDbSpline
210
0.0
220
0.0
230
1.0
 70
     8
 71
     3
 72
    25
 73
    21
 74
     0
 42
0.00000001
 43
0.00000001
 40
0.0
 40
0.0
 40
0.0
 40
0.0
 40
0.03128313297889
 40
0.0625662572676026
 40
0.1250567951293664
 40
0.1875473362123348
 40
0.2500378674090639
 40
0.3125283968556403
 40
0.3750189285896847
 40
0.4375094677711666
 40
0.4999999973155626
 40
0.5624905335572165
 40
0.6249810662988123
 40
0.6874716039678899
 40
0.7499621334144663
 40
0.8124526646111957
 40
0.8749432056941635
 40
0.9374337435559273
 40
0.9687168671034627
 40
1.0
 40
1.0
 40
1.0
 40
1.0
 10
-0.3219845619745824
 20
0.1647165166098432
 30
0.0
 10
-0.3209742803523928
 20
0.1644228343389869
 30
0.0
 10
-0.318953717388661
 20
0.1638354698788568
 30
0.0
 10
-0.3152237928051682
 20
0.1624112264245366
 30
0.0
 10
-0.3110729733355667
 20
0.1603049073750368
 30
0.0
 10
-0.3071609080590383
 20
0.1573203838751207
 30
0.0
 10
-0.3044505387882124
 20
0.1540016663772971
 30
0.0
 10
-0.3030504057007936
 20
0.1504739697490096
 30
0.0
 10
-0.3030131377511413
 20
0.1468734832897045
 30
0.0
 10
-0.3043404841240756
 20
0.1433384049764397
 30
0.0
 10
-0.306981354526526
 20
0.1400046302847077
 30
0.0
 10
-0.3108342756847798
 20
0.1370002651032847
 30
0.0
 10
-0.3157511898092569
 20
0.1344407543791572
 30
0.0
 10
-0.3215431155862062
 20
0.1324245176948703
 30
0.0
 10
-0.3279875624500306
 20
0.1310288097591092
 30
0.0
 10
-0.3348365406348362
 20
0.130308118029956
 30
0.0
 10
-0.3418280958022856
 20
0.1302869650308857
 30
0.0
 10
-0.3475468077429032
 20
0.1308629728412239
 30
0.0
 10
-0.3519347329738985
 20
0.1316449876400421
 30
0.0
 10
-0.3540165532294541
 20
0.132172563061673
 30
0.0
 10
-0.3550574635127705
 20
0.132436350811905
 30
0.0
  0
SPLINE
  5
1D7
330
1C2
100
AcDbEntity
  8
0
  6
Continuous
 62
     7
370
    25
100
AcDbSpline
210
0.0
220
0.0
230
1.0
 70
     8
 71
     3
 72
    25
 73
    21
 74
     0
 42
0.00000001
 43
0.00000001
 40
0.0
 40
0.0
 40
0.0
 40
0.0
 40
0.0312831332391858
 40
0.0625662577881947
 40
0.1250567961699212
 40
0.1875473255904169
 40
0.2500378679851032
 40
0.3125283979516428
 40
0.37501893020565
 40
0.4375094658972422
 40
0.4999999973155622
 40
0.5624905354311406
 40
0.6249810646828461
 40
0.6874716028718865
 40
0.7499621328384264
 40
0.8124526752331129
 40
0.8749432046536084
 40
0.937433743035335
 40
0.9687168668431674
 40
1.0
 40
1.0
 40
1.0
 40
1.0
 10
-0.1211967340234293
 20
0.3606915921255841
 30
0.0
 10
-0.122207015648144
 20
0.3609852743956573
 30
0.0
 10
-0.1242275786169263
 20
0.3615726388542215
 30
0.0
 10
-0.1279575031499454
 20
0.3629968823241926
 30
0.0
 10
-0.1321083226866084
 20
0.3651032010883443
 30
0.0
 10
-0.1360203864179169
 20
0.3680877250213982
 30
0.0
 10
-0.138730757539884
 20
0.3714064420786228
 30
0.0
 10
-0.1401308900089993
 20
0.3749341389831908
 30
0.0
 10
-0.1401681589891147
 20
0.3785346254601958
 30
0.0
 10
-0.1388408092517778
 20
0.3820697032712829
 30
0.0
 10
-0.1361999427010994
 20
0.3854034787849023
 30
0.0
 10
-0.1323470180516128
 20
0.388407842792541
 30
0.0
 10
-0.1274301066308683
 20
0.39096735466368
 30
0.0
 10
-0.1216381802439653
 20
0.3929835909198368
 30
0.0
 10
-0.1151937332862809
 20
0.3943792992744108
 30
0.0
 10
-0.1083447547629041
 20
0.3950999899678485
 30
0.0
 10
-0.1013531997733254
 20
0.3951211438683553
 30
0.0
 10
-0.0956344882522177
 20
0.394545135868457
 30
0.0
 10
-0.0912465630246236
 20
0.393763121099932
 30
0.0
 10
-0.0891647427687277
 20
0.3932355456752698
 30
0.0
 10
-0.0881238324852411
 20
0.3929717579235222
 30
0.0
  0
SPLINE
  5
1D8
330
1C2
100
AcDbEntity
  8
0
  6
Continuous
 62
     7
370
    25
100
AcDbSpline
210
0.0
220
0.0
230
1.0
 70
     8
 71
     3
 72
    25
 73
    21
 74
     0
 42
0.00000001
 43
0.00000001
 40
0.0
 40
0.0
 40
0.0
 40
0.0
 40
0.031283132896537
 40
0.0625662564440728
 40
0.1250567943058365
 40
0.1875473353888043
 40
0.250037866585534
 40
0.3125283960321104
 40
0.3750189337011878
 40
0.4375094664427834
 40
0.5000000026844379
 40
0.5624905322288339
 40
0.6249810714103156
 40
0.68747160314436
 40
0.7499621325909364
 40
0.8124526637876656
 40
0.8749432048706339
 40
0.9374337427323977
 40
0.9687168670211098
 40
1.0
 40
1.0
 40
1.0
 40
1.0
 10
-0.0881238324852411
 20
0.3929717579235222
 30
0.0
 10
-0.0871135508594464
 20
0.392678075664584
 30
0.0
 10
-0.0850929879097808
 20
0.3920907112344748
 30
0.0
 10
-0.0813630627120565
 20
0.3906664682312605
 30
0.0
 10
-0.0772122435794191
 20
0.388560148974358
 30
0.0
 10
-0.0733001781897509
 20
0.3855756255441905
 30
0.0
 10
-0.0705898089908453
 20
0.3822569080281818
 30
0.0
 10
-0.0691896756845589
 20
0.3787292112912051
 30
0.0
 10
-0.0691524084259727
 20
0.3751287248443573
 30
0.0
 10
-0.0704797542987206
 20
0.3715936463845538
 30
0.0
 10
-0.0731206248194078
 20
0.3682598718109438
 30
0.0
 10
-0.0769735462337205
 20
0.3652555066131243
 30
0.0
 10
-0.081890459841023
 20
0.3626959957590388
 30
0.0
 10
-0.0876823860279706
 20
0.3606797593615403
 30
0.0
 10
-0.0941268325940601
 20
0.3592840513940665
 30
0.0
 10
-0.1009758107903097
 20
0.3585633597057553
 30
0.0
 10
-0.1079673660056975
 20
0.358542206619216
 30
0.0
 10
-0.1136860778040674
 20
0.3591182146898769
 30
0.0
 10
-0.1180740034114327
 20
0.3599002289729433
 30
0.0
 10
-0.1201558237230452
 20
0.3604278043836112
 30
0.0
 10
-0.1211967340234293
 20
0.3606915921255841
 30
0.0
  0
SPLINE
  5
1D9
330
1C2
100
AcDbEntity
  8
0
  6
Continuous
 62
     7
370
    25
100
AcDbSpline
210
0.0
220
0.0
230
1.0
 70
     8
 71
     3
 72
    29
 73
    25
 74
     0
 42
0.00000001
 43
0.00000001
 40
0.0
 40
0.0
 40
0.0
 40
0.0
 40
0.0156625311555114
 40
0.0312872383925571
 40
0.0469119450785907
 40
0.0625744745850577
 40
0.0938522785231681
 40
0.1251300816531743
 40
0.1876099763416512
 40
0.2500898676973014
 40
0.3125697599567719
 40
0.3750496505856
 40
0.4375295425661138
 40
0.5000094346492798
 40
0.5624893267324459
 40
0.6249692167795184
 40
0.6874491091902164
 40
0.7499290014496868
 40
0.8124088928053367
 40
0.8748887874938137
 40
0.9061665902833747
 40
0.9374443944668319
 40
0.9687221960334929
 40
1.0
 40
1.0
 40
1.0
 40
1.0
 10
0.6114244026454166
 20
0.1048510912498233
 30
0.0
 10
0.6097274000948895
 20
0.1053281288844751
 30
0.0
 10
0.6063374931364327
 20
0.1062810521412195
 30
0.0
 10
0.601435005422992
 20
0.1078704856112738
 30
0.0
 10
0.5966803390960708
 20
0.1095734918590919
 30
0.0
 10
0.5905676690631372
 20
0.1120052510502217
 30
0.0
 10
0.5833653132456387
 20
0.1153289340562428
 30
0.0
 10
0.5729307337635504
 20
0.1211977372671246
 30
0.0
 10
0.562053907914511
 20
0.1294816887718601
 30
0.0
 10
0.5530333971887796
 20
0.1405339679112041
 30
0.0
 10
0.5483691331795564
 20
0.1522819249633879
 30
0.0
 10
0.5482454289468802
 20
0.1642723603047666
 30
0.0
 10
0.5526656838128051
 20
0.1760449526981977
 30
0.0
 10
0.5614603935321221
 20
0.1871471620169513
 30
0.0
 10
0.5742914649674195
 20
0.1971523778308672
 30
0.0
 10
0.5906659230181763
 20
0.2056760641638709
 30
0.0
 10
0.6099541535509069
 20
0.2123907871589141
 30
0.0
 10
0.6314162259553898
 20
0.2170380338961633
 30
0.0
 10
0.6542224919767231
 20
0.2194409695048838
 30
0.0
 10
0.6736373760640527
 20
0.2194907515234295
 30
0.0
 10
0.6889361686306124
 20
0.2183689021649123
 30
0.0
 10
0.7001940819850316
 20
0.2169386781331972
 30
0.0
 10
0.7111663358194158
 20
0.2149872190896401
 30
0.0
 10
0.7180984548369972
 20
0.2132298843192721
 30
0.0
 10
0.7215645144787578
 20
0.2123512169003794
 30
0.0
  0
SPLINE
  5
1DA
330
1C2
100
AcDbEntity
  8
0
  6
Continuous
 62
     7
370
    25
100
AcDbSpline
210
0.0
220
0.0
230
1.0
 70
     8
 71
     3
 72
    29
 73
    25
 74
     0
 42
0.00000001
 43
0.00000001
 40
0.0
 40
0.0
 40
0.0
 40
0.0
 40
0.0156625311526155
 40
0.0312872383620116
 40
0.0469119449709011
 40
0.0625744743263496
 40
0.0938522785101891
 40
0.1251300813001327
 40
0.1876099759893737
 40
0.2500898673457874
 40
0.3125697596060216
 40
0.3750496520174835
 40
0.4375295420653199
 40
0.5000094341492497
 40
0.5624893262331795
 40
0.6249692182144572
 40
0.6874491088440493
 40
0.7499290011042836
 40
0.8124088924606976
 40
0.8748887871499385
 40
0.9061665902803279
 40
0.9374443942188201
 40
0.9687221960083873
 40
1.0
 40
1.0
 40
1.0
 40
1.0
 10
0.7215645144787578
 20
0.2123512169003794
 30
0.0
 10
0.7232615170325069
 20
0.2118741792696428
 30
0.0
 10
0.726651423994717
 20
0.2109212560214732
 30
0.0
 10
0.7315539117803145
 20
0.2093318226237712
 30
0.0
 10
0.7363085781825319
 20
0.2076288164660431
 30
0.0
 10
0.7424212486285036
 20
0.2051970575377616
 30
0.0
 10
0.7496236037767072
 20
0.2018733741667482
 30
0.0
 10
0.7600581840142165
 20
0.1960045713488805
 30
0.0
 10
0.7709350094726855
 20
0.1877206196703547
 30
0.0
 10
0.7799555202747624
 20
0.1766683405931959
 30
0.0
 10
0.784619784463081
 20
0.164920383410745
 30
0.0
 10
0.7847434880155456
 20
0.152929948087766
 30
0.0
 10
0.7803232336935518
 20
0.1411573556718912
 30
0.0
 10
0.7715285239302079
 20
0.1300551464632995
 30
0.0
 10
0.758697452293496
 20
0.1200499306059457
 30
0.0
 10
0.7423229945856662
 20
0.111526244054266
 30
0.0
 10
0.7230347636396816
 20
0.1048115213383489
 30
0.0
 10
0.701572691544541
 20
0.1001642745973317
 30
0.0
 10
0.6787664254686011
 20
0.097761338925322
 30
0.0
 10
0.6593515414332467
 20
0.0977115571576477
 30
0.0
 10
0.6440527486756429
 20
0.0988334060002524
 30
0.0
 10
0.6327948355288333
 20
0.1002636305379857
 30
0.0
 10
0.621822581363989
 20
0.1022150890520645
 30
0.0
 10
0.6148904622996142
 20
0.1039724238299502
 30
0.0
 10
0.6114244026454166
 20
0.1048510912498233
 30
0.0
  0
SPLINE
  5
1DE
330
1C2
100
AcDbEntity
  8
0
  6
Continuous
 62
     7
370
    25
100
AcDbSpline
210
0.0
220
0.0
230
1.0
 70
     8
 71
     3
 72
    12
 73
     8
 74
     0
 42
0.00000001
 43
0.00000001
 40
0.0
 40
0.0
 40
0.0
 40
0.0
 40
0.3333333333333333
 40
0.3333333333333333
 40
0.6666666666666665
 40
0.6666666666666665
 40
0.9999999999999999
 40
0.9999999999999999
 40
0.9999999999999999
 40
0.9999999999999999
 10
0.7515137244939846
 20
-0.1267035533604838
 30
0.0
 10
0.7515137244939846
 20
-0.0905391827129058
 30
0.0
 10
0.7410051355490864
 20
-0.0673658306883023
 30
0.0
 10
0.7069008108991869
 20
-0.0644883264239949
 30
0.0
 10
0.6858836330118792
 20
-0.0850017363612975
 30
0.0
 10
0.6517793083700566
 20
-0.1544529733928274
 30
0.0
 10
0.6412707194326248
 20
-0.1981397353498753
 30
0.0
 10
0.6412707194407018
 20
-0.2343041059895698
 30
0.0
  0
SPLINE
  5
1DF
330
1C2
100
AcDbEntity
  8
0
  6
Continuous
 62
     7
370
    25
100
AcDbSpline
210
0.0
220
0.0
230
1.0
 70
     8
 71
     3
 72
    14
 73
    10
 74
     0
 42
0.00000001
 43
0.00000001
 40
0.0
 40
0.0
 40
0.0
 40
0.0
 40
0.25
 40
0.25
 40
0.5000000000000001
 40
0.5000000000000001
 40
0.75
 40
0.75
 40
1.0
 40
1.0
 40
1.0
 40
1.0
 10
0.6412707194407018
 20
-0.2343041059895698
 30
0.0
 10
0.6412707194466984
 20
-0.2611539250942164
 30
0.0
 10
0.6470784393461472
 20
-0.2812375588351224
 30
0.0
 10
0.667752428157463
 20
-0.2990304902882082
 30
0.0
 10
0.6817735042948843
 20
-0.2960123784405974
 30
0.0
 10
0.7110109396525144
 20
-0.2674757452103432
 30
0.0
 10
0.7250320157885961
 20
-0.2431238567611577
 30
0.0
 10
0.7457060045951441
 20
-0.184974031563429
 30
0.0
 10
0.7515137244913593
 20
-0.153553372491727
 30
0.0
 10
0.7515137244939846
 20
-0.1267035533786651
 30
0.0
  0
SPLINE
  5
1E2
330
1C2
100
AcDbEntity
  8
0
  6
Continuous
 62
     7
370
    25
100
AcDbSpline
210
0.0
220
0.0
230
1.0
 70
     8
 71
     3
 72
    11
 73
     7
 74
     0
 42
0.00000001
 43
0.00000001
 40
0.0
 40
0.0
 40
0.0
 40
0.0
 40
0.2430481018733302
 40
0.4953654012488868
 40
0.7476827006244435
 40
1.0
 40
1.0
 40
1.0
 40
1.0
 10
0.7179324773440873
 20
-0.0663841165127639
 30
0.0
 10
0.7202500032613887
 20
-0.0688947502826207
 30
0.0
 10
0.7249734392688298
 20
-0.0740117666065839
 30
0.0
 10
0.7299124612801646
 20
-0.086758207118821
 30
0.0
 10
0.7332148709328874
 20
-0.1026048941404886
 30
0.0
 10
0.7336218650179199
 20
-0.1154657883580331
 30
0.0
 10
0.7338253620604361
 20
-0.1218962354668053
 30
0.0
  0
SPLINE
  5
1E3
330
1C2
100
AcDbEntity
  8
0
  6
Continuous
 62
     7
370
    25
100
AcDbSpline
210
0.0
220
0.0
230
1.0
 70
     8
 71
     3
 72
    18
 73
    14
 74
     0
 42
0.00000001
 43
0.00000001
 40
0.0
 40
0.0
 40
0.0
 40
0.0
 40
0.0995339971880433
 40
0.199067994376087
 40
0.2986019915641313
 40
0.3981359887521745
 40
0.4976699859402178
 40
0.5972039831282616
 40
0.6967379803163053
 40
0.7962719775043491
 40
0.8958059746923928
 40
0.9953399718804364
 40
1.0
 40
1.0
 40
1.0
 40
1.0
 10
0.7338253620604362
 20
-0.1218962354849867
 30
0.0
 10
0.7336202162685161
 20
-0.1287225647581615
 30
0.0
 10
0.7332099246846759
 20
-0.1423752233045112
 30
0.0
 10
0.7299322462654575
 20
-0.1646887645099747
 30
0.0
 10
0.7248380153566633
 20
-0.1872767018824792
 30
0.0
 10
0.7179299755101406
 20
-0.209460085630869
 30
0.0
 10
0.709525969152704
 20
-0.2303327132057345
 30
0.0
 10
0.6999325011018126
 20
-0.2491181994723469
 30
0.0
 10
0.6895316983596176
 20
-0.2650453833329599
 30
0.0
 10
0.6786858927555434
 20
-0.2776734353901898
 30
0.0
 10
0.6679478878591136
 20
-0.2858813386970323
 30
0.0
 10
0.6606310543749666
 20
-0.289868539715488
 30
0.0
 10
0.6573120452593566
 20
-0.2898184644922561
 30
0.0
 10
0.6571636041586106
 20
-0.2898162249017646
 30
0.0
  0
SPLINE
  5
1E4
330
1C2
100
AcDbEntity
  8
0
  6
Continuous
 62
     7
370
    25
100
AcDbSpline
210
0.0
220
0.0
230
1.0
 70
     8
 71
     3
 72
    28
 73
    24
 74
     0
 42
0.00000001
 43
0.00000001
 40
0.0
 40
0.0
 40
0.0
 40
0.0
 40
0.0208715803012836
 40
0.0416983130010125
 40
0.0625698930639837
 40
0.093847849343248
 40
0.1251258054334642
 40
0.1876060025173522
 40
0.2500862001477294
 40
0.3125663977781067
 40
0.3750465948619946
 40
0.4375267915170281
 40
0.500006989616215
 40
0.5624871877154018
 40
0.6249673843704354
 40
0.6874475814543234
 40
0.7499277790847005
 40
0.8124079767150778
 40
0.8748881737989657
 40
0.906166129889182
 40
0.9374440861684464
 40
0.9687220429500465
 40
1.0
 40
1.0
 40
1.0
 40
1.0
 10
0.6557365667376882
 20
-0.1981132936244926
 30
0.0
 10
0.6557459682590261
 20
-0.1971831529337836
 30
0.0
 10
0.6557647511002758
 20
-0.1953248701829667
 30
0.0
 10
0.6559176911563072
 20
-0.1924264214119853
 30
0.0
 10
0.6562021631636821
 20
-0.1889703699182887
 30
0.0
 10
0.6566899619862431
 20
-0.184917306535609
 30
0.0
 10
0.6577033758055526
 20
-0.178727942427296
 30
0.0
 10
0.6594842459520058
 20
-0.1708674537963936
 30
0.0
 10
0.6623588179661578
 20
-0.1616295897225966
 30
0.0
 10
0.6658616689892782
 20
-0.1529304717596974
 30
0.0
 10
0.6698579983706306
 20
-0.1451067323246288
 30
0.0
 10
0.6741942800619204
 20
-0.1384584088670591
 30
0.0
 10
0.6787038593070633
 20
-0.1332411619877363
 30
0.0
 10
0.6832134399125948
 20
-0.1296554324444633
 30
0.0
 10
0.6875497175227199
 20
-0.1278390717203108
 30
0.0
 10
0.6915460618683432
 20
-0.1278617182201027
 30
0.0
 10
0.6950488571155433
 20
-0.1297231044931333
 30
0.0
 10
0.6979236372691049
 20
-0.1333494475957976
 30
0.0
 10
0.6997038599405764
 20
-0.1377341289200914
 30
0.0
 10
0.7007185953326599
 20
-0.1419441032562039
 30
0.0
 10
0.7012632022965
 20
-0.1454352345531115
 30
0.0
 10
0.7016076485304162
 20
-0.1492002572126635
 30
0.0
 10
0.7016499843966789
 20
-0.151919905664782
 30
0.0
 10
0.7016711523299012
 20
-0.1532797298966746
 30
0.0
  0
SPLINE
  5
1E5
330
1C2
100
AcDbEntity
  8
0
  6
Continuous
 62
     7
370
    25
100
AcDbSpline
210
0.0
220
0.0
230
1.0
 70
     8
 71
     3
 72
    28
 73
    24
 74
     0
 42
0.00000001
 43
0.00000001
 40
0.0
 40
0.0
 40
0.0
 40
0.0
 40
0.0208715803012834
 40
0.0416983130010123
 40
0.0625698930639836
 40
0.0938478493432481
 40
0.1251258054334642
 40
0.1876060025173522
 40
0.2500862001477294
 40
0.3125663977781067
 40
0.3750465948619945
 40
0.4375267915170281
 40
0.5000069896162149
 40
0.5624871877154017
 40
0.6249673843704353
 40
0.6874475814543232
 40
0.7499277790847004
 40
0.8124079767150777
 40
0.8748881737989657
 40
0.9061661298891819
 40
0.9374440861684463
 40
0.9687220429500464
 40
1.0
 40
1.0
 40
1.0
 40
1.0
 10
0.7016711523299012
 20
-0.1532797298966746
 30
0.0
 10
0.7016617508085633
 20
-0.1542098705873836
 30
0.0
 10
0.7016429679673136
 20
-0.1560681533382005
 30
0.0
 10
0.7014900279112826
 20
-0.158966602109182
 30
0.0
 10
0.7012055559039073
 20
-0.1624226536028785
 30
0.0
 10
0.7007177570813464
 20
-0.1664757169855583
 30
0.0
 10
0.6997043432620367
 20
-0.1726650810938711
 30
0.0
 10
0.6979234731155837
 20
-0.1805255697247736
 30
0.0
 10
0.6950489011014314
 20
-0.1897634337985705
 30
0.0
 10
0.6915460500783113
 20
-0.1984625517614698
 30
0.0
 10
0.6875497206969591
 20
-0.2062862911965385
 30
0.0
 10
0.6832134390056689
 20
-0.2129346146541081
 30
0.0
 10
0.6787038597605262
 20
-0.218151861533431
 30
0.0
 10
0.6741942791549951
 20
-0.2217375910767041
 30
0.0
 10
0.6698580015448695
 20
-0.2235539518008564
 30
0.0
 10
0.6658616571992462
 20
-0.2235313053010645
 30
0.0
 10
0.6623588619520465
 20
-0.2216699190280341
 30
0.0
 10
0.6594840817984842
 20
-0.2180435759253695
 30
0.0
 10
0.6577038591270132
 20
-0.2136588946010759
 30
0.0
 10
0.6566891237349289
 20
-0.2094489202649632
 30
0.0
 10
0.6561445167710896
 20
-0.2059577889680558
 30
0.0
 10
0.655800070537173
 20
-0.2021927663085037
 30
0.0
 10
0.6557577346709105
 20
-0.1994731178563852
 30
0.0
 10
0.6557365667376882
 20
-0.1981132936244926
 30
0.0
  0
SPLINE
  5
1E7
330
1C2
100
AcDbEntity
  8
0
  6
Continuous
 62
     7
370
    25
100
AcDbSpline
210
0.0
220
0.0
230
1.0
 70
     8
 71
     3
 72
    11
 73
     7
 74
     0
 42
0.00000001
 43
0.00000001
 40
0.0
 40
0.0
 40
0.0
 40
0.0
 40
0.20541863397257
 40
0.4702790893150466
 40
0.7351395446575224
 40
1.0
 40
1.0
 40
1.0
 40
1.0
 10
0.1270370317154818
 20
0.0139980515286778
 30
0.0
 10
0.1279260544538932
 20
0.0152081387385947
 30
0.0
 10
0.1299613557102351
 20
0.0179784751003265
 30
0.0
 10
0.1286899132354499
 20
0.0226822726288311
 30
0.0
 10
0.1241883054539422
 20
0.0272261822501679
 30
0.0
 10
0.1188253881558031
 20
0.0291135875356907
 30
0.0
 10
0.1161439295067335
 20
0.0300572901784521
 30
0.0
  0
SPLINE
  5
1E8
330
1C2
100
AcDbEntity
  8
0
  6
Continuous
 62
     7
370
    25
100
AcDbSpline
210
0.0
220
0.0
230
1.0
 70
     8
 71
     3
 72
    14
 73
    10
 74
     0
 42
0.00000001
 43
0.00000001
 40
0.0
 40
0.0
 40
0.0
 40
0.0
 40
0.0425362021754431
 40
0.2021135018128689
 40
0.3616908014502954
 40
0.521268101087722
 40
0.6808454007251478
 40
0.8404227003625738
 40
1.0
 40
1.0
 40
1.0
 40
1.0
 10
0.0823702628598773
 20
0.0139464526541319
 30
0.0
 10
0.0819350944310118
 20
0.0143268137338858
 30
0.0
 10
0.0798673636384593
 20
0.0161341238803183
 30
0.0
 10
0.0796870823234608
 20
0.0200967723948117
 30
0.0
 10
0.0822858398875286
 20
0.0249046770374899
 30
0.0
 10
0.0885577170627586
 20
0.0288650060358861
 30
0.0
 10
0.0971783767769857
 20
0.0312500843023416
 30
0.0
 10
0.1070820242453715
 20
0.0318743901150066
 30
0.0
 10
0.1131232944196129
 20
0.0306629901573036
 30
0.0
 10
0.1161439295067335
 20
0.0300572901784521
 30
0.0
  0
SPLINE
  5
1E9
330
1C2
100
AcDbEntity
  8
0
  6
Continuous
 62
     7
370
    25
100
AcDbSpline
210
0.0
220
0.0
230
1.0
 70
     8
 71
     3
 72
     9
 73
     5
 74
     0
 42
0.00000001
 43
0.00000001
 40
0.0
 40
0.0
 40
0.0
 40
0.0
 40
0.0146923885825988
 40
1.0
 40
1.0
 40
1.0
 40
1.0
 10
0.6746778094975424
 20
-0.138170929006711
 30
0.0
 10
0.674684337394176
 20
-0.1382038791233583
 30
0.0
 10
0.6751286420487058
 20
-0.1404465448725008
 30
0.0
 10
0.6751336621264903
 20
-0.1432784528236889
 30
0.0
 10
0.675138608447341
 20
-0.146068753282828
 30
0.0
  0
SPLINE
  5
1EA
330
1C2
100
AcDbEntity
  8
0
  6
Continuous
 62
     7
370
    25
100
AcDbSpline
210
0.0
220
0.0
230
1.0
 70
     8
 71
     3
 72
    15
 73
    11
 74
     0
 42
0.00000001
 43
0.00000001
 40
0.0
 40
0.0
 40
0.0
 40
0.0
 40
0.1408159589725432
 40
0.2816319179450871
 40
0.4224478769176316
 40
0.5632638358901748
 40
0.704079794862718
 40
0.8448957538352619
 40
0.9857117128078058
 40
1.0
 40
1.0
 40
1.0
 40
1.0
 10
0.675138608447341
 20
-0.1460687532904036
 30
0.0
 10
0.6750531338780217
 20
-0.1489130996644677
 30
0.0
 10
0.6748821847393831
 20
-0.154601792412596
 30
0.0
 10
0.6735164427562651
 20
-0.1638984632426316
 30
0.0
 10
0.6713940086325497
 20
-0.1733125279326417
 30
0.0
 10
0.6685150530714014
 20
-0.1825465456469392
 30
0.0
 10
0.6650156442839869
 20
-0.1912772847020446
 30
0.0
 10
0.6610099295832537
 20
-0.1989783855471006
 30
0.0
 10
0.6579962966981205
 20
-0.2039569419717314
 30
0.0
 10
0.6563491060170275
 20
-0.2058378476272074
 30
0.0
 10
0.656197365919037
 20
-0.2060111176752647
 30
0.0
  0
SPLINE
  5
1EB
330
1C2
100
AcDbEntity
  8
0
  6
Continuous
 62
     7
370
    25
100
AcDbSpline
210
0.0
220
0.0
230
1.0
 70
     8
 71
     3
 72
    12
 73
     8
 74
     0
 42
0.00000001
 43
0.00000001
 40
0.0
 40
0.0
 40
0.0
 40
0.0
 40
0.2085126111123072
 40
0.4170252222246223
 40
0.6255378333369375
 40
0.8340504444492518
 40
1.0
 40
1.0
 40
1.0
 40
1.0
 10
0.7215645142782455
 20
0.1952078708389565
 30
0.0
 10
0.7281880506572515
 20
0.1931513218673315
 30
0.0
 10
0.7414351234152632
 20
0.1890382239240815
 30
0.0
 10
0.7578924663202848
 20
0.1804894178713614
 30
0.0
 10
0.7708544776862742
 20
0.1705777459208924
 30
0.0
 10
0.7796304268852163
 20
0.160299695265844
 30
0.0
 10
0.7819078926357211
 20
0.1532454813959525
 30
0.0
 10
0.7829171920061924
 20
0.1501192813130433
 30
0.0
  0
SPLINE
  5
1EC
330
1C2
100
AcDbEntity
  8
0
  6
Continuous
 62
     7
370
    25
100
AcDbSpline
210
0.0
220
0.0
230
1.0
 70
     8
 71
     3
 72
    17
 73
    13
 74
     0
 42
0.00000001
 43
0.00000001
 40
0.0
 40
0.0
 40
0.0
 40
0.0
 40
0.0775484596592118
 40
0.1800430752526324
 40
0.282537690846053
 40
0.3850323064394735
 40
0.4875269220328937
 40
0.5900215376263146
 40
0.6925161532197351
 40
0.7950107688131551
 40
0.8975053844065758
 40
1.0
 40
1.0
 40
1.0
 40
1.0
 10
0.5500717251806327
 20
0.1499396799174589
 30
0.0
 10
0.5509748836782986
 20
0.1529163989458555
 30
0.0
 10
0.5530717329783991
 20
0.159827402083645
 30
0.0
 10
0.5615522126808791
 20
0.1699963193372518
 30
0.0
 10
0.5742669053393294
 20
0.1800110683249434
 30
0.0
 10
0.5906723390564202
 20
0.1885320684732302
 30
0.0
 10
0.6099530499892784
 20
0.1952480013560215
 30
0.0
 10
0.6314142248583289
 20
0.1998930952899652
 30
0.0
 10
0.6542316004606612
 20
0.2023034316857974
 30
0.0
 10
0.6774802733740601
 20
0.2023357057544873
 30
0.0
 10
0.7004585103224773
 20
0.2001767951085462
 30
0.0
 10
0.7145291796263228
 20
0.1968641789288197
 30
0.0
 10
0.7215645142782455
 20
0.1952078708389565
 30
0.0
  0
SPLINE
  5
1ED
330
1C2
100
AcDbEntity
  8
0
  6
Continuous
 62
     7
370
    25
100
AcDbSpline
210
0.0
220
0.0
230
1.0
 70
     8
 71
     3
 72
    28
 73
    24
 74
     0
 42
0.00000001
 43
0.00000001
 40
0.0
 40
0.0
 40
0.0
 40
0.0
 40
0.02087158042572
 40
0.0416983128781346
 40
0.0625698923122901
 40
0.0938478491506538
 40
0.1251258057079745
 40
0.187606002923797
 40
0.2500861999963099
 40
0.3125663970688233
 40
0.3750465950137894
 40
0.4375267922582143
 40
0.500006989615457
 40
0.5624871869726996
 40
0.624967384217125
 40
0.6874475821620912
 40
0.7499277792346041
 40
0.8124079763071174
 40
0.8748881735229396
 40
0.9061661300802605
 40
0.937444086918624
 40
0.9687220429010326
 40
1.0
 40
1.0
 40
1.0
 40
1.0
 10
0.6419884911181564
 20
0.1175383789576506
 30
0.0
 10
0.6410476490699993
 20
0.11780581097009
 30
0.0
 10
0.6391679866154683
 20
0.1183401003483196
 30
0.0
 10
0.6364843511215535
 20
0.1192602949722635
 30
0.0
 10
0.6334893782655368
 20
0.120429231173676
 30
0.0
 10
0.6302865028001851
 20
0.1219083840691416
 30
0.0
 10
0.625934350945144
 20
0.124355752895469
 30
0.0
 10
0.6213982772819768
 20
0.1278107464501483
 30
0.0
 10
0.6176361652995275
 20
0.1324201254311205
 30
0.0
 10
0.6156909207621315
 20
0.1373196910186315
 30
0.0
 10
0.6156393256344591
 20
0.1423203702341744
 30
0.0
 10
0.6174828195617403
 20
0.1472302004172767
 30
0.0
 10
0.6211507052497837
 20
0.1518604422651064
 30
0.0
 10
0.6265019794755485
 20
0.1560331768765438
 30
0.0
 10
0.6333310444296123
 20
0.1595880305899101
 30
0.0
 10
0.6413753151158024
 20
0.1623884456232438
 30
0.0
 10
0.6503261995163567
 20
0.1643266072434311
 30
0.0
 10
0.6598376875055031
 20
0.1653287658895477
 30
0.0
 10
0.667934779724741
 20
0.1653495277271754
 30
0.0
 10
0.6743152316143536
 20
0.1648816539002657
 30
0.0
 10
0.679010411080638
 20
0.1642851704280726
 30
0.0
 10
0.6835864546169758
 20
0.1634713029738213
 30
0.0
 10
0.6864775359683958
 20
0.1627383960929519
 30
0.0
 10
0.6879230766699072
 20
0.1623719426459765
 30
0.0
  0
SPLINE
  5
1EE
330
1C2
100
AcDbEntity
  8
0
  6
Continuous
 62
     7
370
    25
100
AcDbSpline
210
0.0
220
0.0
230
1.0
 70
     8
 71
     3
 72
    28
 73
    24
 74
     0
 42
0.00000001
 43
0.00000001
 40
0.0
 40
0.0
 40
0.0
 40
0.0
 40
0.0208715797586191
 40
0.0416983122309777
 40
0.0625698923633816
 40
0.093847848481468
 40
0.1251258057968882
 40
0.1876060017084127
 40
0.2500862000364321
 40
0.3125663971687793
 40
0.3750465944444361
 40
0.4375267921977004
 40
0.5000069896147772
 40
0.5624871870318544
 40
0.6249673847851186
 40
0.6874475820607755
 40
0.7499277791931228
 40
0.8124079775211431
 40
0.8748881734326667
 40
0.9061661307480869
 40
0.9374440868661733
 40
0.968722043643538
 40
1.0
 40
1.0
 40
1.0
 40
1.0
 10
0.6879230766699073
 20
0.1623719426459765
 30
0.0
 10
0.6888639186867289
 20
0.1621045106418891
 30
0.0
 10
0.6907435811095625
 20
0.1615702212715606
 30
0.0
 10
0.6934272165960164
 20
0.1606500266432884
 30
0.0
 10
0.6964221894786137
 20
0.1594810904616069
 30
0.0
 10
0.6996250649127106
 20
0.1580019375240529
 30
0.0
 10
0.7039772168239239
 20
0.155554568771574
 30
0.0
 10
0.7085132902660963
 20
0.1520995751222693
 30
0.0
 10
0.7122754025079427
 20
0.1474901962191724
 30
0.0
 10
0.7142206471046824
 20
0.142590630597951
 30
0.0
 10
0.7142722417799254
 20
0.1375899514055793
 30
0.0
 10
0.7124287483397203
 20
0.1326801211865227
 30
0.0
 10
0.7087608624929915
 20
0.1280498793508293
 30
0.0
 10
0.7034095883762388
 20
0.1238771446787721
 30
0.0
 10
0.6965805230896477
 20
0.1203222911522079
 30
0.0
 10
0.6885362526959344
 20
0.117521875939574
 30
0.0
 10
0.6795853682078931
 20
0.1155837143256652
 30
0.0
 10
0.6700738801970213
 20
0.1145815558335115
 30
0.0
 10
0.6619767879512728
 20
0.1145607938493633
 30
0.0
 10
0.6555963361474314
 20
0.1150286677400963
 30
0.0
 10
0.6509011566275196
 20
0.1156251511759094
 30
0.0
 10
0.6463251131419492
 20
0.1164390186486283
 30
0.0
 10
0.6434340317862698
 20
0.1171719255229535
 30
0.0
 10
0.6419884911181563
 20
0.1175383789576505
 30
0.0
  0
SPLINE
  5
1EF
330
1C2
100
AcDbEntity
  8
0
  6
Continuous
 62
     7
370
    25
100
AcDbSpline
210
0.0
220
0.0
230
1.0
 70
     8
 71
     3
 72
    11
 73
     7
 74
     0
 42
0.00000001
 43
0.00000001
 40
0.0
 40
0.0
 40
0.0
 40
0.0
 40
0.20541863397257
 40
0.4702790893150466
 40
0.7351395446575224
 40
1.0
 40
1.0
 40
1.0
 40
1.0
 10
-0.3161442646578801
 20
0.1344452316564692
 30
0.0
 10
-0.3152552419194689
 20
0.1356553188663861
 30
0.0
 10
-0.3132199406631269
 20
0.1384256552281179
 30
0.0
 10
-0.3144913831379119
 20
0.1431294527566224
 30
0.0
 10
-0.3189929909194198
 20
0.1476733623779592
 30
0.0
 10
-0.3243559082175589
 20
0.1495607676634821
 30
0.0
 10
-0.3270373668666284
 20
0.1505044703062435
 30
0.0
  0
SPLINE
  5
1F1
330
1C2
100
AcDbEntity
  8
0
  6
Continuous
 62
     7
370
    25
100
AcDbSpline
210
0.0
220
0.0
230
1.0
 70
     8
 71
     3
 72
    14
 73
    10
 74
     0
 42
0.00000001
 43
0.00000001
 40
0.0
 40
0.0
 40
0.0
 40
0.0
 40
0.0425362021754431
 40
0.2021135018128689
 40
0.3616908014502954
 40
0.521268101087722
 40
0.6808454007251478
 40
0.8404227003625738
 40
1.0
 40
1.0
 40
1.0
 40
1.0
 10
-0.3608110335134846
 20
0.1343936327819233
 30
0.0
 10
-0.3612462019423502
 20
0.1347739938616771
 30
0.0
 10
-0.3633139327349026
 20
0.1365813040081096
 30
0.0
 10
-0.3634942140499011
 20
0.140543952522603
 30
0.0
 10
-0.3608954564858334
 20
0.1453518571652813
 30
0.0
 10
-0.3546235793106033
 20
0.1493121861636775
 30
0.0
 10
-0.3460029195963762
 20
0.1516972644301329
 30
0.0
 10
-0.3360992721279904
 20
0.152321570242798
 30
0.0
 10
-0.3300580019537491
 20
0.151110170285095
 30
0.0
 10
-0.3270373668666284
 20
0.1505044703062435
 30
0.0
  0
SPLINE
  5
1F2
330
1C2
100
AcDbEntity
  8
0
  6
Continuous
 62
     7
370
    25
100
AcDbSpline
210
0.0
220
0.0
230
1.0
 70
     8
 71
     3
 72
    13
 73
     9
 74
     0
 42
0.00000001
 43
0.00000001
 40
0.0
 40
0.0
 40
0.0
 40
0.0
 40
0.0579075998904136
 40
0.2463260799123294
 40
0.4347445599342456
 40
0.6231630399561615
 40
0.8115815199780775
 40
1.0
 40
1.0
 40
1.0
 40
1.0
 10
0.6390699385172361
 20
0.1185312290461797
 30
0.0
 10
0.6398784946307557
 20
0.1188251675028477
 30
0.0
 10
0.6433179129145278
 20
0.1200755164709201
 30
0.0
 10
0.6503721577913598
 20
0.1214304852054006
 30
0.0
 10
0.6598289533991929
 20
0.1224827595622011
 30
0.0
 10
0.6695408261420556
 20
0.1224836343521811
 30
0.0
 10
0.6791198580873173
 20
0.1215865597999506
 30
0.0
 10
0.684988671123438
 20
0.1202045720096278
 30
0.0
 10
0.6879230776414983
 20
0.1195135781144663
 30
0.0
  0
SPLINE
  5
1F5
330
1C2
100
AcDbEntity
  8
0
  6
Continuous
 62
     7
370
    25
100
AcDbSpline
210
0.0
220
0.0
230
1.0
 70
     8
 71
     3
 72
    11
 73
     7
 74
     0
 42
0.00000001
 43
0.00000001
 40
0.0
 40
0.0
 40
0.0
 40
0.0
 40
0.2054188519789363
 40
0.4702792346526244
 40
0.7351396173263121
 40
0.9999999999999999
 40
0.9999999999999999
 40
0.9999999999999999
 40
0.9999999999999999
 10
0.3608977587850739
 20
0.242253292261569
 30
0.0
 10
0.3617867828386053
 20
0.2434633810770302
 30
0.0
 10
0.3638220855747209
 20
0.2462337190305066
 30
0.0
 10
0.3625506432933476
 20
0.2509375182585669
 30
0.0
 10
0.3580490353218547
 20
0.2554814278958265
 30
0.0
 10
0.3526861180490471
 20
0.2573688331792264
 30
0.0
 10
0.3500046594126431
 20
0.2583125358209263
 30
0.0
  0
SPLINE
  5
1F6
330
1C2
100
AcDbEntity
  8
0
  6
Continuous
 62
     7
370
    25
100
AcDbSpline
210
0.0
220
0.0
230
1.0
 70
     8
 71
     3
 72
    14
 73
    10
 74
     0
 42
0.00000001
 43
0.00000001
 40
0.0
 40
0.0
 40
0.0
 40
0.0
 40
0.0425362021754423
 40
0.2021135018128685
 40
0.3616908014502949
 40
0.5212681010877215
 40
0.6808454007251478
 40
0.8404227003625743
 40
1.0
 40
1.0
 40
1.0
 40
1.0
 10
0.3162309927657868
 20
0.2422016943743945
 30
0.0
 10
0.3157958243369214
 20
0.2425820554541484
 30
0.0
 10
0.3137280935443688
 20
0.2443893656005808
 30
0.0
 10
0.3135478122293705
 20
0.2483520141150744
 30
0.0
 10
0.3161465697934383
 20
0.2531599187577525
 30
0.0
 10
0.3224184469686682
 20
0.2571202477561486
 30
0.0
 10
0.3310391066828952
 20
0.2595053260226041
 30
0.0
 10
0.3409427541512811
 20
0.2601296318352691
 30
0.0
 10
0.3469840243255225
 20
0.2589182318775661
 30
0.0
 10
0.3500046594126431
 20
0.2583125318987147
 30
0.0
  0
SPLINE
  5
1F7
330
1C2
100
AcDbEntity
  8
0
  6
Continuous
 62
     7
370
    25
100
AcDbSpline
210
0.0
220
0.0
230
1.0
 70
     8
 71
     3
 72
    11
 73
     7
 74
     0
 42
0.00000001
 43
0.00000001
 40
0.0
 40
0.0
 40
0.0
 40
0.0
 40
0.2054190657263195
 40
0.47027937715088
 40
0.7351396885754399
 40
1.0
 40
1.0
 40
1.0
 40
1.0
 10
-0.0822835403691967
 20
0.3627004714212776
 30
0.0
 10
-0.0813945150262368
 20
0.3639105618109181
 30
0.0
 10
-0.0793592108392556
 20
0.3666809013250435
 30
0.0
 10
-0.0806306529309956
 20
0.3713847022194579
 30
0.0
 10
-0.0851322610887619
 20
0.3759286118723294
 30
0.0
 10
-0.0904951783367332
 20
0.3778160171536475
 30
0.0
 10
-0.0931766369607188
 20
0.3787597197943066
 30
0.0
  0
SPLINE
  5
1F9
330
1C2
100
AcDbEntity
  8
0
  6
Continuous
 62
     7
370
    25
100
AcDbSpline
210
0.0
220
0.0
230
1.0
 70
     8
 71
     3
 72
    14
 73
    10
 74
     0
 42
0.00000001
 43
0.00000001
 40
0.0
 40
0.0
 40
0.0
 40
0.0
 40
0.0425362021754423
 40
0.2021135018128685
 40
0.3616908014502949
 40
0.5212681010877215
 40
0.6808454007251478
 40
0.8404227003625743
 40
1.0
 40
1.0
 40
1.0
 40
1.0
 10
-0.1269503036075751
 20
0.3626488745021858
 30
0.0
 10
-0.1273854720364406
 20
0.3630292355819397
 30
0.0
 10
-0.1294532028289931
 20
0.3648365457283722
 30
0.0
 10
-0.1296334841439916
 20
0.3687991942428658
 30
0.0
 10
-0.1270347265799238
 20
0.3736070988855438
 30
0.0
 10
-0.1207628494046937
 20
0.37756742788394
 30
0.0
 10
-0.1121421896904667
 20
0.3799525061503955
 30
0.0
 10
-0.1022385422220807
 20
0.3805768119630604
 30
0.0
 10
-0.0961972720478394
 20
0.3793654120053574
 30
0.0
 10
-0.0931766369607188
 20
0.378759712026506
 30
0.0
  0
LINE
  5
1FA
330
1C2
100
AcDbEntity
  8
0
  6
Continuous
 62
     7
370
    25
100
AcDbLine
 10
-0.8535338421
 20
0.2166457946
 30
0.0
 11
-0.8801305636
 21
0.1955373221
 31
0.0
  0
LINE
  5
1FB
330
1C2
100
AcDbEntity
  8
0
  6
Continuous
 62
     7
370
    25
100
AcDbLine
 10
-0.8535338408
 20
0.2166457943
 30
0.0
 11
0.5044309909
 21
-0.1524199493
 31
0.0
  0
LINE
  5
1FC
330
1C2
100
AcDbEntity
  8
0
  6
Continuous
 62
     7
370
    25
100
AcDbLine
 10
0.5044309908
 20
-0.1524199494
 30
0.0
 11
0.5126538799
 21
-0.1829916461
 31
0.0
  0
LINE
  5
1FD
330
1C2
100
AcDbEntity
  8
0
  6
Continuous
 62
     7
370
    25
100
AcDbLine
 10
0.5126538801
 20
-0.1829916459
 30
0.0
 11
-0.8801305639
 21
0.1955373222
 31
0.0
  0
LINE
  5
1FE
330
1C2
100
AcDbEntity
  8
0
  6
Continuous
 62
     7
370
    25
100
AcDbLine
 10
0.8535338409
 20
0.1883151346
 30
0.0
 11
0.5044309908
 21
-0.1524199494
 31
0.0
  0
LINE
  5
1FF
330
1C2
100
AcDbEntity
  8
0
  6
Continuous
 62
     7
370
    25
100
AcDbLine
 10
0.880130564
 20
0.1756768632
 30
0.0
 11
0.8535338409
 21
0.1883151346
 31
0.0
  0
LINE
  5
200
330
1C2
100
AcDbEntity
  8
0
  6
Continuous
 62
     7
370
    25
100
AcDbLine
 10
0.5126538799
 20
-0.1829916461
 30
0.0
 11
0.880130564
 21
0.1756768632
 31
0.0
  0
LINE
  5
201
330
1C2
100
AcDbEntity
  8
0
  6
Continuous
 62
     7
370
    25
100
AcDbLine
 10
-0.5044309909
 20
0.5573808781
 30
0.0
 11
-0.8535338408
 21
0.2166457943
 31
0.0
  0
LINE
  5
202
330
1C2
100
AcDbEntity
  8
0
  6
Continuous
 62
     7
370
    25
100
AcDbLine
 10
0.8535338408
 20
0.1883151345
 30
0.0
 11
-0.5044309909
 21
0.5573808781
 31
0.0
  0
LINE
  5
203
330
1C2
100
AcDbEntity
  8
0
  6
Continuous
 62
     7
370
    25
100
AcDbLine
 10
0.8801305639
 20
0.175676863
 30
0.0
 11
0.8801305639
 21
-0.2124106939
 31
0.0
  0
LINE
  5
204
330
1C2
100
AcDbEntity
  8
0
  6
Continuous
 62
     7
370
    25
100
AcDbLine
 10
0.8801305639
 20
-0.2124106939
 30
0.0
 11
0.5126538801
 21
-0.5710792029
 31
0.0
  0
LINE
  5
205
330
1C2
100
AcDbEntity
  8
0
  6
Continuous
 62
     7
370
    25
100
AcDbLine
 10
0.5126538801
 20
-0.5710792029
 30
0.0
 11
0.5126538801
 21
-0.1829916459
 31
0.0
  0
LINE
  5
206
330
1C2
100
AcDbEntity
  8
0
  6
Continuous
 62
     7
370
    25
100
AcDbLine
 10
0.5126538801
 20
-0.5710792029
 30
0.0
 11
-0.8801305639
 21
-0.1925502348
 31
0.0
  0
LINE
  5
207
330
1C2
100
AcDbEntity
  8
0
  6
Continuous
 62
     7
370
    25
100
AcDbLine
 10
-0.8801305639
 20
-0.1925502348
 30
0.0
 11
-0.8801305639
 21
0.1955373222
 31
0.0
  0
LINE
  5
208
330
1C2
100
AcDbEntity
  8
0
  6
Continuous
 62
     7
370
    25
100
AcDbLine
 10
0.4750941908
 20
-0.5617825904
 30
0.0
 11
0.4827824206
 21
-0.5629607802
 31
0.0
  0
LINE
  5
209
330
1C2
100
AcDbEntity
  8
0
  6
Continuous
 62
     7
370
    25
100
AcDbLine
 10
0.6879230776
 20
0.1195135781
 30
0.0
 11
0.6908416307
 21
0.118520728
 31
0.0
  0
LINE
  5
20A
330
1C2
100
AcDbEntity
  8
0
  6
Continuous
 62
     7
370
    25
100
AcDbLine
 10
-0.8801305639
 20
0.1955373222
 30
0.0
 11
-0.5126538801
 21
0.5542058311
 31
0.0
  0
LINE
  5
20B
330
1C2
100
AcDbEntity
  8
0
  6
Continuous
 62
     7
370
    25
100
AcDbLine
 10
-0.5126538798
 20
0.5542058311
 30
0.0
 11
-0.5044309921
 21
0.5573808784
 31
0.0
  0
LINE
  5
20C
330
1C2
100
AcDbEntity
  8
0
  6
Continuous
 62
     7
370
    25
100
AcDbLine
 10
-0.8241526828
 20
-0.2077638234
 30
0.0
 11
-0.8179251031
 21
-0.2103676523
 31
0.0
  0
VIEWPORT
  5
263
330
1C2
100
AcDbEntity
  8
0
100
AcDbViewport
 10
0.0
 20
0.0
 30
0.0
 40
8.4
 41
6.4
 68
     1
 69
     1
 12
0.0000000001
 22
-0.0068491622
 13
0.0
 23
0.0
 14
0.5
 24
0.5
 15
0.5
 25
0.5
 16
0.0
 26
0.0
 36
1.0
 17
0.0
 27
0.0
 37
0.0
 42
50.0
 43
0.0
 44
0.0
 45
1.3679743623
 50
0.0
 51
0.0
 72
   100
 90
   557152
  1

281
     0
 71
     1
 74
     0
110
0.0
120
0.0
130
0.0
111
1.0
121
0.0
131
0.0
112
0.0
122
1.0
132
0.0
 79
     0
146
0.0
  0
ENDBLK
  5
1C5
330
1C2
100
AcDbEntity
  8
0
100
AcDbBlockEnd
  0
BLOCK
  5
20F
330
20D
100
AcDbEntity
  8
0
100
AcDbBlockBegin
  2
*Paper_Space7
 70
     0
 10
0.0
 20
0.0
 30
0.0
  3
*Paper_Space7
  1

  0
SPLINE
  5
21C
330
20D
100
AcDbEntity
  8
0
  6
Continuous
 62
     7
370
    25
100
AcDbSpline
210
0.0
220
0.0
230
1.0
 70
     8
 71
     3
 72
    12
 73
     8
 74
     0
 42
0.00000001
 43
0.00000001
 40
0.0
 40
0.0
 40
0.0
 40
0.0
 40
0.3333333333333333
 40
0.3333333333333333
 40
0.6666666666666665
 40
0.6666666666666665
 40
0.9999999999999999
 40
0.9999999999999999
 40
0.9999999999999999
 40
0.9999999999999999
 10
0.778305004280177
 20
-0.0463328756710588
 30
0.0
 10
0.778305004280177
 20
-0.006555231793666
 30
0.0
 10
0.7703440358646004
 20
0.0231939920642145
 30
0.0
 10
0.7445076982938718
 20
0.0401861279313466
 30
0.0
 10
0.728585761464604
 20
0.0261442995087235
 30
0.0
 10
0.7027494238999942
 20
-0.0364188523829543
 30
0.0
 10
0.694788455490074
 20
-0.0802099046601323
 30
0.0
 10
0.6947884554961928
 20
-0.1199875485321287
 30
0.0
  0
SPLINE
  5
21D
330
20D
100
AcDbEntity
  8
0
  6
Continuous
 62
     7
370
    25
100
AcDbSpline
210
0.0
220
0.0
230
1.0
 70
     8
 71
     3
 72
    14
 73
    10
 74
     0
 42
0.00000001
 43
0.00000001
 40
0.0
 40
0.0
 40
0.0
 40
0.0
 40
0.25
 40
0.25
 40
0.5000000000000001
 40
0.5000000000000001
 40
0.75
 40
0.75
 40
1.0
 40
1.0
 40
1.0
 40
1.0
 10
0.6947884554961928
 20
-0.1199875485321287
 30
0.0
 10
0.6947884555007358
 20
-0.1495200005969764
 30
0.0
 10
0.6991881969815816
 20
-0.1739649014574836
 30
0.0
 10
0.7148501448238531
 20
-0.2019175560129095
 30
0.0
 10
0.7254720603700497
 20
-0.2042825509556374
 30
0.0
 10
0.7476213994159504
 20
-0.1847486700083845
 30
0.0
 10
0.7582433149611323
 20
-0.1636483770713201
 30
0.0
 10
0.7739052627997919
 20
-0.1080706431504343
 30
0.0
 10
0.7783050042781882
 20
-0.0758653277616647
 30
0.0
 10
0.778305004280177
 20
-0.0463328756910567
 30
0.0
  0
SPLINE
  5
222
330
20D
100
AcDbEntity
  8
0
  6
Continuous
 62
     7
370
    25
100
AcDbSpline
210
0.0
220
0.0
230
1.0
 70
     8
 71
     3
 72
    33
 73
    29
 74
     0
 42
0.00000001
 43
0.00000001
 40
0.0
 40
0.0
 40
0.0
 40
0.0
 40
0.0125326067531856
 40
0.0250361822953101
 40
0.0375300657498707
 40
0.0500336412123375
 40
0.0625662478065768
 40
0.0938388079043408
 40
0.1251113680193449
 40
0.1563839278965199
 40
0.1876564873384955
 40
0.2501259052265496
 40
0.3125953222159227
 40
0.3750647407286645
 40
0.4375341572117584
 40
0.5000035755495185
 40
0.5624729938872786
 40
0.6249424103703726
 40
0.6874118288831146
 40
0.7498812458724875
 40
0.8123506637605417
 40
0.8436232232025174
 40
0.8748957830796923
 40
0.9061683431946965
 40
0.9374409032924604
 40
0.9583088819902795
 40
0.9791320210812137
 40
1.0
 40
1.0
 40
1.0
 40
1.0
 10
0.2386684176347207
 20
0.1926414025982934
 30
0.0
 10
0.2374505647922568
 20
0.1916028317109074
 30
0.0
 10
0.2350176802078078
 20
0.1895280957381547
 30
0.0
 10
0.2309104144204233
 20
0.1864814556332255
 30
0.0
 10
0.226475597128387
 20
0.1834898810790308
 30
0.0
 10
0.2216798398958225
 20
0.1805574947673861
 30
0.0
 10
0.2139754621644798
 20
0.1762554139882096
 30
0.0
 10
0.2025345207852791
 20
0.1707573707847685
 30
0.0
 10
0.1862771412839869
 20
0.16439263975991
 30
0.0
 10
0.1682350500291324
 20
0.1585849651731337
 30
0.0
 10
0.142033329762681
 20
0.1516755282266933
 30
0.0
 10
0.1056500029758747
 20
0.1446924876677818
 30
0.0
 10
0.0579640093557596
 20
0.1393229752917905
 30
0.0
 10
0.0080441971290371
 20
0.1371553552494321
 30
0.0
 10
-0.0421830621191597
 20
0.138276297922131
 30
0.0
 10
-0.0907897043960119
 20
0.1426418035666278
 30
0.0
 10
-0.1359072184580436
 20
0.1500844316656035
 30
0.0
 10
-0.175801962576239
 20
0.1603177943414092
 30
0.0
 10
-0.2089405913714269
 20
0.1729497936405345
 30
0.0
 10
-0.2340502635831025
 20
0.1874907004569692
 30
0.0
 10
-0.2474813017549886
 20
0.2007497529266573
 30
0.0
 10
-0.2534219303569368
 20
0.2117087618289692
 30
0.0
 10
-0.2554297794679167
 20
0.2200424406208556
 30
0.0
 10
-0.2549912114829985
 20
0.2284003454428681
 30
0.0
 10
-0.2524100642813273
 20
0.2357844261562204
 30
0.0
 10
-0.2485694488253351
 20
0.2421512839286065
 30
0.0
 10
-0.244279672595277
 20
0.2475363204697876
 30
0.0
 10
-0.2405401765950304
 20
0.2510309813130386
 30
0.0
 10
-0.2386684176347207
 20
0.2527801910317195
 30
0.0
  0
SPLINE
  5
223
330
20D
100
AcDbEntity
  8
0
  6
Continuous
 62
     7
370
    25
100
AcDbSpline
210
0.0
220
0.0
230
1.0
 70
     8
 71
     3
 72
    33
 73
    29
 74
     0
 42
0.00000001
 43
0.00000001
 40
0.0
 40
0.0
 40
0.0
 40
0.0
 40
0.0125326067531859
 40
0.0250361822953101
 40
0.0375300657498708
 40
0.0500336412123374
 40
0.0625662478065767
 40
0.0938388079043405
 40
0.125111368019345
 40
0.1563839278965198
 40
0.1876564873384955
 40
0.2501259052265496
 40
0.3125953222159225
 40
0.3750647407286646
 40
0.4375341572117585
 40
0.5000035755495186
 40
0.5624729938872787
 40
0.6249424103703726
 40
0.6874118288831144
 40
0.7498812458724875
 40
0.8123506637605417
 40
0.8436232232025173
 40
0.8748957830796921
 40
0.9061683431946964
 40
0.9374409032924603
 40
0.9583088819902793
 40
0.9791320210812137
 40
1.0
 40
1.0
 40
1.0
 40
1.0
 10
-0.2386684176347207
 20
0.2527801910317194
 30
0.0
 10
-0.2374505647922567
 20
0.2538187619191055
 30
0.0
 10
-0.2350176802078075
 20
0.2558934978918582
 30
0.0
 10
-0.2309104144204231
 20
0.2589401379967872
 30
0.0
 10
-0.2264755971283868
 20
0.2619317125509821
 30
0.0
 10
-0.2216798398958225
 20
0.2648640988626269
 30
0.0
 10
-0.2139754621644799
 20
0.2691661796418031
 30
0.0
 10
-0.2025345207852793
 20
0.2746642228452442
 30
0.0
 10
-0.1862771412839867
 20
0.2810289538701029
 30
0.0
 10
-0.1682350500291327
 20
0.2868366284568792
 30
0.0
 10
-0.142033329762681
 20
0.2937460654033195
 30
0.0
 10
-0.1056500029758748
 20
0.300729105962231
 30
0.0
 10
-0.0579640093557596
 20
0.3060986183382223
 30
0.0
 10
-0.0080441971290372
 20
0.3082662383805808
 30
0.0
 10
0.0421830621191597
 20
0.3071452957078817
 30
0.0
 10
0.0907897043960119
 20
0.3027797900633851
 30
0.0
 10
0.1359072184580435
 20
0.2953371619644092
 30
0.0
 10
0.1758019625762391
 20
0.2851037992886035
 30
0.0
 10
0.2089405913714267
 20
0.2724717999894785
 30
0.0
 10
0.2340502635831024
 20
0.2579308931730435
 30
0.0
 10
0.2474813017549888
 20
0.2446718407033556
 30
0.0
 10
0.2534219303569364
 20
0.2337128318010437
 30
0.0
 10
0.2554297794679169
 20
0.2253791530091572
 30
0.0
 10
0.2549912114829985
 20
0.2170212481871448
 30
0.0
 10
0.2524100642813275
 20
0.2096371674737924
 30
0.0
 10
0.2485694488253349
 20
0.2032703097014063
 30
0.0
 10
0.244279672595277
 20
0.1978852731602253
 30
0.0
 10
0.2405401765950305
 20
0.1943906123169742
 30
0.0
 10
0.2386684176347207
 20
0.1926414025982934
 30
0.0
  0
SPLINE
  5
224
330
20D
100
AcDbEntity
  8
0
  6
Continuous
 62
     7
370
    25
100
AcDbSpline
210
0.0
220
0.0
230
1.0
 70
     8
 71
     3
 72
    25
 73
    21
 74
     0
 42
0.00000001
 43
0.00000001
 40
0.0
 40
0.0
 40
0.0
 40
0.0
 40
0.0312831329788903
 40
0.0625662572676009
 40
0.1250567951293662
 40
0.1875473362123356
 40
0.2500378674090636
 40
0.3125283968556399
 40
0.3750189285896849
 40
0.4375094677711663
 40
0.4999999973155621
 40
0.5624905335572163
 40
0.6249810662988114
 40
0.6874716039678896
 40
0.749962133414466
 40
0.8124526646111945
 40
0.8749432056941635
 40
0.9374337435559289
 40
0.9687168671034627
 40
1.0
 40
1.0
 40
1.0
 40
1.0
 10
0.3104229288766517
 20
0.2602576148202336
 30
0.0
 10
0.3093497979180514
 20
0.2604045099765502
 30
0.0
 10
0.3072035362989574
 20
0.2606983002483775
 30
0.0
 10
0.3031598106674168
 20
0.2614589722873785
 30
0.0
 10
0.2985343950309827
 20
0.2626403071125609
 30
0.0
 10
0.2939346904190973
 20
0.2643954977834418
 30
0.0
 10
0.2904470554353897
 20
0.2664149294720154
 30
0.0
 10
0.2882093080646445
 20
0.268622668446355
 30
0.0
 10
0.2873064249387112
 20
0.2709334245314894
 30
0.0
 10
0.2877733778167533
 20
0.2732585168118413
 30
0.0
 10
0.2895921521474942
 20
0.2755085614324305
 30
0.0
 10
0.2926928650279283
 20
0.2775970969243609
 30
0.0
 10
0.2969563628757956
 20
0.2794438695051792
 30
0.0
 10
0.3022187892010724
 20
0.280977869718786
 30
0.0
 10
0.308277946247023
 20
0.2821402970219365
 30
0.0
 10
0.3149008579924277
 20
0.2828859195788013
 30
0.0
 10
0.3218334849394686
 20
0.2831881729821665
 30
0.0
 10
0.3276466853678668
 20
0.2830543659843296
 30
0.0
 10
0.3321888911259706
 20
0.282733311968021
 30
0.0
 10
0.3343815592852216
 20
0.2824804484550587
 30
0.0
 10
0.3354778935286674
 20
0.2823540166796852
 30
0.0
  0
SPLINE
  5
225
330
20D
100
AcDbEntity
  8
0
  6
Continuous
 62
     7
370
    25
100
AcDbSpline
210
0.0
220
0.0
230
1.0
 70
     8
 71
     3
 72
    25
 73
    21
 74
     0
 42
0.00000001
 43
0.00000001
 40
0.0
 40
0.0
 40
0.0
 40
0.0
 40
0.031283133156832
 40
0.0625662569646641
 40
0.1250567953463901
 40
0.1875473247668869
 40
0.2500378671615733
 40
0.3125283971281131
 40
0.3750189353171541
 40
0.4375094645688594
 40
0.5000000026844378
 40
0.5624905341027578
 40
0.6249810697943496
 40
0.6874716020483574
 40
0.7499621320148969
 40
0.8124526744095831
 40
0.8749432038300802
 40
0.9374337422118059
 40
0.968716866760815
 40
1.0
 40
1.0
 40
1.0
 40
1.0
 10
0.3354778935286674
 20
0.2823540166796852
 30
0.0
 10
0.3365510244902961
 20
0.2822071215317784
 30
0.0
 10
0.338697286092847
 20
0.2819133312798647
 30
0.0
 10
0.3427410121790793
 20
0.2811526595437969
 30
0.0
 10
0.3473664275289431
 20
0.2799713247575285
 30
0.0
 10
0.3519661308071714
 20
0.2782161337941452
 30
0.0
 10
0.3554537674548089
 20
0.2761967024503135
 30
0.0
 10
0.357691514521778
 20
0.2739889632122478
 30
0.0
 10
0.3585943979857554
 20
0.2716782071377598
 30
0.0
 10
0.3581274421800246
 20
0.2693531149675466
 30
0.0
 10
0.35630867172332
 20
0.2671030700491384
 30
0.0
 10
0.3532079548461044
 20
0.2650145351457835
 30
0.0
 10
0.3489444605014463
 20
0.2631677618778586
 30
0.0
 10
0.3436820329921376
 20
0.2616337620812729
 30
0.0
 10
0.3376228762568411
 20
0.2604713344972048
 30
0.0
 10
0.3309999639052086
 20
0.2597257126172725
 30
0.0
 10
0.3240673373249275
 20
0.2594234585841795
 30
0.0
 10
0.3182541373457661
 20
0.2595572658941329
 30
0.0
 10
0.3137119313488868
 20
0.2598783195443628
 30
0.0
 10
0.3115192631355806
 20
0.2601311830499028
 30
0.0
 10
0.3104229288766517
 20
0.2602576148202336
 30
0.0
  0
SPLINE
  5
226
330
20D
100
AcDbEntity
  8
0
  6
Continuous
 62
     7
370
    25
100
AcDbSpline
210
0.0
220
0.0
230
1.0
 70
     8
 71
     3
 72
    25
 73
    21
 74
     0
 42
0.00000001
 43
0.00000001
 40
0.0
 40
0.0
 40
0.0
 40
0.0
 40
0.0312831328965373
 40
0.0625662564440714
 40
0.1250567943058366
 40
0.1875473353888057
 40
0.2500378665855339
 40
0.3125283960321102
 40
0.3750189337011886
 40
0.4375094664427839
 40
0.5000000026844379
 40
0.5624905322288334
 40
0.6249810714103149
 40
0.68747160314436
 40
0.7499621325909362
 40
0.8124526637876641
 40
0.8749432048706336
 40
0.9374337427323989
 40
0.9687168670211098
 40
1.0
 40
1.0
 40
1.0
 40
1.0
 10
0.1332575748152777
 20
0.1040124588887443
 30
0.0
 10
0.1321844438559663
 20
0.1041593540372582
 30
0.0
 10
0.1300381822580503
 20
0.1044531442903862
 30
0.0
 10
0.125994456125497
 20
0.1052138160143185
 30
0.0
 10
0.121369040773553
 20
0.1063951509866113
 30
0.0
 10
0.1167693360661728
 20
0.1081503416080273
 30
0.0
 10
0.1132817011494585
 20
0.110169773311249
 30
0.0
 10
0.1110439535353919
 20
0.112377512346354
 30
0.0
 10
0.1101410710981988
 20
0.1146882684520208
 30
0.0
 10
0.1106080234446644
 20
0.117013360805831
 30
0.0
 10
0.1124267979211394
 20
0.1192634053554418
 30
0.0
 10
0.1155275110517173
 20
0.1213519408684745
 30
0.0
 10
0.1197910083551383
 20
0.123198713511401
 30
0.0
 10
0.1250534351562274
 20
0.1247327135577555
 30
0.0
 10
0.1311125918991093
 20
0.1258951408689792
 30
0.0
 10
0.1377355036656921
 20
0.1266407634000871
 30
0.0
 10
0.1446681306392665
 20
0.1269430168616059
 30
0.0
 10
0.1504813309891187
 20
0.1268092096907118
 30
0.0
 10
0.1550235369966582
 20
0.1264881560211678
 30
0.0
 10
0.1572162052088977
 20
0.1262352925175604
 30
0.0
 10
0.1583125394672935
 20
0.1261088607481959
 30
0.0
  0
SPLINE
  5
227
330
20D
100
AcDbEntity
  8
0
  6
Continuous
 62
     7
370
    25
100
AcDbSpline
210
0.0
220
0.0
230
1.0
 70
     8
 71
     3
 72
    25
 73
    21
 74
     0
 42
0.00000001
 43
0.00000001
 40
0.0
 40
0.0
 40
0.0
 40
0.0
 40
0.0312831332391849
 40
0.0625662577881938
 40
0.1250567961699194
 40
0.1875473255904165
 40
0.2500378679851028
 40
0.3125283979516424
 40
0.3750189302056502
 40
0.4375094658972424
 40
0.4999999973155621
 40
0.5624905354311401
 40
0.6249810646828459
 40
0.6874716028718866
 40
0.7499621328384265
 40
0.812452675233113
 40
0.8749432046536095
 40
0.9374337430353362
 40
0.968716866843168
 40
1.0
 40
1.0
 40
1.0
 40
1.0
 10
0.1583125394672935
 20
0.1261088607481959
 30
0.0
 10
0.159385670428211
 20
0.1259619655924863
 30
0.0
 10
0.1615319320519399
 20
0.1256681753218734
 30
0.0
 10
0.1655756576371597
 20
0.124907503270737
 30
0.0
 10
0.1702010732715133
 20
0.1237261686315789
 30
0.0
 10
0.1748007764542469
 20
0.1219709776187305
 30
0.0
 10
0.1782884131688778
 20
0.1199515462895471
 30
0.0
 10
0.1805261599925254
 20
0.1177438071122468
 30
0.0
 10
0.181429044145243
 20
0.1154330510582913
 30
0.0
 10
0.1809620878079354
 20
0.1131079589615361
 30
0.0
 10
0.1791433174969653
 20
0.1108579139721498
 30
0.0
 10
0.1760426008698934
 20
0.1087693790898971
 30
0.0
 10
0.1717791059807892
 20
0.1069226058840804
 30
0.0
 10
0.1665166789472925
 20
0.1053886059202422
 30
0.0
 10
0.1604575219089273
 20
0.1042261783442474
 30
0.0
 10
0.1538346095784733
 20
0.1034805564385585
 30
0.0
 10
0.1469019830247251
 20
0.1031783024636186
 30
0.0
 10
0.1410887829670179
 20
0.1033121096005153
 30
0.0
 10
0.1365465772195744
 20
0.1036331635975095
 30
0.0
 10
0.1343539090592568
 20
0.1038860271124045
 30
0.0
 10
0.1332575748152777
 20
0.1040124588887443
 30
0.0
  0
SPLINE
  5
228
330
20D
100
AcDbEntity
  8
0
  6
Continuous
 62
     7
370
    25
100
AcDbSpline
210
0.0
220
0.0
230
1.0
 70
     8
 71
     3
 72
    25
 73
    21
 74
     0
 42
0.00000001
 43
0.00000001
 40
0.0
 40
0.0
 40
0.0
 40
0.0
 40
0.0312831331568326
 40
0.062566256964665
 40
0.1250567953463917
 40
0.1875473247668872
 40
0.2500378671615736
 40
0.3125283971281136
 40
0.3750189353171539
 40
0.43750946456886
 40
0.500000002684438
 40
0.5624905341027577
 40
0.6249810697943502
 40
0.6874716020483574
 40
0.749962132014897
 40
0.8124526744095832
 40
0.8749432038300791
 40
0.9374337422118055
 40
0.9687168667608141
 40
1.0
 40
1.0
 40
1.0
 40
1.0
 10
-0.3354778935286674
 20
0.1630675769503275
 30
0.0
 10
-0.3365510244902961
 20
0.1632144720982343
 30
0.0
 10
-0.3386972860928472
 20
0.1635082623501482
 30
0.0
 10
-0.3427410121790795
 20
0.1642689340862158
 30
0.0
 10
-0.3473664275289433
 20
0.1654502688724842
 30
0.0
 10
-0.3519661308071714
 20
0.167205459835868
 30
0.0
 10
-0.3554537674548089
 20
0.1692248911796992
 30
0.0
 10
-0.3576915145217782
 20
0.1714326304177649
 30
0.0
 10
-0.3585943979857552
 20
0.1737433864922531
 30
0.0
 10
-0.3581274421800247
 20
0.1760684786624663
 30
0.0
 10
-0.35630867172332
 20
0.1783185235808743
 30
0.0
 10
-0.3532079548461043
 20
0.1804070584842294
 30
0.0
 10
-0.3489444605014463
 20
0.1822538317521541
 30
0.0
 10
-0.3436820329921376
 20
0.18378783154874
 30
0.0
 10
-0.3376228762568411
 20
0.1849502591328079
 30
0.0
 10
-0.3309999639052088
 20
0.1856958810127402
 30
0.0
 10
-0.3240673373249275
 20
0.1859981350458334
 30
0.0
 10
-0.3182541373457662
 20
0.1858643277358799
 30
0.0
 10
-0.3137119313488869
 20
0.1855432740856501
 30
0.0
 10
-0.3115192631355807
 20
0.18529041058011
 30
0.0
 10
-0.3104229288766517
 20
0.1851639788097792
 30
0.0
  0
SPLINE
  5
229
330
20D
100
AcDbEntity
  8
0
  6
Continuous
 62
     7
370
    25
100
AcDbSpline
210
0.0
220
0.0
230
1.0
 70
     8
 71
     3
 72
    25
 73
    21
 74
     0
 42
0.00000001
 43
0.00000001
 40
0.0
 40
0.0
 40
0.0
 40
0.0
 40
0.03128313297889
 40
0.0625662572676026
 40
0.1250567951293664
 40
0.1875473362123348
 40
0.2500378674090639
 40
0.3125283968556403
 40
0.3750189285896847
 40
0.4375094677711666
 40
0.4999999973155626
 40
0.5624905335572165
 40
0.6249810662988123
 40
0.6874716039678899
 40
0.7499621334144663
 40
0.8124526646111957
 40
0.8749432056941635
 40
0.9374337435559273
 40
0.9687168671034627
 40
1.0
 40
1.0
 40
1.0
 40
1.0
 10
-0.3104229288766517
 20
0.1851639788097792
 30
0.0
 10
-0.3093497979180515
 20
0.1850170836534625
 30
0.0
 10
-0.3072035362989575
 20
0.1847232933816353
 30
0.0
 10
-0.3031598106674167
 20
0.1839626213426342
 30
0.0
 10
-0.2985343950309829
 20
0.1827812865174519
 30
0.0
 10
-0.2939346904190973
 20
0.181026095846571
 30
0.0
 10
-0.2904470554353898
 20
0.1790066641579974
 30
0.0
 10
-0.2882093080646443
 20
0.1767989251836579
 30
0.0
 10
-0.2873064249387114
 20
0.1744881690985235
 30
0.0
 10
-0.2877733778167533
 20
0.1721630768181713
 30
0.0
 10
-0.2895921521474941
 20
0.1699130321975825
 30
0.0
 10
-0.2926928650279283
 20
0.1678244967056519
 30
0.0
 10
-0.2969563628757958
 20
0.1659777241248335
 30
0.0
 10
-0.3022187892010724
 20
0.1644437239112268
 30
0.0
 10
-0.3082779462470231
 20
0.1632812966080762
 30
0.0
 10
-0.3149008579924277
 20
0.1625356740512118
 30
0.0
 10
-0.3218334849394687
 20
0.1622334206478461
 30
0.0
 10
-0.3276466853678667
 20
0.1623672276456832
 30
0.0
 10
-0.3321888911259706
 20
0.1626882816619917
 30
0.0
 10
-0.3343815592852215
 20
0.1629411451749542
 30
0.0
 10
-0.3354778935286674
 20
0.1630675769503275
 30
0.0
  0
SPLINE
  5
22A
330
20D
100
AcDbEntity
  8
0
  6
Continuous
 62
     7
370
    25
100
AcDbSpline
210
0.0
220
0.0
230
1.0
 70
     8
 71
     3
 72
    25
 73
    21
 74
     0
 42
0.00000001
 43
0.00000001
 40
0.0
 40
0.0
 40
0.0
 40
0.0
 40
0.0312831332391858
 40
0.0625662577881947
 40
0.1250567961699212
 40
0.1875473255904169
 40
0.2500378679851032
 40
0.3125283979516428
 40
0.37501893020565
 40
0.4375094658972422
 40
0.4999999973155622
 40
0.5624905354311406
 40
0.6249810646828461
 40
0.6874716028718865
 40
0.7499621328384264
 40
0.8124526752331129
 40
0.8749432046536084
 40
0.937433743035335
 40
0.9687168668431674
 40
1.0
 40
1.0
 40
1.0
 40
1.0
 10
-0.1583125394672935
 20
0.3193127328818169
 30
0.0
 10
-0.159385670428211
 20
0.3194596280375264
 30
0.0
 10
-0.16153193205194
 20
0.3197534183081395
 30
0.0
 10
-0.1655756576371598
 20
0.3205140903592757
 30
0.0
 10
-0.1702010732715135
 20
0.3216954249984338
 30
0.0
 10
-0.1748007764542468
 20
0.3234506160112826
 30
0.0
 10
-0.1782884131688778
 20
0.3254700473404656
 30
0.0
 10
-0.1805261599925255
 20
0.3276777865177659
 30
0.0
 10
-0.1814290441452428
 20
0.3299885425717217
 30
0.0
 10
-0.1809620878079355
 20
0.3323136346684765
 30
0.0
 10
-0.1791433174969653
 20
0.3345636796578632
 30
0.0
 10
-0.1760426008698934
 20
0.3366522145401157
 30
0.0
 10
-0.171779105980789
 20
0.3384989877459325
 30
0.0
 10
-0.1665166789472924
 20
0.3400329877097705
 30
0.0
 10
-0.1604575219089273
 20
0.3411954152857653
 30
0.0
 10
-0.1538346095784733
 20
0.3419410371914544
 30
0.0
 10
-0.1469019830247252
 20
0.3422432911663941
 30
0.0
 10
-0.1410887829670179
 20
0.3421094840294975
 30
0.0
 10
-0.1365465772195745
 20
0.3417884300325034
 30
0.0
 10
-0.1343539090592568
 20
0.3415355665176081
 30
0.0
 10
-0.1332575748152777
 20
0.3414091347412685
 30
0.0
  0
SPLINE
  5
22B
330
20D
100
AcDbEntity
  8
0
  6
Continuous
 62
     7
370
    25
100
AcDbSpline
210
0.0
220
0.0
230
1.0
 70
     8
 71
     3
 72
    25
 73
    21
 74
     0
 42
0.00000001
 43
0.00000001
 40
0.0
 40
0.0
 40
0.0
 40
0.0
 40
0.031283132896537
 40
0.0625662564440728
 40
0.1250567943058365
 40
0.1875473353888043
 40
0.250037866585534
 40
0.3125283960321104
 40
0.3750189337011878
 40
0.4375094664427834
 40
0.5000000026844379
 40
0.5624905322288339
 40
0.6249810714103156
 40
0.68747160314436
 40
0.7499621325909364
 40
0.8124526637876656
 40
0.8749432048706339
 40
0.9374337427323977
 40
0.9687168670211098
 40
1.0
 40
1.0
 40
1.0
 40
1.0
 10
-0.1332575748152777
 20
0.3414091347412685
 30
0.0
 10
-0.1321844438559663
 20
0.3412622395927546
 30
0.0
 10
-0.1300381822580502
 20
0.3409684493396266
 30
0.0
 10
-0.1259944561254971
 20
0.3402077776156941
 30
0.0
 10
-0.1213690407735531
 20
0.3390264426434015
 30
0.0
 10
-0.1167693360661729
 20
0.3372712520219857
 30
0.0
 10
-0.1132817011494585
 20
0.3352518203187638
 30
0.0
 10
-0.1110439535353918
 20
0.3330440812836589
 30
0.0
 10
-0.1101410710981991
 20
0.3307333251779918
 30
0.0
 10
-0.1106080234446643
 20
0.3284082328241819
 30
0.0
 10
-0.1124267979211393
 20
0.3261581882745712
 30
0.0
 10
-0.1155275110517173
 20
0.3240696527615383
 30
0.0
 10
-0.1197910083551385
 20
0.3222228801186119
 30
0.0
 10
-0.1250534351562274
 20
0.3206888800722575
 30
0.0
 10
-0.1311125918991093
 20
0.3195264527610334
 30
0.0
 10
-0.1377355036656922
 20
0.3187808302299259
 30
0.0
 10
-0.1446681306392664
 20
0.3184785767684069
 30
0.0
 10
-0.1504813309891187
 20
0.3186123839393009
 30
0.0
 10
-0.1550235369966581
 20
0.318933437608845
 30
0.0
 10
-0.1572162052088977
 20
0.3191863011124524
 30
0.0
 10
-0.1583125394672935
 20
0.3193127328818169
 30
0.0
  0
SPLINE
  5
22C
330
20D
100
AcDbEntity
  8
0
  6
Continuous
 62
     7
370
    25
100
AcDbSpline
210
0.0
220
0.0
230
1.0
 70
     8
 71
     3
 72
    29
 73
    25
 74
     0
 42
0.00000001
 43
0.00000001
 40
0.0
 40
0.0
 40
0.0
 40
0.0
 40
0.0156625311555114
 40
0.0312872383925571
 40
0.0469119450785907
 40
0.0625744745850577
 40
0.0938522785231681
 40
0.1251300816531743
 40
0.1876099763416512
 40
0.2500898676973014
 40
0.3125697599567719
 40
0.3750496505856
 40
0.4375295425661138
 40
0.5000094346492798
 40
0.5624893267324459
 40
0.6249692167795184
 40
0.6874491091902164
 40
0.7499290014496868
 40
0.8124088928053367
 40
0.8748887874938137
 40
0.9061665902833747
 40
0.9374443944668319
 40
0.9687221960334929
 40
1.0
 40
1.0
 40
1.0
 40
1.0
 10
0.6301953691787001
 20
0.1852561213461181
 30
0.0
 10
0.6283967094256263
 20
0.1854924170385769
 30
0.0
 10
0.6248037335571179
 20
0.185964437785906
 30
0.0
 10
0.6195567470253447
 20
0.1867827847199169
 30
0.0
 10
0.61442912974227
 20
0.1876801733362048
 30
0.0
 10
0.607778704471327
 20
0.188989510224068
 30
0.0
 10
0.5998324809314008
 20
0.1908266649038028
 30
0.0
 10
0.5880668337077585
 20
0.1941648872643312
 30
0.0
 10
0.5752815125735686
 20
0.1990359001734815
 30
0.0
 10
0.5636724399335161
 20
0.2057614249435771
 30
0.0
 10
0.556218759474921
 20
0.2131135876212634
 30
0.0
 10
0.553212357531968
 20
0.2208089455035895
 30
0.0
 10
0.5547673126115665
 20
0.2285520126651944
 30
0.0
 10
0.5608242598350914
 20
0.2360451614712707
 30
0.0
 10
0.5711503077264602
 20
0.2430004560592381
 30
0.0
 10
0.5853487568383161
 20
0.2491505867159956
 30
0.0
 10
0.6028735881043055
 20
0.2542592741221832
 30
0.0
 10
0.6230527403117759
 20
0.2581299464124869
 30
0.0
 10
0.6451054822721478
 20
0.2606147825022728
 30
0.0
 10
0.6643588826189093
 20
0.2614483585854618
 30
0.0
 10
0.6798096614264288
 20
0.2613595467673906
 30
0.0
 10
0.6913248421200324
 20
0.2609058508452487
 30
0.0
 10
0.7026819179931676
 20
0.2601056144026312
 30
0.0
 10
0.7099832854872228
 20
0.2592632381237865
 30
0.0
 10
0.7136339693743031
 20
0.2588420499682059
 30
0.0
  0
SPLINE
  5
22D
330
20D
100
AcDbEntity
  8
0
  6
Continuous
 62
     7
370
    25
100
AcDbSpline
210
0.0
220
0.0
230
1.0
 70
     8
 71
     3
 72
    29
 73
    25
 74
     0
 42
0.00000001
 43
0.00000001
 40
0.0
 40
0.0
 40
0.0
 40
0.0
 40
0.0156625311526155
 40
0.0312872383620116
 40
0.0469119449709011
 40
0.0625744743263496
 40
0.0938522785101891
 40
0.1251300813001327
 40
0.1876099759893737
 40
0.2500898673457874
 40
0.3125697596060216
 40
0.3750496520174835
 40
0.4375295420653199
 40
0.5000094341492497
 40
0.5624893262331795
 40
0.6249692182144572
 40
0.6874491088440493
 40
0.7499290011042836
 40
0.8124088924606976
 40
0.8748887871499385
 40
0.9061665902803279
 40
0.9374443942188201
 40
0.9687221960083873
 40
1.0
 40
1.0
 40
1.0
 40
1.0
 10
0.7136339693743031
 20
0.2588420499682059
 30
0.0
 10
0.7154326291296325
 20
0.2586057542783946
 30
0.0
 10
0.7190256049998032
 20
0.2581337335367273
 30
0.0
 10
0.7242725915857771
 20
0.2573153866521615
 30
0.0
 10
0.7294002089219019
 20
0.2564179980968398
 30
0.0
 10
0.7360506345394884
 20
0.255108661394836
 30
0.0
 10
0.7439968575030529
 20
0.2532715064530628
 30
0.0
 10
0.7557625053817806
 20
0.2499332843761248
 30
0.0
 10
0.7685478261702035
 20
0.2450622713392373
 30
0.0
 10
0.7801568988710588
 20
0.2383367466122305
 30
0.0
 10
0.7876105795386983
 20
0.2309845838582789
 30
0.0
 10
0.7906169808022531
 20
0.2232892259596845
 30
0.0
 10
0.7890620262677949
 20
0.215546158806124
 30
0.0
 10
0.7830050789740881
 20
0.2080530100689778
 30
0.0
 10
0.7726790308933027
 20
0.2010977154447978
 30
0.0
 10
0.7584805821743233
 20
0.1949475846617615
 30
0.0
 10
0.740955750431134
 20
0.1898388974177711
 30
0.0
 10
0.7207765985315299
 20
0.1859682251378197
 30
0.0
 10
0.6987238565321929
 20
0.1834833890051337
 30
0.0
 10
0.6794704561766725
 20
0.1826498130852047
 30
0.0
 10
0.6640196773036549
 20
0.18273862456406
 30
0.0
 10
0.6525044966943668
 20
0.1831923208197474
 30
0.0
 10
0.6411474206206538
 20
0.1839925569086806
 30
0.0
 10
0.6338460530783575
 20
0.1848349331904214
 30
0.0
 10
0.6301953691787001
 20
0.1852561213461181
 30
0.0
  0
SPLINE
  5
22E
330
20D
100
AcDbEntity
  8
0
  6
Continuous
 62
     7
370
    25
100
AcDbSpline
210
0.0
220
0.0
230
1.0
 70
     8
 71
     3
 72
    11
 73
     7
 74
     0
 42
0.00000001
 43
0.00000001
 40
0.0
 40
0.0
 40
0.0
 40
0.0
 40
0.2885294253694454
 40
0.5770588507388935
 40
0.86558827610834
 40
1.0
 40
1.0
 40
1.0
 40
1.0
 10
0.553929478644343
 20
-0.4412991814550744
 30
0.0
 10
0.5577729009953475
 20
-0.4416237059112849
 30
0.0
 10
0.5654597456973562
 20
-0.442272754823706
 30
0.0
 10
0.5770868504475868
 20
-0.4412505788377699
 30
0.0
 10
0.5856197579270588
 20
-0.4394676440954298
 30
0.0
 10
0.588404430685438
 20
-0.4377839731424057
 30
0.0
 10
0.5892894064476254
 20
-0.4372488984265553
 30
0.0
  0
SPLINE
  5
230
330
20D
100
AcDbEntity
  8
0
  6
Continuous
 62
     7
370
    25
100
AcDbSpline
210
0.0
220
0.0
230
1.0
 70
     8
 71
     3
 72
    10
 73
     6
 74
     0
 42
0.00000001
 43
0.00000001
 40
0.0
 40
0.0
 40
0.0
 40
0.0
 40
0.230342129614632
 40
0.6151710648073149
 40
1.0
 40
1.0
 40
1.0
 40
1.0
 10
0.1695093084094442
 20
0.1063616094038928
 30
0.0
 10
0.1691893036963287
 20
0.1069952496503777
 30
0.0
 10
0.1683346721947444
 20
0.1086875025864212
 30
0.0
 10
0.1630366395877721
 20
0.1110349517717906
 30
0.0
 10
0.1573353449372288
 20
0.1120286131005223
 30
0.0
 10
0.1544846976119572
 20
0.1125254437648881
 30
0.0
  0
SPLINE
  5
231
330
20D
100
AcDbEntity
  8
0
  6
Continuous
 62
     7
370
    25
100
AcDbSpline
210
0.0
220
0.0
230
1.0
 70
     8
 71
     3
 72
    12
 73
     8
 74
     0
 42
0.00000001
 43
0.00000001
 40
0.0
 40
0.0
 40
0.0
 40
0.0
 40
0.102093622538067
 40
0.3265702169035509
 40
0.5510468112690337
 40
0.7755234056345168
 40
1.0
 40
1.0
 40
1.0
 40
1.0
 10
0.1220506784611194
 20
0.1063172143217957
 30
0.0
 10
0.1222145890237792
 20
0.1068028832222624
 30
0.0
 10
0.1227388951133258
 20
0.1083564082537556
 30
0.0
 10
0.1275179346862114
 20
0.1106107549255036
 30
0.0
 10
0.1353462612865342
 20
0.1125110900438144
 30
0.0
 10
0.1450635899530378
 20
0.1133176006857152
 30
0.0
 10
0.1513443283923174
 20
0.1127894960718304
 30
0.0
 10
0.1544846976119572
 20
0.112525443764888
 30
0.0
  0
SPLINE
  5
232
330
20D
100
AcDbEntity
  8
0
  6
Continuous
 62
     7
370
    25
100
AcDbSpline
210
0.0
220
0.0
230
1.0
 70
     8
 71
     3
 72
    12
 73
     8
 74
     0
 42
0.00000001
 43
0.00000001
 40
0.0
 40
0.0
 40
0.0
 40
0.0
 40
0.1829839811186633
 40
0.3872379858389975
 40
0.5914919905593317
 40
0.7957459952796658
 40
1.0
 40
1.0
 40
1.0
 40
1.0
 10
0.7416970545626954
 20
0.0313846452024233
 30
0.0
 10
0.7436516225144258
 20
0.0291620840641916
 30
0.0
 10
0.747787957029537
 20
0.024458611698407
 30
0.0
 10
0.7527737870926363
 20
0.0122180284074746
 30
0.0
 10
0.7566512598360791
 20
-0.0036706983405464
 30
0.0
 10
0.759129521422854
 20
-0.0225270413597196
 30
0.0
 10
0.7594409853714141
 20
-0.0368262491653766
 30
0.0
 10
0.7595967173456941
 20
-0.0439758530682051
 30
0.0
  0
SPLINE
  5
233
330
20D
100
AcDbEntity
  8
0
  6
Continuous
 62
     7
370
    25
100
AcDbSpline
210
0.0
220
0.0
230
1.0
 70
     8
 71
     3
 72
    16
 73
    12
 74
     0
 42
0.00000001
 43
0.00000001
 40
0.0
 40
0.0
 40
0.0
 40
0.0
 40
0.115845287235656
 40
0.2316905744713124
 40
0.3475358617069695
 40
0.4633811489426254
 40
0.5792264361782814
 40
0.6950717234139379
 40
0.8109170106495943
 40
0.9267622978852508
 40
1.0
 40
1.0
 40
1.0
 40
1.0
 10
0.7595967173456941
 20
-0.043975853088203
 30
0.0
 10
0.7594413056235502
 20
-0.0514010340509202
 30
0.0
 10
0.7591304821792625
 20
-0.0662513959763544
 30
0.0
 10
0.7566474168047216
 20
-0.0894656063720318
 30
0.0
 10
0.752788198456423
 20
-0.1122443778511463
 30
0.0
 10
0.7475548643969911
 20
-0.1338456202228205
 30
0.0
 10
0.7411883556314884
 20
-0.1533880663057135
 30
0.0
 10
0.7339202962069841
 20
-0.1701919998401128
 30
0.0
 10
0.7260423159162382
 20
-0.1833776427019455
 30
0.0
 10
0.7188288461687695
 20
-0.1920861939394216
 30
0.0
 10
0.7144025571881011
 20
-0.1944373652408548
 30
0.0
 10
0.7126881182798009
 20
-0.1953480467568742
 30
0.0
  0
SPLINE
  5
234
330
20D
100
AcDbEntity
  8
0
  6
Continuous
 62
     7
370
    25
100
AcDbSpline
210
0.0
220
0.0
230
1.0
 70
     8
 71
     3
 72
    28
 73
    24
 74
     0
 42
0.00000001
 43
0.00000001
 40
0.0
 40
0.0
 40
0.0
 40
0.0
 40
0.0208715803012836
 40
0.0416983130010125
 40
0.0625698930639837
 40
0.093847849343248
 40
0.1251258054334642
 40
0.1876060025173522
 40
0.2500862001477294
 40
0.3125663977781067
 40
0.3750465948619946
 40
0.4375267915170281
 40
0.500006989616215
 40
0.5624871877154018
 40
0.6249673843704354
 40
0.6874475814543234
 40
0.7499277790847005
 40
0.8124079767150778
 40
0.8748881737989657
 40
0.906166129889182
 40
0.9374440861684464
 40
0.9687220429500465
 40
1.0
 40
1.0
 40
1.0
 40
1.0
 10
0.700439161898954
 20
-0.096147913030333
 30
0.0
 10
0.7004462841886184
 20
-0.0951286513622805
 30
0.0
 10
0.7004605134639975
 20
-0.0930923181545943
 30
0.0
 10
0.7005763759229753
 20
-0.0899662855350299
 30
0.0
 10
0.7007918827505524
 20
-0.0862802665365726
 30
0.0
 10
0.7011614234224663
 20
-0.0820200227715967
 30
0.0
 10
0.7019291530814845
 20
-0.0756231385283254
 30
0.0
 10
0.7032782829277939
 20
-0.0676993182005701
 30
0.0
 10
0.7054559660718352
 20
-0.058703931878653
 30
0.0
 10
0.7081096131509772
 20
-0.0505558462949415
 30
0.0
 10
0.711137103535272
 20
-0.0435706745739732
 30
0.0
 10
0.7144221308368833
 20
-0.038016186620957
 30
0.0
 10
0.7178384427819376
 20
-0.0341060188342214
 30
0.0
 10
0.7212547557575786
 20
-0.031990377935624
 30
0.0
 10
0.7245397799674309
 20
-0.0317506246111256
 30
0.0
 10
0.7275672816881753
 20
-0.0333957970455798
 30
0.0
 10
0.7302208865132771
 20
-0.0368633196235592
 30
0.0
 10
0.7323987273370289
 20
-0.0420175201596543
 30
0.0
 10
0.7337473666771529
 20
-0.0475620530057286
 30
0.0
 10
0.7345160975171259
 20
-0.052604067080288
 30
0.0
 10
0.7349286742066098
 20
-0.0566648095455001
 30
0.0
 10
0.7351896155759461
 20
-0.060945656112466
 30
0.0
 10
0.7352216878642363
 20
-0.0639541959808323
 30
0.0
 10
0.73523772400845
 20
-0.0654584659214684
 30
0.0
  0
SPLINE
  5
235
330
20D
100
AcDbEntity
  8
0
  6
Continuous
 62
     7
370
    25
100
AcDbSpline
210
0.0
220
0.0
230
1.0
 70
     8
 71
     3
 72
    28
 73
    24
 74
     0
 42
0.00000001
 43
0.00000001
 40
0.0
 40
0.0
 40
0.0
 40
0.0
 40
0.0208715803012834
 40
0.0416983130010123
 40
0.0625698930639836
 40
0.0938478493432481
 40
0.1251258054334642
 40
0.1876060025173522
 40
0.2500862001477294
 40
0.3125663977781067
 40
0.3750465948619945
 40
0.4375267915170281
 40
0.5000069896162149
 40
0.5624871877154017
 40
0.6249673843704353
 40
0.6874475814543232
 40
0.7499277790847004
 40
0.8124079767150777
 40
0.8748881737989657
 40
0.9061661298891819
 40
0.9374440861684463
 40
0.9687220429500464
 40
1.0
 40
1.0
 40
1.0
 40
1.0
 10
0.73523772400845
 20
-0.0654584659214684
 30
0.0
 10
0.7352306017187857
 20
-0.066477727589521
 30
0.0
 10
0.7352163724434067
 20
-0.0685140607972072
 30
0.0
 10
0.7351005099844291
 20
-0.0716400934167716
 30
0.0
 10
0.7348850031568517
 20
-0.0753261124152289
 30
0.0
 10
0.7345154624849378
 20
-0.0795863561802048
 30
0.0
 10
0.7337477328259192
 20
-0.0859832404234761
 30
0.0
 10
0.7323986029796101
 20
-0.0939070607512314
 30
0.0
 10
0.7302209198355686
 20
-0.1029024470731485
 30
0.0
 10
0.7275672727564269
 20
-0.11105053265686
 30
0.0
 10
0.7245397823721323
 20
-0.1180357043778283
 30
0.0
 10
0.7212547550705206
 20
-0.1235901923308445
 30
0.0
 10
0.7178384431254666
 20
-0.1275003601175801
 30
0.0
 10
0.7144221301498259
 20
-0.1296160010161776
 30
0.0
 10
0.7111371059399731
 20
-0.1298557543406758
 30
0.0
 10
0.7081096042192287
 20
-0.1282105819062217
 30
0.0
 10
0.7054559993941274
 20
-0.1247430593282424
 30
0.0
 10
0.7032781585703746
 20
-0.1195888587921471
 30
0.0
 10
0.7019295192302515
 20
-0.1140443259460729
 30
0.0
 10
0.7011607883902776
 20
-0.1090023118715134
 30
0.0
 10
0.7007482117007944
 20
-0.1049415694063014
 30
0.0
 10
0.7004872703314579
 20
-0.1006607228393355
 30
0.0
 10
0.7004551980431679
 20
-0.0976521829709692
 30
0.0
 10
0.700439161898954
 20
-0.096147913030333
 30
0.0
  0
SPLINE
  5
237
330
20D
100
AcDbEntity
  8
0
  6
Continuous
 62
     7
370
    25
100
AcDbSpline
210
0.0
220
0.0
230
1.0
 70
     8
 71
     3
 72
    12
 73
     8
 74
     0
 42
0.00000001
 43
0.00000001
 40
0.0
 40
0.0
 40
0.0
 40
0.0
 40
0.2213929886241544
 40
0.4427859772483099
 40
0.6641789658724663
 40
0.8855719544966207
 40
1.0
 40
1.0
 40
1.0
 40
1.0
 10
0.7071752934307901
 20
-0.0619229321806812
 30
0.0
 10
0.7071102401638949
 20
-0.0650160509697857
 30
0.0
 10
0.7069801336301046
 20
-0.0712022885479946
 30
0.0
 10
0.7059499988109946
 20
-0.0808854750134268
 30
0.0
 10
0.7043249833396525
 20
-0.0903363540409917
 30
0.0
 10
0.7025489225467892
 20
-0.0980136183929221
 30
0.0
 10
0.7011821307554603
 20
-0.1020384578505962
 30
0.0
 10
0.7007164085481004
 20
-0.1034098862776543
 30
0.0
  0
SPLINE
  5
238
330
20D
100
AcDbEntity
  8
0
  6
Continuous
 62
     7
370
    25
100
AcDbSpline
210
0.0
220
0.0
230
1.0
 70
     8
 71
     3
 72
    10
 73
     6
 74
     0
 42
0.00000001
 43
0.00000001
 40
0.0
 40
0.0
 40
0.0
 40
0.0
 40
0.230342129614632
 40
0.6151710648073149
 40
1.0
 40
1.0
 40
1.0
 40
1.0
 10
-0.2992261603314942
 20
0.1654167275154926
 30
0.0
 10
-0.2995461650446098
 20
0.1660503677619774
 30
0.0
 10
-0.3004007965461941
 20
0.1677426206980209
 30
0.0
 10
-0.3056988291531662
 20
0.1700900698833904
 30
0.0
 10
-0.3114001238037095
 20
0.171083731212122
 30
0.0
 10
-0.3142507711289813
 20
0.1715805618764878
 30
0.0
  0
SPLINE
  5
239
330
20D
100
AcDbEntity
  8
0
  6
Continuous
 62
     7
370
    25
100
AcDbSpline
210
0.0
220
0.0
230
1.0
 70
     8
 71
     3
 72
    12
 73
     8
 74
     0
 42
0.00000001
 43
0.00000001
 40
0.0
 40
0.0
 40
0.0
 40
0.0
 40
0.1020936225380679
 40
0.3265702169035515
 40
0.5510468112690341
 40
0.7755234056345169
 40
1.0
 40
1.0
 40
1.0
 40
1.0
 10
-0.3466847902798189
 20
0.1653723324333954
 30
0.0
 10
-0.3465208797171592
 20
0.1658580013338621
 30
0.0
 10
-0.3459965736276127
 20
0.1674115263653554
 30
0.0
 10
-0.341217534054727
 20
0.1696658730371035
 30
0.0
 10
-0.3333892074544042
 20
0.1715662081554141
 30
0.0
 10
-0.3236718787879006
 20
0.172372718797315
 30
0.0
 10
-0.317391140348621
 20
0.1718446141834301
 30
0.0
 10
-0.3142507711289812
 20
0.1715805618764878
 30
0.0
  0
SPLINE
  5
23A
330
20D
100
AcDbEntity
  8
0
  6
Continuous
 62
     7
370
    25
100
AcDbSpline
210
0.0
220
0.0
230
1.0
 70
     8
 71
     3
 72
    12
 73
     8
 74
     0
 42
0.00000001
 43
0.00000001
 40
0.0
 40
0.0
 40
0.0
 40
0.0
 40
0.2042986005430887
 40
0.4085972010861852
 40
0.6128958016292816
 40
0.8171944021723773
 40
1.0
 40
1.0
 40
1.0
 40
1.0
 10
0.7136339691867299
 20
0.2399858690972967
 30
0.0
 10
0.7207014245522645
 20
0.2389386359575389
 30
0.0
 10
0.7348363352833343
 20
0.2368441696780233
 30
0.0
 10
0.7532178794976594
 20
0.2320328044656529
 30
0.0
 10
0.7684828477849526
 20
0.226205071318288
 30
0.0
 10
0.7799898954159911
 20
0.2197367997037553
 30
0.0
 10
0.7841335387291777
 20
0.2150520365173733
 30
0.0
 10
0.7860903276150636
 20
0.2128397098658621
 30
0.0
  0
SPLINE
  5
23B
330
20D
100
AcDbEntity
  8
0
  6
Continuous
 62
     7
370
    25
100
AcDbSpline
210
0.0
220
0.0
230
1.0
 70
     8
 71
     3
 72
    16
 73
    12
 74
     0
 42
0.00000001
 43
0.00000001
 40
0.0
 40
0.0
 40
0.0
 40
0.0
 40
0.0730964860582813
 40
0.1889594253009957
 40
0.30482236454371
 40
0.4206853037864239
 40
0.5365482430291387
 40
0.6524111822718531
 40
0.7682741215145669
 40
0.8841370607572815
 40
1.0
 40
1.0
 40
1.0
 40
1.0
 10
0.5577390115401509
 20
0.2124022797200731
 30
0.0
 10
0.5588536705326519
 20
0.2139846366241929
 30
0.0
 10
0.5617351404088053
 20
0.2180751376502632
 30
0.0
 10
0.5712645135036158
 20
0.224134645874899
 30
0.0
 10
0.5853180170818967
 20
0.2302969124726934
 30
0.0
 10
0.602882342786562
 20
0.2354026950501253
 30
0.0
 10
0.6230484623709913
 20
0.2392728510648739
 30
0.0
 10
0.6451138403549601
 20
0.2417626567332601
 30
0.0
 10
0.6681748089541992
 20
0.2427433438350669
 30
0.0
 10
0.6914955416249635
 20
0.242305566512323
 30
0.0
 10
0.7062544933328079
 20
0.2407591015689722
 30
0.0
 10
0.7136339691867299
 20
0.2399858690972967
 30
0.0
  0
SPLINE
  5
23C
330
20D
100
AcDbEntity
  8
0
  6
Continuous
 62
     7
370
    25
100
AcDbSpline
210
0.0
220
0.0
230
1.0
 70
     8
 71
     3
 72
    28
 73
    24
 74
     0
 42
0.00000001
 43
0.00000001
 40
0.0
 40
0.0
 40
0.0
 40
0.0
 40
0.02087158042572
 40
0.0416983128781346
 40
0.0625698923122901
 40
0.0938478491506538
 40
0.1251258057079745
 40
0.187606002923797
 40
0.2500861999963099
 40
0.3125663970688233
 40
0.3750465950137894
 40
0.4375267922582143
 40
0.500006989615457
 40
0.5624871869726996
 40
0.624967384217125
 40
0.6874475821620912
 40
0.7499277792346041
 40
0.8124079763071174
 40
0.8748881735229396
 40
0.9061661300802605
 40
0.937444086918624
 40
0.9687220429010326
 40
1.0
 40
1.0
 40
1.0
 40
1.0
 10
0.6533499431724792
 20
0.1868196260939737
 30
0.0
 10
0.6523520301223253
 20
0.1869525299129001
 30
0.0
 10
0.650358348295567
 20
0.1872180519726222
 30
0.0
 10
0.6474740760929956
 20
0.1876982144872839
 30
0.0
 10
0.6442210427694053
 20
0.1883252686016873
 30
0.0
 10
0.6406871020281935
 20
0.189142965333822
 30
0.0
 10
0.6357798833721574
 20
0.190535015589499
 30
0.0
 10
0.6304478296655415
 20
0.1925665861142238
 30
0.0
 10
0.6256061525236024
 20
0.1953714784368744
 30
0.0
 10
0.6224975626944412
 20
0.1984377487761643
 30
0.0
 10
0.6212437221282991
 20
0.2016471413756158
 30
0.0
 10
0.6218922256135034
 20
0.2048764339277406
 30
0.0
 10
0.6244183113114321
 20
0.208001495818335
 30
0.0
 10
0.6287248506088994
 20
0.2109022426789542
 30
0.0
 10
0.6346463981825642
 20
0.2134671910051907
 30
0.0
 10
0.6419552327518433
 20
0.2155977993662264
 30
0.0
 10
0.6503710677234292
 20
0.2172120860692734
 30
0.0
 10
0.6595682940140631
 20
0.2182484017400319
 30
0.0
 10
0.6675980384958036
 20
0.218596049544342
 30
0.0
 10
0.674041877126382
 20
0.2185590101023506
 30
0.0
 10
0.6788443514765903
 20
0.2183697934876322
 30
0.0
 10
0.6835808872991732
 20
0.2180360502061568
 30
0.0
 10
0.6866259659158221
 20
0.2176847321880126
 30
0.0
 10
0.6881485052513222
 20
0.2175090731758051
 30
0.0
  0
SPLINE
  5
23D
330
20D
100
AcDbEntity
  8
0
  6
Continuous
 62
     7
370
    25
100
AcDbSpline
210
0.0
220
0.0
230
1.0
 70
     8
 71
     3
 72
    28
 73
    24
 74
     0
 42
0.00000001
 43
0.00000001
 40
0.0
 40
0.0
 40
0.0
 40
0.0
 40
0.0208715797586191
 40
0.0416983122309777
 40
0.0625698923633816
 40
0.093847848481468
 40
0.1251258057968882
 40
0.1876060017084127
 40
0.2500862000364321
 40
0.3125663971687793
 40
0.3750465944444361
 40
0.4375267921977004
 40
0.5000069896147772
 40
0.5624871870318544
 40
0.6249673847851186
 40
0.6874475820607755
 40
0.7499277791931228
 40
0.8124079775211431
 40
0.8748881734326667
 40
0.9061661307480869
 40
0.9374440868661733
 40
0.968722043643538
 40
1.0
 40
1.0
 40
1.0
 40
1.0
 10
0.6881485052513224
 20
0.2175090731758052
 30
0.0
 10
0.6891464182683733
 20
0.2173761693609488
 30
0.0
 10
0.691140100061778
 20
0.2171106473049922
 30
0.0
 10
0.6940243722579873
 20
0.2166304847872427
 30
0.0
 10
0.6972774056032082
 20
0.2160034306866083
 30
0.0
 10
0.7008113463235278
 20
0.2151857339261534
 30
0.0
 10
0.7057185650175435
 20
0.2137936837202224
 30
0.0
 10
0.7110506185276236
 20
0.211762113125603
 30
0.0
 10
0.7158922959082332
 20
0.2089572208636754
 30
0.0
 10
0.7190008858043883
 20
0.2058909505051862
 30
0.0
 10
0.7202547259160126
 20
0.2026815579019357
 30
0.0
 10
0.7196062229227802
 20
0.1994522653468309
 30
0.0
 10
0.7170801370644694
 20
0.1963272034574787
 30
0.0
 10
0.7127735978897536
 20
0.1934264565624295
 30
0.0
 10
0.7068520499411973
 20
0.190861508342431
 30
0.0
 10
0.6995432157052635
 20
0.1887308998783213
 30
0.0
 10
0.6911273806453543
 20
0.1871166131756944
 30
0.0
 10
0.681930154296135
 20
0.1860802976029166
 30
0.0
 10
0.6739004098233257
 20
0.1857326497034139
 30
0.0
 10
0.6674565712625085
 20
0.1857696891899351
 30
0.0
 10
0.662654096867835
 20
0.1859589057790755
 30
0.0
 10
0.6579175610911873
 20
0.186292649074507
 30
0.0
 10
0.6548724824718857
 20
0.1866439670882727
 30
0.0
 10
0.653349943172479
 20
0.1868196260939736
 30
0.0
  0
SPLINE
  5
240
330
20D
100
AcDbEntity
  8
0
  6
Continuous
 62
     7
370
    25
100
AcDbSpline
210
0.0
220
0.0
230
1.0
 70
     8
 71
     3
 72
    11
 73
     7
 74
     0
 42
0.00000001
 43
0.00000001
 40
0.0
 40
0.0
 40
0.0
 40
0.0
 40
0.0256547416248777
 40
0.3504364944165863
 40
0.6752182472082948
 40
1.0
 40
1.0
 40
1.0
 40
1.0
 10
-0.8328730834538965
 20
-0.2596559344108657
 30
0.0
 10
-0.832927740973059
 20
-0.2597572244025581
 30
0.0
 10
-0.8336743471828911
 20
-0.2611408169612821
 30
0.0
 10
-0.830767925159748
 20
-0.2638605134914287
 30
0.0
 10
-0.8242633606077121
 20
-0.2671883600731537
 30
0.0
 10
-0.8171853177168317
 20
-0.2683966728149441
 30
0.0
 10
-0.8136462962713912
 20
-0.2690008291858393
 30
0.0
  0
SPLINE
  5
241
330
20D
100
AcDbEntity
  8
0
  6
Continuous
 62
     7
370
    25
100
AcDbSpline
210
0.0
220
0.0
230
1.0
 70
     8
 71
     3
 72
    10
 73
     6
 74
     0
 42
0.00000001
 43
0.00000001
 40
0.0
 40
0.0
 40
0.0
 40
0.0
 40
0.2303424704062622
 40
0.6151712352031309
 40
1.0
 40
1.0
 40
1.0
 40
1.0
 10
0.3466746652798702
 20
0.2626067663405564
 30
0.0
 10
0.3463546600798854
 20
0.2632404078183176
 30
0.0
 10
0.3455000283057324
 20
0.2649326620077553
 30
0.0
 10
0.340201994148411
 20
0.2672801123146415
 30
0.0
 10
0.3345006993754103
 20
0.2682737736307346
 30
0.0
 10
0.3316500519889099
 20
0.2687706042887813
 30
0.0
  0
SPLINE
  5
242
330
20D
100
AcDbEntity
  8
0
  6
Continuous
 62
     7
370
    25
100
AcDbSpline
210
0.0
220
0.0
230
1.0
 70
     8
 71
     3
 72
    12
 73
     8
 74
     0
 42
0.00000001
 43
0.00000001
 40
0.0
 40
0.0
 40
0.0
 40
0.0
 40
0.1020936225380683
 40
0.3265702169035516
 40
0.5510468112690345
 40
0.7755234056345177
 40
0.9999999999999999
 40
0.9999999999999999
 40
0.9999999999999999
 40
0.9999999999999999
 10
0.2992160328380721
 20
0.2625623705315993
 30
0.0
 10
0.2993799434007319
 20
0.2630480394320659
 30
0.0
 10
0.2999042494902784
 20
0.2646015644635591
 30
0.0
 10
0.3046832890631641
 20
0.2668559111353073
 30
0.0
 10
0.3125116156634869
 20
0.268756246253618
 30
0.0
 10
0.3222289443299904
 20
0.2695627568955188
 30
0.0
 10
0.3285096827692701
 20
0.269034652281634
 30
0.0
 10
0.3316500519889099
 20
0.2687705999746917
 30
0.0
  0
SPLINE
  5
243
330
20D
100
AcDbEntity
  8
0
  6
Continuous
 62
     7
370
    25
100
AcDbSpline
210
0.0
220
0.0
230
1.0
 70
     8
 71
     3
 72
    10
 73
     6
 74
     0
 42
0.00000001
 43
0.00000001
 40
0.0
 40
0.0
 40
0.0
 40
0.0
 40
0.2303428045400552
 40
0.6151714022700274
 40
1.0
 40
1.0
 40
1.0
 40
1.0
 10
-0.1220608010163063
 20
0.3216618851648167
 30
0.0
 10
-0.1223808066936487
 20
0.3222955278498008
 30
0.0
 10
-0.1232354387350456
 20
0.3239877832681464
 30
0.0
 10
-0.1285334744124299
 20
0.3263352346746403
 30
0.0
 10
-0.1342347693054956
 20
0.3273288959783417
 30
0.0
 10
-0.1370854167520285
 20
0.3278257266301924
 30
0.0
  0
SPLINE
  5
244
330
20D
100
AcDbEntity
  8
0
  6
Continuous
 62
     7
370
    25
100
AcDbSpline
210
0.0
220
0.0
230
1.0
 70
     8
 71
     3
 72
    12
 73
     8
 74
     0
 42
0.00000001
 43
0.00000001
 40
0.0
 40
0.0
 40
0.0
 40
0.0
 40
0.1020936225380683
 40
0.3265702169035516
 40
0.5510468112690345
 40
0.7755234056345177
 40
0.9999999999999999
 40
0.9999999999999999
 40
0.9999999999999999
 40
0.9999999999999999
 10
-0.1695194359028663
 20
0.321617488643199
 30
0.0
 10
-0.1693555253402065
 20
0.3221031575436658
 30
0.0
 10
-0.1688312192506599
 20
0.3236566825751589
 30
0.0
 10
-0.1640521796777742
 20
0.325911029246907
 30
0.0
 10
-0.1562238530774515
 20
0.3278113643652178
 30
0.0
 10
-0.1465065244109478
 20
0.3286178750071185
 30
0.0
 10
-0.1402257859716683
 20
0.3280897703932338
 30
0.0
 10
-0.1370854167520285
 20
0.3278257180862914
 30
0.0
  0
LINE
  5
245
330
20D
100
AcDbEntity
  8
0
  6
Continuous
 62
     7
370
    25
100
AcDbLine
 10
-0.8330396946
 20
-0.2580522755
 30
0.0
 11
-0.8330396946
 21
-0.2596466857
 31
0.0
  0
LINE
  5
246
330
20D
100
AcDbEntity
  8
0
  6
Continuous
 62
     7
370
    25
100
AcDbLine
 10
-0.5858985252
 20
0.4298069569
 30
0.0
 11
-0.8757409777
 21
0.1741899414
 31
0.0
  0
LINE
  5
247
330
20D
100
AcDbEntity
  8
0
  6
Continuous
 62
     7
370
    25
100
AcDbLine
 10
-0.8503675969
 20
0.1965671593
 30
0.0
 11
0.5858985252
 21
0.0156146367
 31
0.0
  0
LINE
  5
248
330
20D
100
AcDbEntity
  8
0
  6
Continuous
 62
     7
370
    25
100
AcDbLine
 10
0.5858985252
 20
0.0156146366
 30
0.0
 11
0.5973524817
 21
-0.0114023897
 31
0.0
  0
LINE
  5
249
330
20D
100
AcDbEntity
  8
0
  6
Continuous
 62
     7
370
    25
100
AcDbLine
 10
0.5973524818
 20
-0.0114023896
 30
0.0
 11
-0.875740978
 21
0.1741899414
 31
0.0
  0
LINE
  5
24A
330
20D
100
AcDbEntity
  8
0
  6
Continuous
 62
     7
370
    25
100
AcDbLine
 10
0.8503675969
 20
0.2488544344
 30
0.0
 11
0.5858985252
 21
0.0156146366
 31
0.0
  0
LINE
  5
24B
330
20D
100
AcDbEntity
  8
0
  6
Continuous
 62
     7
370
    25
100
AcDbLine
 10
0.8757409781
 20
0.2341131868
 30
0.0
 11
0.8503675969
 21
0.2488544344
 31
0.0
  0
LINE
  5
24C
330
20D
100
AcDbEntity
  8
0
  6
Continuous
 62
     7
370
    25
100
AcDbLine
 10
0.5973524817
 20
-0.0114023897
 30
0.0
 11
0.8757409781
 21
0.2341131868
 31
0.0
  0
LINE
  5
24D
330
20D
100
AcDbEntity
  8
0
  6
Continuous
 62
     7
370
    25
100
AcDbLine
 10
0.875740978
 20
0.2341131867
 30
0.0
 11
0.875740978
 21
-0.1927491742
 31
0.0
  0
LINE
  5
24E
330
20D
100
AcDbEntity
  8
0
  6
Continuous
 62
     7
370
    25
100
AcDbLine
 10
0.875740978
 20
-0.1927491742
 30
0.0
 11
0.5973524818
 21
-0.4382647504
 31
0.0
  0
LINE
  5
24F
330
20D
100
AcDbEntity
  8
0
  6
Continuous
 62
     7
370
    25
100
AcDbLine
 10
0.5973524818
 20
-0.4382647504
 30
0.0
 11
0.5973524818
 21
-0.0114023896
 31
0.0
  0
LINE
  5
250
330
20D
100
AcDbEntity
  8
0
  6
Continuous
 62
     7
370
    25
100
AcDbLine
 10
0.5973524818
 20
-0.4382647504
 30
0.0
 11
-0.875740978
 21
-0.2526724195
 31
0.0
  0
LINE
  5
251
330
20D
100
AcDbEntity
  8
0
  6
Continuous
 62
     7
370
    25
100
AcDbLine
 10
-0.875740978
 20
-0.2526724195
 30
0.0
 11
-0.875740978
 21
0.1741899414
 31
0.0
  0
LINE
  5
252
330
20D
100
AcDbEntity
  8
0
  6
Continuous
 62
     7
370
    25
100
AcDbLine
 10
0.8503675969
 20
0.2488544344
 30
0.0
 11
-0.5858985252
 21
0.4298069569
 31
0.0
  0
LINE
  5
253
330
20D
100
AcDbEntity
  8
0
  6
Continuous
 62
     7
370
    25
100
AcDbLine
 10
-0.8136462963
 20
-0.2690008292
 30
0.0
 11
0.5539294786
 21
-0.4412991815
 31
0.0
  0
LINE
  5
254
330
20D
100
AcDbEntity
  8
0
  6
Continuous
 62
     7
370
    25
100
AcDbLine
 10
0.706898047
 20
-0.0546609588
 30
0.0
 11
0.7071752934
 21
-0.0619229322
 31
0.0
  0
VIEWPORT
  5
265
330
20D
100
AcDbEntity
  8
0
100
AcDbViewport
 10
0.0
 20
0.0
 30
0.0
 40
8.4
 41
6.4
 68
     1
 69
     1
 12
0.0000000001
 22
-0.0068491622
 13
0.0
 23
0.0
 14
0.5
 24
0.5
 15
0.5
 25
0.5
 16
0.0
 26
0.0
 36
1.0
 17
0.0
 27
0.0
 37
0.0
 42
50.0
 43
0.0
 44
0.0
 45
1.3679743623
 50
0.0
 51
0.0
 72
   100
 90
   557152
  1

281
     0
 71
     1
 74
     0
110
0.0
120
0.0
130
0.0
111
1.0
121
0.0
131
0.0
112
0.0
122
1.0
132
0.0
 79
     0
146
0.0
  0
ENDBLK
  5
210
330
20D
100
AcDbEntity
  8
0
100
AcDbBlockEnd
  0
ENDSEC
  0
SECTION
  2
ENTITIES
  0
SPLINE
  5
7C
330
1F
100
AcDbEntity
  8
0
  6
Continuous
 62
     7
370
    25
100
AcDbSpline
210
0.0
220
0.0
230
1.0
 70
     8
 71
     3
 72
    33
 73
    29
 74
     0
 42
0.00000001
 43
0.00000001
 40
0.0
 40
0.0
 40
0.0
 40
0.0
 40
0.0125326067531856
 40
0.0250361822953101
 40
0.0375300657498707
 40
0.0500336412123375
 40
0.0625662478065768
 40
0.0938388079043408
 40
0.1251113680193449
 40
0.1563839278965199
 40
0.1876564873384955
 40
0.2501259052265496
 40
0.3125953222159227
 40
0.3750647407286645
 40
0.4375341572117584
 40
0.5000035755495185
 40
0.5624729938872786
 40
0.6249424103703726
 40
0.6874118288831146
 40
0.7498812458724875
 40
0.8123506637605417
 40
0.8436232232025174
 40
0.8748957830796923
 40
0.9061683431946965
 40
0.9374409032924604
 40
0.9583088819902795
 40
0.9791320210812137
 40
1.0
 40
1.0
 40
1.0
 40
1.0
 10
0.225656869992899
 20
0.1411517623325923
 30
0.0
 10
0.2240624693629912
 20
0.1396371022025682
 30
0.0
 10
0.2208773614594035
 20
0.1366112905835223
 30
0.0
 10
0.2156696131682421
 20
0.1322021575427536
 30
0.0
 10
0.2101572978086304
 20
0.1278983479912306
 30
0.0
 10
0.2043088160304123
 20
0.123708312917678
 30
0.0
 10
0.1950651429300434
 20
0.1176037963472567
 30
0.0
 10
0.181669268952746
 20
0.1099039855374928
 30
0.0
 10
0.1631719919286078
 20
0.1011826199579082
 30
0.0
 10
0.14311074558539
 20
0.0934291975516884
 30
0.0
 10
0.1145432985657396
 20
0.0845070791515238
 30
0.0
 10
0.0758453015545085
 20
0.0761216456562297
 30
0.0
 10
0.0265312547663102
 20
0.0709311516940099
 30
0.0
 10
-0.0238096055638686
 20
0.0707923550760659
 30
0.0
 10
-0.0732335364153482
 20
0.075715247391652
 30
0.0
 10
-0.1198436715761799
 20
0.085509366800894
 30
0.0
 10
-0.1618481087790872
 20
0.0997987893191959
 30
0.0
 10
-0.1976329767386331
 20
0.1180338230183276
 30
0.0
 10
-0.2258224392531538
 20
0.1395154775381648
 30
0.0
 10
-0.2453354372454777
 20
0.1634116917690606
 30
0.0
 10
-0.253736065648155
 20
0.1845975091271615
 30
0.0
 10
-0.2555586485952306
 20
0.2017790136871972
 30
0.0
 10
-0.2544542937434331
 20
0.2146844299178785
 30
0.0
 10
-0.2509133590815791
 20
0.2274709208110937
 30
0.0
 10
-0.2456082117293516
 20
0.2386276437358623
 30
0.0
 10
-0.2394312886610934
 20
0.2481443969512872
 30
0.0
 10
-0.2331735022407039
 20
0.2561271524351921
 30
0.0
 10
-0.2281642099480571
 20
0.2612466596775771
 30
0.0
 10
-0.2256568699928989
 20
0.2638091663770558
 30
0.0
  0
SPLINE
  5
7D
330
1F
100
AcDbEntity
  8
0
  6
Continuous
 62
     7
370
    25
100
AcDbSpline
210
0.0
220
0.0
230
1.0
 70
     8
 71
     3
 72
    33
 73
    29
 74
     0
 42
0.00000001
 43
0.00000001
 40
0.0
 40
0.0
 40
0.0
 40
0.0
 40
0.0125326067531859
 40
0.0250361822953101
 40
0.0375300657498708
 40
0.0500336412123374
 40
0.0625662478065767
 40
0.0938388079043405
 40
0.125111368019345
 40
0.1563839278965198
 40
0.1876564873384955
 40
0.2501259052265496
 40
0.3125953222159225
 40
0.3750647407286646
 40
0.4375341572117585
 40
0.5000035755495186
 40
0.5624729938872787
 40
0.6249424103703726
 40
0.6874118288831144
 40
0.7498812458724875
 40
0.8123506637605417
 40
0.8436232232025173
 40
0.8748957830796921
 40
0.9061683431946964
 40
0.9374409032924603
 40
0.9583088819902793
 40
0.9791320210812137
 40
1.0
 40
1.0
 40
1.0
 40
1.0
 10
-0.2256568699928989
 20
0.2638091663770558
 30
0.0
 10
-0.2240624693629911
 20
0.2653238265070799
 30
0.0
 10
-0.2208773614594033
 20
0.2683496381261258
 30
0.0
 10
-0.2156696131682419
 20
0.2727587711668944
 30
0.0
 10
-0.2101572978086302
 20
0.2770625807184175
 30
0.0
 10
-0.2043088160304123
 20
0.2812526157919701
 30
0.0
 10
-0.1950651429300435
 20
0.2873571323623914
 30
0.0
 10
-0.1816692689527461
 20
0.2950569431721553
 30
0.0
 10
-0.1631719919286077
 20
0.3037783087517399
 30
0.0
 10
-0.1431107455853903
 20
0.3115317311579597
 30
0.0
 10
-0.1145432985657395
 20
0.3204538495581242
 30
0.0
 10
-0.0758453015545086
 20
0.3288392830534184
 30
0.0
 10
-0.0265312547663102
 20
0.3340297770156382
 30
0.0
 10
0.0238096055638686
 20
0.3341685736335824
 30
0.0
 10
0.0732335364153482
 20
0.329245681317996
 30
0.0
 10
0.1198436715761799
 20
0.3194515619087542
 30
0.0
 10
0.1618481087790871
 20
0.3051621393904522
 30
0.0
 10
0.1976329767386331
 20
0.2869271056913205
 30
0.0
 10
0.2258224392531536
 20
0.2654454511714835
 30
0.0
 10
0.2453354372454775
 20
0.2415492369405874
 30
0.0
 10
0.2537360656481553
 20
0.2203634195824867
 30
0.0
 10
0.2555586485952303
 20
0.2031819150224511
 30
0.0
 10
0.2544542937434333
 20
0.1902764987917695
 30
0.0
 10
0.2509133590815792
 20
0.1774900078985545
 30
0.0
 10
0.2456082117293518
 20
0.1663332849737856
 30
0.0
 10
0.2394312886610932
 20
0.1568165317583608
 30
0.0
 10
0.2331735022407039
 20
0.1488337762744561
 30
0.0
 10
0.2281642099480572
 20
0.143714269032071
 30
0.0
 10
0.225656869992899
 20
0.1411517623325923
 30
0.0
  0
SPLINE
  5
7E
330
1F
100
AcDbEntity
  8
0
  6
Continuous
 62
     7
370
    25
100
AcDbSpline
210
0.0
220
0.0
230
1.0
 70
     8
 71
     3
 72
    25
 73
    21
 74
     0
 42
0.00000001
 43
0.00000001
 40
0.0
 40
0.0
 40
0.0
 40
0.0
 40
0.0312831329788903
 40
0.0625662572676009
 40
0.1250567951293662
 40
0.1875473362123356
 40
0.2500378674090636
 40
0.3125283968556399
 40
0.3750189285896849
 40
0.4375094677711663
 40
0.4999999973155621
 40
0.5624905335572163
 40
0.6249810662988114
 40
0.6874716039678896
 40
0.749962133414466
 40
0.8124526646111945
 40
0.8749432056941635
 40
0.9374337435559289
 40
0.9687168671034627
 40
1.0
 40
1.0
 40
1.0
 40
1.0
 10
0.3219845619745824
 20
0.2402444120998049
 30
0.0
 10
0.3209742803523927
 20
0.2405380943706611
 30
0.0
 10
0.3189537173886609
 20
0.2411254588307913
 30
0.0
 10
0.3152237928051684
 20
0.2425497022851115
 30
0.0
 10
0.3110729733355665
 20
0.2446560213346113
 30
0.0
 10
0.3071609080590383
 20
0.2476405448345274
 30
0.0
 10
0.3044505387882123
 20
0.250959262332351
 30
0.0
 10
0.3030504057007937
 20
0.2544869589606386
 30
0.0
 10
0.3030131377511411
 20
0.2580874454199436
 30
0.0
 10
0.3043404841240756
 20
0.2616225237332082
 30
0.0
 10
0.3069813545265262
 20
0.2649562984249404
 30
0.0
 10
0.3108342756847798
 20
0.2679606636063634
 30
0.0
 10
0.3157511898092568
 20
0.2705201743304909
 30
0.0
 10
0.3215431155862062
 20
0.2725364110147778
 30
0.0
 10
0.3279875624500306
 20
0.2739321189505388
 30
0.0
 10
0.3348365406348361
 20
0.2746528106796923
 30
0.0
 10
0.3418280958022856
 20
0.2746739636787622
 30
0.0
 10
0.3475468077429033
 20
0.2740979558684242
 30
0.0
 10
0.3519347329738985
 20
0.273315941069606
 30
0.0
 10
0.3540165532294541
 20
0.2727883656479752
 30
0.0
 10
0.3550574635127705
 20
0.272524577897743
 30
0.0
  0
SPLINE
  5
7F
330
1F
100
AcDbEntity
  8
0
  6
Continuous
 62
     7
370
    25
100
AcDbSpline
210
0.0
220
0.0
230
1.0
 70
     8
 71
     3
 72
    25
 73
    21
 74
     0
 42
0.00000001
 43
0.00000001
 40
0.0
 40
0.0
 40
0.0
 40
0.0
 40
0.031283133156832
 40
0.0625662569646641
 40
0.1250567953463901
 40
0.1875473247668869
 40
0.2500378671615733
 40
0.3125283971281131
 40
0.3750189353171541
 40
0.4375094645688594
 40
0.5000000026844378
 40
0.5624905341027578
 40
0.6249810697943496
 40
0.6874716020483574
 40
0.7499621320148969
 40
0.8124526744095831
 40
0.8749432038300802
 40
0.9374337422118059
 40
0.968716866760815
 40
1.0
 40
1.0
 40
1.0
 40
1.0
 10
0.3550574635127705
 20
0.272524577897743
 30
0.0
 10
0.3560677451410904
 20
0.2722308956395879
 30
0.0
 10
0.3580883080958063
 20
0.2716435312110447
 30
0.0
 10
0.361818233243057
 20
0.2702192881921796
 30
0.0
 10
0.3659690524427557
 20
0.268112969220625
 30
0.0
 10
0.3698811162872047
 20
0.2651284453573201
 30
0.0
 10
0.3725914873372511
 20
0.2618097282819098
 30
0.0
 10
0.3739916200252339
 20
0.2582820312686527
 30
0.0
 10
0.3740288883142835
 20
0.2546815448041052
 30
0.0
 10
0.3727015390771329
 20
0.251146466846479
 30
0.0
 10
0.3700606724082175
 20
0.2478126914509819
 30
0.0
 10
0.366207747502672
 20
0.2448083274269467
 30
0.0
 10
0.3612908365991022
 20
0.2422488154258496
 30
0.0
 10
0.3554989098022012
 20
0.2402325794564812
 30
0.0
 10
0.3490544631422515
 20
0.2388368710701947
 30
0.0
 10
0.3422054846074304
 20
0.2381161804175989
 30
0.0
 10
0.3352139295699136
 20
0.2380950264296232
 30
0.0
 10
0.3294952181910536
 20
0.2386710346898441
 30
0.0
 10
0.3251072925870891
 20
0.2394530489426175
 30
0.0
 10
0.3230254722751365
 20
0.2399806243563165
 30
0.0
 10
0.3219845619745824
 20
0.2402444120998049
 30
0.0
  0
SPLINE
  5
80
330
1F
100
AcDbEntity
  8
0
  6
Continuous
 62
     7
370
    25
100
AcDbSpline
210
0.0
220
0.0
230
1.0
 70
     8
 71
     3
 72
    25
 73
    21
 74
     0
 42
0.00000001
 43
0.00000001
 40
0.0
 40
0.0
 40
0.0
 40
0.0
 40
0.0312831328965373
 40
0.0625662564440714
 40
0.1250567943058366
 40
0.1875473353888057
 40
0.2500378665855339
 40
0.3125283960321102
 40
0.3750189337011886
 40
0.4375094664427839
 40
0.5000000026844379
 40
0.5624905322288334
 40
0.6249810714103149
 40
0.68747160314436
 40
0.7499621325909362
 40
0.8124526637876641
 40
0.8749432048706336
 40
0.9374337427323989
 40
0.9687168670211098
 40
1.0
 40
1.0
 40
1.0
 40
1.0
 10
0.0881238324852411
 20
0.0119891707861259
 30
0.0
 10
0.0871135508594464
 20
0.0122828530450641
 30
0.0
 10
0.0850929879097809
 20
0.0128702174751732
 30
0.0
 10
0.0813630627120565
 20
0.0142944604783873
 30
0.0
 10
0.0772122435794191
 20
0.0164007797352901
 30
0.0
 10
0.0733001781897507
 20
0.0193853031654577
 30
0.0
 10
0.0705898089908453
 20
0.0227040206814663
 30
0.0
 10
0.0691896756845591
 20
0.0262317174184431
 30
0.0
 10
0.0691524084259724
 20
0.0298322038652906
 30
0.0
 10
0.0704797542987207
 20
0.0333672823250944
 30
0.0
 10
0.073120624819408
 20
0.0367010568987044
 30
0.0
 10
0.0769735462337205
 20
0.0397054220965238
 30
0.0
 10
0.0818904598410228
 20
0.0422649329506094
 30
0.0
 10
0.0876823860279706
 20
0.044281169348108
 30
0.0
 10
0.0941268325940601
 20
0.0456768773155813
 30
0.0
 10
0.1009758107903096
 20
0.046397569003893
 30
0.0
 10
0.1079673660056975
 20
0.046418722090432
 30
0.0
 10
0.1136860778040673
 20
0.0458427140197711
 30
0.0
 10
0.1180740034114329
 20
0.0450606997367048
 30
0.0
 10
0.1201558237230452
 20
0.0445331243260369
 30
0.0
 10
0.1211967340234293
 20
0.044269336584064
 30
0.0
  0
SPLINE
  5
81
330
1F
100
AcDbEntity
  8
0
  6
Continuous
 62
     7
370
    25
100
AcDbSpline
210
0.0
220
0.0
230
1.0
 70
     8
 71
     3
 72
    25
 73
    21
 74
     0
 42
0.00000001
 43
0.00000001
 40
0.0
 40
0.0
 40
0.0
 40
0.0
 40
0.0312831332391849
 40
0.0625662577881938
 40
0.1250567961699194
 40
0.1875473255904165
 40
0.2500378679851028
 40
0.3125283979516424
 40
0.3750189302056502
 40
0.4375094658972424
 40
0.4999999973155621
 40
0.5624905354311401
 40
0.6249810646828459
 40
0.6874716028718866
 40
0.7499621328384265
 40
0.812452675233113
 40
0.8749432046536095
 40
0.9374337430353362
 40
0.968716866843168
 40
1.0
 40
1.0
 40
1.0
 40
1.0
 10
0.1211967340234293
 20
0.044269336584064
 30
0.0
 10
0.122207015648144
 20
0.0439756543139908
 30
0.0
 10
0.1242275786169262
 20
0.0433882898554267
 30
0.0
 10
0.1279575031499453
 20
0.0419640463854554
 30
0.0
 10
0.1321083226866082
 20
0.0398577276213037
 30
0.0
 10
0.136020386417917
 20
0.0368732036882502
 30
0.0
 10
0.138730757539884
 20
0.0335544866310252
 30
0.0
 10
0.1401308900089993
 20
0.0300267897264572
 30
0.0
 10
0.1401681589891149
 20
0.0264263032494523
 30
0.0
 10
0.1388408092517777
 20
0.022891225438365
 30
0.0
 10
0.1361999427010994
 20
0.0195574499247459
 30
0.0
 10
0.1323470180516128
 20
0.0165530859171071
 30
0.0
 10
0.1274301066308684
 20
0.0139935740459681
 30
0.0
 10
0.1216381802439653
 20
0.0119773377898112
 30
0.0
 10
0.1151937332862809
 20
0.0105816294352372
 30
0.0
 10
0.108344754762904
 20
0.0098609387417997
 30
0.0
 10
0.1013531997733254
 20
0.0098397848412928
 30
0.0
 10
0.0956344882522176
 20
0.010415792841191
 30
0.0
 10
0.0912465630246235
 20
0.0111978076097162
 30
0.0
 10
0.0891647427687276
 20
0.0117253830343782
 30
0.0
 10
0.0881238324852411
 20
0.0119891707861259
 30
0.0
  0
SPLINE
  5
82
330
1F
100
AcDbEntity
  8
0
  6
Continuous
 62
     7
370
    25
100
AcDbSpline
210
0.0
220
0.0
230
1.0
 70
     8
 71
     3
 72
    25
 73
    21
 74
     0
 42
0.00000001
 43
0.00000001
 40
0.0
 40
0.0
 40
0.0
 40
0.0
 40
0.0312831331568326
 40
0.062566256964665
 40
0.1250567953463917
 40
0.1875473247668872
 40
0.2500378671615736
 40
0.3125283971281136
 40
0.3750189353171539
 40
0.43750946456886
 40
0.500000002684438
 40
0.5624905341027577
 40
0.6249810697943502
 40
0.6874716020483574
 40
0.749962132014897
 40
0.8124526744095832
 40
0.8749432038300791
 40
0.9374337422118055
 40
0.9687168667608141
 40
1.0
 40
1.0
 40
1.0
 40
1.0
 10
-0.3550574635127705
 20
0.132436350811905
 30
0.0
 10
-0.3560677451410904
 20
0.1327300330700603
 30
0.0
 10
-0.3580883080958063
 20
0.1333173974986034
 30
0.0
 10
-0.3618182332430572
 20
0.1347416405174684
 30
0.0
 10
-0.3659690524427558
 20
0.1368479594890231
 30
0.0
 10
-0.3698811162872047
 20
0.1398324833523285
 30
0.0
 10
-0.3725914873372511
 20
0.1431512004277381
 30
0.0
 10
-0.3739916200252341
 20
0.1466788974409954
 30
0.0
 10
-0.3740288883142833
 20
0.1502793839055429
 30
0.0
 10
-0.372701539077133
 20
0.1538144618631692
 30
0.0
 10
-0.3700606724082175
 20
0.1571482372586661
 30
0.0
 10
-0.3662077475026719
 20
0.1601526012827015
 30
0.0
 10
-0.3612908365991022
 20
0.1627121132837984
 30
0.0
 10
-0.3554989098022011
 20
0.164728349253167
 30
0.0
 10
-0.3490544631422515
 20
0.1661240576394533
 30
0.0
 10
-0.3422054846074306
 20
0.1668447482920492
 30
0.0
 10
-0.3352139295699135
 20
0.166865902280025
 30
0.0
 10
-0.3294952181910538
 20
0.166289894019804
 30
0.0
 10
-0.3251072925870893
 20
0.1655078797670307
 30
0.0
 10
-0.3230254722751366
 20
0.1649803043533316
 30
0.0
 10
-0.3219845619745824
 20
0.1647165166098432
 30
0.0
  0
SPLINE
  5
83
330
1F
100
AcDbEntity
  8
0
  6
Continuous
 62
     7
370
    25
100
AcDbSpline
210
0.0
220
0.0
230
1.0
 70
     8
 71
     3
 72
    25
 73
    21
 74
     0
 42
0.00000001
 43
0.00000001
 40
0.0
 40
0.0
 40
0.0
 40
0.0
 40
0.03128313297889
 40
0.0625662572676026
 40
0.1250567951293664
 40
0.1875473362123348
 40
0.2500378674090639
 40
0.3125283968556403
 40
0.3750189285896847
 40
0.4375094677711666
 40
0.4999999973155626
 40
0.5624905335572165
 40
0.6249810662988123
 40
0.6874716039678899
 40
0.7499621334144663
 40
0.8124526646111957
 40
0.8749432056941635
 40
0.9374337435559273
 40
0.9687168671034627
 40
1.0
 40
1.0
 40
1.0
 40
1.0
 10
-0.3219845619745824
 20
0.1647165166098432
 30
0.0
 10
-0.3209742803523928
 20
0.1644228343389869
 30
0.0
 10
-0.318953717388661
 20
0.1638354698788568
 30
0.0
 10
-0.3152237928051682
 20
0.1624112264245366
 30
0.0
 10
-0.3110729733355667
 20
0.1603049073750368
 30
0.0
 10
-0.3071609080590383
 20
0.1573203838751207
 30
0.0
 10
-0.3044505387882124
 20
0.1540016663772971
 30
0.0
 10
-0.3030504057007936
 20
0.1504739697490096
 30
0.0
 10
-0.3030131377511413
 20
0.1468734832897045
 30
0.0
 10
-0.3043404841240756
 20
0.1433384049764397
 30
0.0
 10
-0.306981354526526
 20
0.1400046302847077
 30
0.0
 10
-0.3108342756847798
 20
0.1370002651032847
 30
0.0
 10
-0.3157511898092569
 20
0.1344407543791572
 30
0.0
 10
-0.3215431155862062
 20
0.1324245176948703
 30
0.0
 10
-0.3279875624500306
 20
0.1310288097591092
 30
0.0
 10
-0.3348365406348362
 20
0.130308118029956
 30
0.0
 10
-0.3418280958022856
 20
0.1302869650308857
 30
0.0
 10
-0.3475468077429032
 20
0.1308629728412239
 30
0.0
 10
-0.3519347329738985
 20
0.1316449876400421
 30
0.0
 10
-0.3540165532294541
 20
0.132172563061673
 30
0.0
 10
-0.3550574635127705
 20
0.132436350811905
 30
0.0
  0
SPLINE
  5
84
330
1F
100
AcDbEntity
  8
0
  6
Continuous
 62
     7
370
    25
100
AcDbSpline
210
0.0
220
0.0
230
1.0
 70
     8
 71
     3
 72
    25
 73
    21
 74
     0
 42
0.00000001
 43
0.00000001
 40
0.0
 40
0.0
 40
0.0
 40
0.0
 40
0.0312831332391858
 40
0.0625662577881947
 40
0.1250567961699212
 40
0.1875473255904169
 40
0.2500378679851032
 40
0.3125283979516428
 40
0.37501893020565
 40
0.4375094658972422
 40
0.4999999973155622
 40
0.5624905354311406
 40
0.6249810646828461
 40
0.6874716028718865
 40
0.7499621328384264
 40
0.8124526752331129
 40
0.8749432046536084
 40
0.937433743035335
 40
0.9687168668431674
 40
1.0
 40
1.0
 40
1.0
 40
1.0
 10
-0.1211967340234293
 20
0.3606915921255841
 30
0.0
 10
-0.122207015648144
 20
0.3609852743956573
 30
0.0
 10
-0.1242275786169263
 20
0.3615726388542215
 30
0.0
 10
-0.1279575031499454
 20
0.3629968823241926
 30
0.0
 10
-0.1321083226866084
 20
0.3651032010883443
 30
0.0
 10
-0.1360203864179169
 20
0.3680877250213982
 30
0.0
 10
-0.138730757539884
 20
0.3714064420786228
 30
0.0
 10
-0.1401308900089993
 20
0.3749341389831908
 30
0.0
 10
-0.1401681589891147
 20
0.3785346254601958
 30
0.0
 10
-0.1388408092517778
 20
0.3820697032712829
 30
0.0
 10
-0.1361999427010994
 20
0.3854034787849023
 30
0.0
 10
-0.1323470180516128
 20
0.388407842792541
 30
0.0
 10
-0.1274301066308683
 20
0.39096735466368
 30
0.0
 10
-0.1216381802439653
 20
0.3929835909198368
 30
0.0
 10
-0.1151937332862809
 20
0.3943792992744108
 30
0.0
 10
-0.1083447547629041
 20
0.3950999899678485
 30
0.0
 10
-0.1013531997733254
 20
0.3951211438683553
 30
0.0
 10
-0.0956344882522177
 20
0.394545135868457
 30
0.0
 10
-0.0912465630246236
 20
0.393763121099932
 30
0.0
 10
-0.0891647427687277
 20
0.3932355456752698
 30
0.0
 10
-0.0881238324852411
 20
0.3929717579235222
 30
0.0
  0
SPLINE
  5
85
330
1F
100
AcDbEntity
  8
0
  6
Continuous
 62
     7
370
    25
100
AcDbSpline
210
0.0
220
0.0
230
1.0
 70
     8
 71
     3
 72
    25
 73
    21
 74
     0
 42
0.00000001
 43
0.00000001
 40
0.0
 40
0.0
 40
0.0
 40
0.0
 40
0.031283132896537
 40
0.0625662564440728
 40
0.1250567943058365
 40
0.1875473353888043
 40
0.250037866585534
 40
0.3125283960321104
 40
0.3750189337011878
 40
0.4375094664427834
 40
0.5000000026844379
 40
0.5624905322288339
 40
0.6249810714103156
 40
0.68747160314436
 40
0.7499621325909364
 40
0.8124526637876656
 40
0.8749432048706339
 40
0.9374337427323977
 40
0.9687168670211098
 40
1.0
 40
1.0
 40
1.0
 40
1.0
 10
-0.0881238324852411
 20
0.3929717579235222
 30
0.0
 10
-0.0871135508594464
 20
0.392678075664584
 30
0.0
 10
-0.0850929879097808
 20
0.3920907112344748
 30
0.0
 10
-0.0813630627120565
 20
0.3906664682312605
 30
0.0
 10
-0.0772122435794191
 20
0.388560148974358
 30
0.0
 10
-0.0733001781897509
 20
0.3855756255441905
 30
0.0
 10
-0.0705898089908453
 20
0.3822569080281818
 30
0.0
 10
-0.0691896756845589
 20
0.3787292112912051
 30
0.0
 10
-0.0691524084259727
 20
0.3751287248443573
 30
0.0
 10
-0.0704797542987206
 20
0.3715936463845538
 30
0.0
 10
-0.0731206248194078
 20
0.3682598718109438
 30
0.0
 10
-0.0769735462337205
 20
0.3652555066131243
 30
0.0
 10
-0.081890459841023
 20
0.3626959957590388
 30
0.0
 10
-0.0876823860279706
 20
0.3606797593615403
 30
0.0
 10
-0.0941268325940601
 20
0.3592840513940665
 30
0.0
 10
-0.1009758107903097
 20
0.3585633597057553
 30
0.0
 10
-0.1079673660056975
 20
0.358542206619216
 30
0.0
 10
-0.1136860778040674
 20
0.3591182146898769
 30
0.0
 10
-0.1180740034114327
 20
0.3599002289729433
 30
0.0
 10
-0.1201558237230452
 20
0.3604278043836112
 30
0.0
 10
-0.1211967340234293
 20
0.3606915921255841
 30
0.0
  0
SPLINE
  5
86
330
1F
100
AcDbEntity
  8
0
  6
Continuous
 62
     7
370
    25
100
AcDbSpline
210
0.0
220
0.0
230
1.0
 70
     8
 71
     3
 72
    29
 73
    25
 74
     0
 42
0.00000001
 43
0.00000001
 40
0.0
 40
0.0
 40
0.0
 40
0.0
 40
0.0156625311555114
 40
0.0312872383925571
 40
0.0469119450785907
 40
0.0625744745850577
 40
0.0938522785231681
 40
0.1251300816531743
 40
0.1876099763416512
 40
0.2500898676973014
 40
0.3125697599567719
 40
0.3750496505856
 40
0.4375295425661138
 40
0.5000094346492798
 40
0.5624893267324459
 40
0.6249692167795184
 40
0.6874491091902164
 40
0.7499290014496868
 40
0.8124088928053367
 40
0.8748887874938137
 40
0.9061665902833747
 40
0.9374443944668319
 40
0.9687221960334929
 40
1.0
 40
1.0
 40
1.0
 40
1.0
 10
0.6114244026454166
 20
0.1048510912498233
 30
0.0
 10
0.6097274000948895
 20
0.1053281288844751
 30
0.0
 10
0.6063374931364327
 20
0.1062810521412195
 30
0.0
 10
0.601435005422992
 20
0.1078704856112738
 30
0.0
 10
0.5966803390960708
 20
0.1095734918590919
 30
0.0
 10
0.5905676690631372
 20
0.1120052510502217
 30
0.0
 10
0.5833653132456387
 20
0.1153289340562428
 30
0.0
 10
0.5729307337635504
 20
0.1211977372671246
 30
0.0
 10
0.562053907914511
 20
0.1294816887718601
 30
0.0
 10
0.5530333971887796
 20
0.1405339679112041
 30
0.0
 10
0.5483691331795564
 20
0.1522819249633879
 30
0.0
 10
0.5482454289468802
 20
0.1642723603047666
 30
0.0
 10
0.5526656838128051
 20
0.1760449526981977
 30
0.0
 10
0.5614603935321221
 20
0.1871471620169513
 30
0.0
 10
0.5742914649674195
 20
0.1971523778308672
 30
0.0
 10
0.5906659230181763
 20
0.2056760641638709
 30
0.0
 10
0.6099541535509069
 20
0.2123907871589141
 30
0.0
 10
0.6314162259553898
 20
0.2170380338961633
 30
0.0
 10
0.6542224919767231
 20
0.2194409695048838
 30
0.0
 10
0.6736373760640527
 20
0.2194907515234295
 30
0.0
 10
0.6889361686306124
 20
0.2183689021649123
 30
0.0
 10
0.7001940819850316
 20
0.2169386781331972
 30
0.0
 10
0.7111663358194158
 20
0.2149872190896401
 30
0.0
 10
0.7180984548369972
 20
0.2132298843192721
 30
0.0
 10
0.7215645144787578
 20
0.2123512169003794
 30
0.0
  0
SPLINE
  5
87
330
1F
100
AcDbEntity
  8
0
  6
Continuous
 62
     7
370
    25
100
AcDbSpline
210
0.0
220
0.0
230
1.0
 70
     8
 71
     3
 72
    29
 73
    25
 74
     0
 42
0.00000001
 43
0.00000001
 40
0.0
 40
0.0
 40
0.0
 40
0.0
 40
0.0156625311526155
 40
0.0312872383620116
 40
0.0469119449709011
 40
0.0625744743263496
 40
0.0938522785101891
 40
0.1251300813001327
 40
0.1876099759893737
 40
0.2500898673457874
 40
0.3125697596060216
 40
0.3750496520174835
 40
0.4375295420653199
 40
0.5000094341492497
 40
0.5624893262331795
 40
0.6249692182144572
 40
0.6874491088440493
 40
0.7499290011042836
 40
0.8124088924606976
 40
0.8748887871499385
 40
0.9061665902803279
 40
0.9374443942188201
 40
0.9687221960083873
 40
1.0
 40
1.0
 40
1.0
 40
1.0
 10
0.7215645144787578
 20
0.2123512169003794
 30
0.0
 10
0.7232615170325069
 20
0.2118741792696428
 30
0.0
 10
0.726651423994717
 20
0.2109212560214732
 30
0.0
 10
0.7315539117803145
 20
0.2093318226237712
 30
0.0
 10
0.7363085781825319
 20
0.2076288164660431
 30
0.0
 10
0.7424212486285036
 20
0.2051970575377616
 30
0.0
 10
0.7496236037767072
 20
0.2018733741667482
 30
0.0
 10
0.7600581840142165
 20
0.1960045713488805
 30
0.0
 10
0.7709350094726855
 20
0.1877206196703547
 30
0.0
 10
0.7799555202747624
 20
0.1766683405931959
 30
0.0
 10
0.784619784463081
 20
0.164920383410745
 30
0.0
 10
0.7847434880155456
 20
0.152929948087766
 30
0.0
 10
0.7803232336935518
 20
0.1411573556718912
 30
0.0
 10
0.7715285239302079
 20
0.1300551464632995
 30
0.0
 10
0.758697452293496
 20
0.1200499306059457
 30
0.0
 10
0.7423229945856662
 20
0.111526244054266
 30
0.0
 10
0.7230347636396816
 20
0.1048115213383489
 30
0.0
 10
0.701572691544541
 20
0.1001642745973317
 30
0.0
 10
0.6787664254686011
 20
0.097761338925322
 30
0.0
 10
0.6593515414332467
 20
0.0977115571576477
 30
0.0
 10
0.6440527486756429
 20
0.0988334060002524
 30
0.0
 10
0.6327948355288333
 20
0.1002636305379857
 30
0.0
 10
0.621822581363989
 20
0.1022150890520645
 30
0.0
 10
0.6148904622996142
 20
0.1039724238299502
 30
0.0
 10
0.6114244026454166
 20
0.1048510912498233
 30
0.0
  0
SPLINE
  5
8B
330
1F
100
AcDbEntity
  8
0
  6
Continuous
 62
     7
370
    25
100
AcDbSpline
210
0.0
220
0.0
230
1.0
 70
     8
 71
     3
 72
    12
 73
     8
 74
     0
 42
0.00000001
 43
0.00000001
 40
0.0
 40
0.0
 40
0.0
 40
0.0
 40
0.3333333333333333
 40
0.3333333333333333
 40
0.6666666666666665
 40
0.6666666666666665
 40
0.9999999999999999
 40
0.9999999999999999
 40
0.9999999999999999
 40
0.9999999999999999
 10
0.7515137244939846
 20
-0.1267035533604838
 30
0.0
 10
0.7515137244939846
 20
-0.0905391827129058
 30
0.0
 10
0.7410051355490864
 20
-0.0673658306883023
 30
0.0
 10
0.7069008108991869
 20
-0.0644883264239949
 30
0.0
 10
0.6858836330118792
 20
-0.0850017363612975
 30
0.0
 10
0.6517793083700566
 20
-0.1544529733928274
 30
0.0
 10
0.6412707194326248
 20
-0.1981397353498753
 30
0.0
 10
0.6412707194407018
 20
-0.2343041059895698
 30
0.0
  0
SPLINE
  5
8C
330
1F
100
AcDbEntity
  8
0
  6
Continuous
 62
     7
370
    25
100
AcDbSpline
210
0.0
220
0.0
230
1.0
 70
     8
 71
     3
 72
    14
 73
    10
 74
     0
 42
0.00000001
 43
0.00000001
 40
0.0
 40
0.0
 40
0.0
 40
0.0
 40
0.25
 40
0.25
 40
0.5000000000000001
 40
0.5000000000000001
 40
0.75
 40
0.75
 40
1.0
 40
1.0
 40
1.0
 40
1.0
 10
0.6412707194407018
 20
-0.2343041059895698
 30
0.0
 10
0.6412707194466984
 20
-0.2611539250942164
 30
0.0
 10
0.6470784393461472
 20
-0.2812375588351224
 30
0.0
 10
0.667752428157463
 20
-0.2990304902882082
 30
0.0
 10
0.6817735042948843
 20
-0.2960123784405974
 30
0.0
 10
0.7110109396525144
 20
-0.2674757452103432
 30
0.0
 10
0.7250320157885961
 20
-0.2431238567611577
 30
0.0
 10
0.7457060045951441
 20
-0.184974031563429
 30
0.0
 10
0.7515137244913593
 20
-0.153553372491727
 30
0.0
 10
0.7515137244939846
 20
-0.1267035533786651
 30
0.0
  0
SPLINE
  5
8F
330
1F
100
AcDbEntity
  8
0
  6
Continuous
 62
     7
370
    25
100
AcDbSpline
210
0.0
220
0.0
230
1.0
 70
     8
 71
     3
 72
    11
 73
     7
 74
     0
 42
0.00000001
 43
0.00000001
 40
0.0
 40
0.0
 40
0.0
 40
0.0
 40
0.2430481018733302
 40
0.4953654012488868
 40
0.7476827006244435
 40
1.0
 40
1.0
 40
1.0
 40
1.0
 10
0.7179324773440873
 20
-0.0663841165127639
 30
0.0
 10
0.7202500032613887
 20
-0.0688947502826207
 30
0.0
 10
0.7249734392688298
 20
-0.0740117666065839
 30
0.0
 10
0.7299124612801646
 20
-0.086758207118821
 30
0.0
 10
0.7332148709328874
 20
-0.1026048941404886
 30
0.0
 10
0.7336218650179199
 20
-0.1154657883580331
 30
0.0
 10
0.7338253620604361
 20
-0.1218962354668053
 30
0.0
  0
SPLINE
  5
90
330
1F
100
AcDbEntity
  8
0
  6
Continuous
 62
     7
370
    25
100
AcDbSpline
210
0.0
220
0.0
230
1.0
 70
     8
 71
     3
 72
    18
 73
    14
 74
     0
 42
0.00000001
 43
0.00000001
 40
0.0
 40
0.0
 40
0.0
 40
0.0
 40
0.0995339971880433
 40
0.199067994376087
 40
0.2986019915641313
 40
0.3981359887521745
 40
0.4976699859402178
 40
0.5972039831282616
 40
0.6967379803163053
 40
0.7962719775043491
 40
0.8958059746923928
 40
0.9953399718804364
 40
1.0
 40
1.0
 40
1.0
 40
1.0
 10
0.7338253620604362
 20
-0.1218962354849867
 30
0.0
 10
0.7336202162685161
 20
-0.1287225647581615
 30
0.0
 10
0.7332099246846759
 20
-0.1423752233045112
 30
0.0
 10
0.7299322462654575
 20
-0.1646887645099747
 30
0.0
 10
0.7248380153566633
 20
-0.1872767018824792
 30
0.0
 10
0.7179299755101406
 20
-0.209460085630869
 30
0.0
 10
0.709525969152704
 20
-0.2303327132057345
 30
0.0
 10
0.6999325011018126
 20
-0.2491181994723469
 30
0.0
 10
0.6895316983596176
 20
-0.2650453833329599
 30
0.0
 10
0.6786858927555434
 20
-0.2776734353901898
 30
0.0
 10
0.6679478878591136
 20
-0.2858813386970323
 30
0.0
 10
0.6606310543749666
 20
-0.289868539715488
 30
0.0
 10
0.6573120452593566
 20
-0.2898184644922561
 30
0.0
 10
0.6571636041586106
 20
-0.2898162249017646
 30
0.0
  0
SPLINE
  5
91
330
1F
100
AcDbEntity
  8
0
  6
Continuous
 62
     7
370
    25
100
AcDbSpline
210
0.0
220
0.0
230
1.0
 70
     8
 71
     3
 72
    28
 73
    24
 74
     0
 42
0.00000001
 43
0.00000001
 40
0.0
 40
0.0
 40
0.0
 40
0.0
 40
0.0208715803012836
 40
0.0416983130010125
 40
0.0625698930639837
 40
0.093847849343248
 40
0.1251258054334642
 40
0.1876060025173522
 40
0.2500862001477294
 40
0.3125663977781067
 40
0.3750465948619946
 40
0.4375267915170281
 40
0.500006989616215
 40
0.5624871877154018
 40
0.6249673843704354
 40
0.6874475814543234
 40
0.7499277790847005
 40
0.8124079767150778
 40
0.8748881737989657
 40
0.906166129889182
 40
0.9374440861684464
 40
0.9687220429500465
 40
1.0
 40
1.0
 40
1.0
 40
1.0
 10
0.6557365667376882
 20
-0.1981132936244926
 30
0.0
 10
0.6557459682590261
 20
-0.1971831529337836
 30
0.0
 10
0.6557647511002758
 20
-0.1953248701829667
 30
0.0
 10
0.6559176911563072
 20
-0.1924264214119853
 30
0.0
 10
0.6562021631636821
 20
-0.1889703699182887
 30
0.0
 10
0.6566899619862431
 20
-0.184917306535609
 30
0.0
 10
0.6577033758055526
 20
-0.178727942427296
 30
0.0
 10
0.6594842459520058
 20
-0.1708674537963936
 30
0.0
 10
0.6623588179661578
 20
-0.1616295897225966
 30
0.0
 10
0.6658616689892782
 20
-0.1529304717596974
 30
0.0
 10
0.6698579983706306
 20
-0.1451067323246288
 30
0.0
 10
0.6741942800619204
 20
-0.1384584088670591
 30
0.0
 10
0.6787038593070633
 20
-0.1332411619877363
 30
0.0
 10
0.6832134399125948
 20
-0.1296554324444633
 30
0.0
 10
0.6875497175227199
 20
-0.1278390717203108
 30
0.0
 10
0.6915460618683432
 20
-0.1278617182201027
 30
0.0
 10
0.6950488571155433
 20
-0.1297231044931333
 30
0.0
 10
0.6979236372691049
 20
-0.1333494475957976
 30
0.0
 10
0.6997038599405764
 20
-0.1377341289200914
 30
0.0
 10
0.7007185953326599
 20
-0.1419441032562039
 30
0.0
 10
0.7012632022965
 20
-0.1454352345531115
 30
0.0
 10
0.7016076485304162
 20
-0.1492002572126635
 30
0.0
 10
0.7016499843966789
 20
-0.151919905664782
 30
0.0
 10
0.7016711523299012
 20
-0.1532797298966746
 30
0.0
  0
SPLINE
  5
92
330
1F
100
AcDbEntity
  8
0
  6
Continuous
 62
     7
370
    25
100
AcDbSpline
210
0.0
220
0.0
230
1.0
 70
     8
 71
     3
 72
    28
 73
    24
 74
     0
 42
0.00000001
 43
0.00000001
 40
0.0
 40
0.0
 40
0.0
 40
0.0
 40
0.0208715803012834
 40
0.0416983130010123
 40
0.0625698930639836
 40
0.0938478493432481
 40
0.1251258054334642
 40
0.1876060025173522
 40
0.2500862001477294
 40
0.3125663977781067
 40
0.3750465948619945
 40
0.4375267915170281
 40
0.5000069896162149
 40
0.5624871877154017
 40
0.6249673843704353
 40
0.6874475814543232
 40
0.7499277790847004
 40
0.8124079767150777
 40
0.8748881737989657
 40
0.9061661298891819
 40
0.9374440861684463
 40
0.9687220429500464
 40
1.0
 40
1.0
 40
1.0
 40
1.0
 10
0.7016711523299012
 20
-0.1532797298966746
 30
0.0
 10
0.7016617508085633
 20
-0.1542098705873836
 30
0.0
 10
0.7016429679673136
 20
-0.1560681533382005
 30
0.0
 10
0.7014900279112826
 20
-0.158966602109182
 30
0.0
 10
0.7012055559039073
 20
-0.1624226536028785
 30
0.0
 10
0.7007177570813464
 20
-0.1664757169855583
 30
0.0
 10
0.6997043432620367
 20
-0.1726650810938711
 30
0.0
 10
0.6979234731155837
 20
-0.1805255697247736
 30
0.0
 10
0.6950489011014314
 20
-0.1897634337985705
 30
0.0
 10
0.6915460500783113
 20
-0.1984625517614698
 30
0.0
 10
0.6875497206969591
 20
-0.2062862911965385
 30
0.0
 10
0.6832134390056689
 20
-0.2129346146541081
 30
0.0
 10
0.6787038597605262
 20
-0.218151861533431
 30
0.0
 10
0.6741942791549951
 20
-0.2217375910767041
 30
0.0
 10
0.6698580015448695
 20
-0.2235539518008564
 30
0.0
 10
0.6658616571992462
 20
-0.2235313053010645
 30
0.0
 10
0.6623588619520465
 20
-0.2216699190280341
 30
0.0
 10
0.6594840817984842
 20
-0.2180435759253695
 30
0.0
 10
0.6577038591270132
 20
-0.2136588946010759
 30
0.0
 10
0.6566891237349289
 20
-0.2094489202649632
 30
0.0
 10
0.6561445167710896
 20
-0.2059577889680558
 30
0.0
 10
0.655800070537173
 20
-0.2021927663085037
 30
0.0
 10
0.6557577346709105
 20
-0.1994731178563852
 30
0.0
 10
0.6557365667376882
 20
-0.1981132936244926
 30
0.0
  0
SPLINE
  5
94
330
1F
100
AcDbEntity
  8
0
  6
Continuous
 62
     7
370
    25
100
AcDbSpline
210
0.0
220
0.0
230
1.0
 70
     8
 71
     3
 72
    11
 73
     7
 74
     0
 42
0.00000001
 43
0.00000001
 40
0.0
 40
0.0
 40
0.0
 40
0.0
 40
0.20541863397257
 40
0.4702790893150466
 40
0.7351395446575224
 40
1.0
 40
1.0
 40
1.0
 40
1.0
 10
0.1270370317154818
 20
0.0139980515286778
 30
0.0
 10
0.1279260544538932
 20
0.0152081387385947
 30
0.0
 10
0.1299613557102351
 20
0.0179784751003265
 30
0.0
 10
0.1286899132354499
 20
0.0226822726288311
 30
0.0
 10
0.1241883054539422
 20
0.0272261822501679
 30
0.0
 10
0.1188253881558031
 20
0.0291135875356907
 30
0.0
 10
0.1161439295067335
 20
0.0300572901784521
 30
0.0
  0
SPLINE
  5
95
330
1F
100
AcDbEntity
  8
0
  6
Continuous
 62
     7
370
    25
100
AcDbSpline
210
0.0
220
0.0
230
1.0
 70
     8
 71
     3
 72
    14
 73
    10
 74
     0
 42
0.00000001
 43
0.00000001
 40
0.0
 40
0.0
 40
0.0
 40
0.0
 40
0.0425362021754431
 40
0.2021135018128689
 40
0.3616908014502954
 40
0.521268101087722
 40
0.6808454007251478
 40
0.8404227003625738
 40
1.0
 40
1.0
 40
1.0
 40
1.0
 10
0.0823702628598773
 20
0.0139464526541319
 30
0.0
 10
0.0819350944310118
 20
0.0143268137338858
 30
0.0
 10
0.0798673636384593
 20
0.0161341238803183
 30
0.0
 10
0.0796870823234608
 20
0.0200967723948117
 30
0.0
 10
0.0822858398875286
 20
0.0249046770374899
 30
0.0
 10
0.0885577170627586
 20
0.0288650060358861
 30
0.0
 10
0.0971783767769857
 20
0.0312500843023416
 30
0.0
 10
0.1070820242453715
 20
0.0318743901150066
 30
0.0
 10
0.1131232944196129
 20
0.0306629901573036
 30
0.0
 10
0.1161439295067335
 20
0.0300572901784521
 30
0.0
  0
SPLINE
  5
96
330
1F
100
AcDbEntity
  8
0
  6
Continuous
 62
     7
370
    25
100
AcDbSpline
210
0.0
220
0.0
230
1.0
 70
     8
 71
     3
 72
     9
 73
     5
 74
     0
 42
0.00000001
 43
0.00000001
 40
0.0
 40
0.0
 40
0.0
 40
0.0
 40
0.0146923885825988
 40
1.0
 40
1.0
 40
1.0
 40
1.0
 10
0.6746778094975424
 20
-0.138170929006711
 30
0.0
 10
0.674684337394176
 20
-0.1382038791233583
 30
0.0
 10
0.6751286420487058
 20
-0.1404465448725008
 30
0.0
 10
0.6751336621264903
 20
-0.1432784528236889
 30
0.0
 10
0.675138608447341
 20
-0.146068753282828
 30
0.0
  0
SPLINE
  5
97
330
1F
100
AcDbEntity
  8
0
  6
Continuous
 62
     7
370
    25
100
AcDbSpline
210
0.0
220
0.0
230
1.0
 70
     8
 71
     3
 72
    15
 73
    11
 74
     0
 42
0.00000001
 43
0.00000001
 40
0.0
 40
0.0
 40
0.0
 40
0.0
 40
0.1408159589725432
 40
0.2816319179450871
 40
0.4224478769176316
 40
0.5632638358901748
 40
0.704079794862718
 40
0.8448957538352619
 40
0.9857117128078058
 40
1.0
 40
1.0
 40
1.0
 40
1.0
 10
0.675138608447341
 20
-0.1460687532904036
 30
0.0
 10
0.6750531338780217
 20
-0.1489130996644677
 30
0.0
 10
0.6748821847393831
 20
-0.154601792412596
 30
0.0
 10
0.6735164427562651
 20
-0.1638984632426316
 30
0.0
 10
0.6713940086325497
 20
-0.1733125279326417
 30
0.0
 10
0.6685150530714014
 20
-0.1825465456469392
 30
0.0
 10
0.6650156442839869
 20
-0.1912772847020446
 30
0.0
 10
0.6610099295832537
 20
-0.1989783855471006
 30
0.0
 10
0.6579962966981205
 20
-0.2039569419717314
 30
0.0
 10
0.6563491060170275
 20
-0.2058378476272074
 30
0.0
 10
0.656197365919037
 20
-0.2060111176752647
 30
0.0
  0
SPLINE
  5
98
330
1F
100
AcDbEntity
  8
0
  6
Continuous
 62
     7
370
    25
100
AcDbSpline
210
0.0
220
0.0
230
1.0
 70
     8
 71
     3
 72
    12
 73
     8
 74
     0
 42
0.00000001
 43
0.00000001
 40
0.0
 40
0.0
 40
0.0
 40
0.0
 40
0.2085126111123072
 40
0.4170252222246223
 40
0.6255378333369375
 40
0.8340504444492518
 40
1.0
 40
1.0
 40
1.0
 40
1.0
 10
0.7215645142782455
 20
0.1952078708389565
 30
0.0
 10
0.7281880506572515
 20
0.1931513218673315
 30
0.0
 10
0.7414351234152632
 20
0.1890382239240815
 30
0.0
 10
0.7578924663202848
 20
0.1804894178713614
 30
0.0
 10
0.7708544776862742
 20
0.1705777459208924
 30
0.0
 10
0.7796304268852163
 20
0.160299695265844
 30
0.0
 10
0.7819078926357211
 20
0.1532454813959525
 30
0.0
 10
0.7829171920061924
 20
0.1501192813130433
 30
0.0
  0
SPLINE
  5
99
330
1F
100
AcDbEntity
  8
0
  6
Continuous
 62
     7
370
    25
100
AcDbSpline
210
0.0
220
0.0
230
1.0
 70
     8
 71
     3
 72
    17
 73
    13
 74
     0
 42
0.00000001
 43
0.00000001
 40
0.0
 40
0.0
 40
0.0
 40
0.0
 40
0.0775484596592118
 40
0.1800430752526324
 40
0.282537690846053
 40
0.3850323064394735
 40
0.4875269220328937
 40
0.5900215376263146
 40
0.6925161532197351
 40
0.7950107688131551
 40
0.8975053844065758
 40
1.0
 40
1.0
 40
1.0
 40
1.0
 10
0.5500717251806327
 20
0.1499396799174589
 30
0.0
 10
0.5509748836782986
 20
0.1529163989458555
 30
0.0
 10
0.5530717329783991
 20
0.159827402083645
 30
0.0
 10
0.5615522126808791
 20
0.1699963193372518
 30
0.0
 10
0.5742669053393294
 20
0.1800110683249434
 30
0.0
 10
0.5906723390564202
 20
0.1885320684732302
 30
0.0
 10
0.6099530499892784
 20
0.1952480013560215
 30
0.0
 10
0.6314142248583289
 20
0.1998930952899652
 30
0.0
 10
0.6542316004606612
 20
0.2023034316857974
 30
0.0
 10
0.6774802733740601
 20
0.2023357057544873
 30
0.0
 10
0.7004585103224773
 20
0.2001767951085462
 30
0.0
 10
0.7145291796263228
 20
0.1968641789288197
 30
0.0
 10
0.7215645142782455
 20
0.1952078708389565
 30
0.0
  0
SPLINE
  5
9A
330
1F
100
AcDbEntity
  8
0
  6
Continuous
 62
     7
370
    25
100
AcDbSpline
210
0.0
220
0.0
230
1.0
 70
     8
 71
     3
 72
    28
 73
    24
 74
     0
 42
0.00000001
 43
0.00000001
 40
0.0
 40
0.0
 40
0.0
 40
0.0
 40
0.02087158042572
 40
0.0416983128781346
 40
0.0625698923122901
 40
0.0938478491506538
 40
0.1251258057079745
 40
0.187606002923797
 40
0.2500861999963099
 40
0.3125663970688233
 40
0.3750465950137894
 40
0.4375267922582143
 40
0.500006989615457
 40
0.5624871869726996
 40
0.624967384217125
 40
0.6874475821620912
 40
0.7499277792346041
 40
0.8124079763071174
 40
0.8748881735229396
 40
0.9061661300802605
 40
0.937444086918624
 40
0.9687220429010326
 40
1.0
 40
1.0
 40
1.0
 40
1.0
 10
0.6419884911181564
 20
0.1175383789576506
 30
0.0
 10
0.6410476490699993
 20
0.11780581097009
 30
0.0
 10
0.6391679866154683
 20
0.1183401003483196
 30
0.0
 10
0.6364843511215535
 20
0.1192602949722635
 30
0.0
 10
0.6334893782655368
 20
0.120429231173676
 30
0.0
 10
0.6302865028001851
 20
0.1219083840691416
 30
0.0
 10
0.625934350945144
 20
0.124355752895469
 30
0.0
 10
0.6213982772819768
 20
0.1278107464501483
 30
0.0
 10
0.6176361652995275
 20
0.1324201254311205
 30
0.0
 10
0.6156909207621315
 20
0.1373196910186315
 30
0.0
 10
0.6156393256344591
 20
0.1423203702341744
 30
0.0
 10
0.6174828195617403
 20
0.1472302004172767
 30
0.0
 10
0.6211507052497837
 20
0.1518604422651064
 30
0.0
 10
0.6265019794755485
 20
0.1560331768765438
 30
0.0
 10
0.6333310444296123
 20
0.1595880305899101
 30
0.0
 10
0.6413753151158024
 20
0.1623884456232438
 30
0.0
 10
0.6503261995163567
 20
0.1643266072434311
 30
0.0
 10
0.6598376875055031
 20
0.1653287658895477
 30
0.0
 10
0.667934779724741
 20
0.1653495277271754
 30
0.0
 10
0.6743152316143536
 20
0.1648816539002657
 30
0.0
 10
0.679010411080638
 20
0.1642851704280726
 30
0.0
 10
0.6835864546169758
 20
0.1634713029738213
 30
0.0
 10
0.6864775359683958
 20
0.1627383960929519
 30
0.0
 10
0.6879230766699072
 20
0.1623719426459765
 30
0.0
  0
SPLINE
  5
9B
330
1F
100
AcDbEntity
  8
0
  6
Continuous
 62
     7
370
    25
100
AcDbSpline
210
0.0
220
0.0
230
1.0
 70
     8
 71
     3
 72
    28
 73
    24
 74
     0
 42
0.00000001
 43
0.00000001
 40
0.0
 40
0.0
 40
0.0
 40
0.0
 40
0.0208715797586191
 40
0.0416983122309777
 40
0.0625698923633816
 40
0.093847848481468
 40
0.1251258057968882
 40
0.1876060017084127
 40
0.2500862000364321
 40
0.3125663971687793
 40
0.3750465944444361
 40
0.4375267921977004
 40
0.5000069896147772
 40
0.5624871870318544
 40
0.6249673847851186
 40
0.6874475820607755
 40
0.7499277791931228
 40
0.8124079775211431
 40
0.8748881734326667
 40
0.9061661307480869
 40
0.9374440868661733
 40
0.968722043643538
 40
1.0
 40
1.0
 40
1.0
 40
1.0
 10
0.6879230766699073
 20
0.1623719426459765
 30
0.0
 10
0.6888639186867289
 20
0.1621045106418891
 30
0.0
 10
0.6907435811095625
 20
0.1615702212715606
 30
0.0
 10
0.6934272165960164
 20
0.1606500266432884
 30
0.0
 10
0.6964221894786137
 20
0.1594810904616069
 30
0.0
 10
0.6996250649127106
 20
0.1580019375240529
 30
0.0
 10
0.7039772168239239
 20
0.155554568771574
 30
0.0
 10
0.7085132902660963
 20
0.1520995751222693
 30
0.0
 10
0.7122754025079427
 20
0.1474901962191724
 30
0.0
 10
0.7142206471046824
 20
0.142590630597951
 30
0.0
 10
0.7142722417799254
 20
0.1375899514055793
 30
0.0
 10
0.7124287483397203
 20
0.1326801211865227
 30
0.0
 10
0.7087608624929915
 20
0.1280498793508293
 30
0.0
 10
0.7034095883762388
 20
0.1238771446787721
 30
0.0
 10
0.6965805230896477
 20
0.1203222911522079
 30
0.0
 10
0.6885362526959344
 20
0.117521875939574
 30
0.0
 10
0.6795853682078931
 20
0.1155837143256652
 30
0.0
 10
0.6700738801970213
 20
0.1145815558335115
 30
0.0
 10
0.6619767879512728
 20
0.1145607938493633
 30
0.0
 10
0.6555963361474314
 20
0.1150286677400963
 30
0.0
 10
0.6509011566275196
 20
0.1156251511759094
 30
0.0
 10
0.6463251131419492
 20
0.1164390186486283
 30
0.0
 10
0.6434340317862698
 20
0.1171719255229535
 30
0.0
 10
0.6419884911181563
 20
0.1175383789576505
 30
0.0
  0
SPLINE
  5
9C
330
1F
100
AcDbEntity
  8
0
  6
Continuous
 62
     7
370
    25
100
AcDbSpline
210
0.0
220
0.0
230
1.0
 70
     8
 71
     3
 72
    11
 73
     7
 74
     0
 42
0.00000001
 43
0.00000001
 40
0.0
 40
0.0
 40
0.0
 40
0.0
 40
0.20541863397257
 40
0.4702790893150466
 40
0.7351395446575224
 40
1.0
 40
1.0
 40
1.0
 40
1.0
 10
-0.3161442646578801
 20
0.1344452316564692
 30
0.0
 10
-0.3152552419194689
 20
0.1356553188663861
 30
0.0
 10
-0.3132199406631269
 20
0.1384256552281179
 30
0.0
 10
-0.3144913831379119
 20
0.1431294527566224
 30
0.0
 10
-0.3189929909194198
 20
0.1476733623779592
 30
0.0
 10
-0.3243559082175589
 20
0.1495607676634821
 30
0.0
 10
-0.3270373668666284
 20
0.1505044703062435
 30
0.0
  0
SPLINE
  5
9E
330
1F
100
AcDbEntity
  8
0
  6
Continuous
 62
     7
370
    25
100
AcDbSpline
210
0.0
220
0.0
230
1.0
 70
     8
 71
     3
 72
    14
 73
    10
 74
     0
 42
0.00000001
 43
0.00000001
 40
0.0
 40
0.0
 40
0.0
 40
0.0
 40
0.0425362021754431
 40
0.2021135018128689
 40
0.3616908014502954
 40
0.521268101087722
 40
0.6808454007251478
 40
0.8404227003625738
 40
1.0
 40
1.0
 40
1.0
 40
1.0
 10
-0.3608110335134846
 20
0.1343936327819233
 30
0.0
 10
-0.3612462019423502
 20
0.1347739938616771
 30
0.0
 10
-0.3633139327349026
 20
0.1365813040081096
 30
0.0
 10
-0.3634942140499011
 20
0.140543952522603
 30
0.0
 10
-0.3608954564858334
 20
0.1453518571652813
 30
0.0
 10
-0.3546235793106033
 20
0.1493121861636775
 30
0.0
 10
-0.3460029195963762
 20
0.1516972644301329
 30
0.0
 10
-0.3360992721279904
 20
0.152321570242798
 30
0.0
 10
-0.3300580019537491
 20
0.151110170285095
 30
0.0
 10
-0.3270373668666284
 20
0.1505044703062435
 30
0.0
  0
SPLINE
  5
9F
330
1F
100
AcDbEntity
  8
0
  6
Continuous
 62
     7
370
    25
100
AcDbSpline
210
0.0
220
0.0
230
1.0
 70
     8
 71
     3
 72
    13
 73
     9
 74
     0
 42
0.00000001
 43
0.00000001
 40
0.0
 40
0.0
 40
0.0
 40
0.0
 40
0.0579075998904136
 40
0.2463260799123294
 40
0.4347445599342456
 40
0.6231630399561615
 40
0.8115815199780775
 40
1.0
 40
1.0
 40
1.0
 40
1.0
 10
0.6390699385172361
 20
0.1185312290461797
 30
0.0
 10
0.6398784946307557
 20
0.1188251675028477
 30
0.0
 10
0.6433179129145278
 20
0.1200755164709201
 30
0.0
 10
0.6503721577913598
 20
0.1214304852054006
 30
0.0
 10
0.6598289533991929
 20
0.1224827595622011
 30
0.0
 10
0.6695408261420556
 20
0.1224836343521811
 30
0.0
 10
0.6791198580873173
 20
0.1215865597999506
 30
0.0
 10
0.684988671123438
 20
0.1202045720096278
 30
0.0
 10
0.6879230776414983
 20
0.1195135781144663
 30
0.0
  0
SPLINE
  5
A2
330
1F
100
AcDbEntity
  8
0
  6
Continuous
 62
     7
370
    25
100
AcDbSpline
210
0.0
220
0.0
230
1.0
 70
     8
 71
     3
 72
    11
 73
     7
 74
     0
 42
0.00000001
 43
0.00000001
 40
0.0
 40
0.0
 40
0.0
 40
0.0
 40
0.2054188519789363
 40
0.4702792346526244
 40
0.7351396173263121
 40
0.9999999999999999
 40
0.9999999999999999
 40
0.9999999999999999
 40
0.9999999999999999
 10
0.3608977587850739
 20
0.242253292261569
 30
0.0
 10
0.3617867828386053
 20
0.2434633810770302
 30
0.0
 10
0.3638220855747209
 20
0.2462337190305066
 30
0.0
 10
0.3625506432933476
 20
0.2509375182585669
 30
0.0
 10
0.3580490353218547
 20
0.2554814278958265
 30
0.0
 10
0.3526861180490471
 20
0.2573688331792264
 30
0.0
 10
0.3500046594126431
 20
0.2583125358209263
 30
0.0
  0
SPLINE
  5
A3
330
1F
100
AcDbEntity
  8
0
  6
Continuous
 62
     7
370
    25
100
AcDbSpline
210
0.0
220
0.0
230
1.0
 70
     8
 71
     3
 72
    14
 73
    10
 74
     0
 42
0.00000001
 43
0.00000001
 40
0.0
 40
0.0
 40
0.0
 40
0.0
 40
0.0425362021754423
 40
0.2021135018128685
 40
0.3616908014502949
 40
0.5212681010877215
 40
0.6808454007251478
 40
0.8404227003625743
 40
1.0
 40
1.0
 40
1.0
 40
1.0
 10
0.3162309927657868
 20
0.2422016943743945
 30
0.0
 10
0.3157958243369214
 20
0.2425820554541484
 30
0.0
 10
0.3137280935443688
 20
0.2443893656005808
 30
0.0
 10
0.3135478122293705
 20
0.2483520141150744
 30
0.0
 10
0.3161465697934383
 20
0.2531599187577525
 30
0.0
 10
0.3224184469686682
 20
0.2571202477561486
 30
0.0
 10
0.3310391066828952
 20
0.2595053260226041
 30
0.0
 10
0.3409427541512811
 20
0.2601296318352691
 30
0.0
 10
0.3469840243255225
 20
0.2589182318775661
 30
0.0
 10
0.3500046594126431
 20
0.2583125318987147
 30
0.0
  0
SPLINE
  5
A4
330
1F
100
AcDbEntity
  8
0
  6
Continuous
 62
     7
370
    25
100
AcDbSpline
210
0.0
220
0.0
230
1.0
 70
     8
 71
     3
 72
    11
 73
     7
 74
     0
 42
0.00000001
 43
0.00000001
 40
0.0
 40
0.0
 40
0.0
 40
0.0
 40
0.2054190657263195
 40
0.47027937715088
 40
0.7351396885754399
 40
1.0
 40
1.0
 40
1.0
 40
1.0
 10
-0.0822835403691967
 20
0.3627004714212776
 30
0.0
 10
-0.0813945150262368
 20
0.3639105618109181
 30
0.0
 10
-0.0793592108392556
 20
0.3666809013250435
 30
0.0
 10
-0.0806306529309956
 20
0.3713847022194579
 30
0.0
 10
-0.0851322610887619
 20
0.3759286118723294
 30
0.0
 10
-0.0904951783367332
 20
0.3778160171536475
 30
0.0
 10
-0.0931766369607188
 20
0.3787597197943066
 30
0.0
  0
SPLINE
  5
A6
330
1F
100
AcDbEntity
  8
0
  6
Continuous
 62
     7
370
    25
100
AcDbSpline
210
0.0
220
0.0
230
1.0
 70
     8
 71
     3
 72
    14
 73
    10
 74
     0
 42
0.00000001
 43
0.00000001
 40
0.0
 40
0.0
 40
0.0
 40
0.0
 40
0.0425362021754423
 40
0.2021135018128685
 40
0.3616908014502949
 40
0.5212681010877215
 40
0.6808454007251478
 40
0.8404227003625743
 40
1.0
 40
1.0
 40
1.0
 40
1.0
 10
-0.1269503036075751
 20
0.3626488745021858
 30
0.0
 10
-0.1273854720364406
 20
0.3630292355819397
 30
0.0
 10
-0.1294532028289931
 20
0.3648365457283722
 30
0.0
 10
-0.1296334841439916
 20
0.3687991942428658
 30
0.0
 10
-0.1270347265799238
 20
0.3736070988855438
 30
0.0
 10
-0.1207628494046937
 20
0.37756742788394
 30
0.0
 10
-0.1121421896904667
 20
0.3799525061503955
 30
0.0
 10
-0.1022385422220807
 20
0.3805768119630604
 30
0.0
 10
-0.0961972720478394
 20
0.3793654120053574
 30
0.0
 10
-0.0931766369607188
 20
0.378759712026506
 30
0.0
  0
LINE
  5
A7
330
1F
100
AcDbEntity
  8
0
  6
Continuous
 62
     7
370
    25
100
AcDbLine
 10
-0.8535338421
 20
0.2166457946
 30
0.0
 11
-0.8801305636
 21
0.1955373221
 31
0.0
  0
LINE
  5
A8
330
1F
100
AcDbEntity
  8
0
  6
Continuous
 62
     7
370
    25
100
AcDbLine
 10
-0.8535338408
 20
0.2166457943
 30
0.0
 11
0.5044309909
 21
-0.1524199493
 31
0.0
  0
LINE
  5
A9
330
1F
100
AcDbEntity
  8
0
  6
Continuous
 62
     7
370
    25
100
AcDbLine
 10
0.5044309908
 20
-0.1524199494
 30
0.0
 11
0.5126538799
 21
-0.1829916461
 31
0.0
  0
LINE
  5
AA
330
1F
100
AcDbEntity
  8
0
  6
Continuous
 62
     7
370
    25
100
AcDbLine
 10
0.5126538801
 20
-0.1829916459
 30
0.0
 11
-0.8801305639
 21
0.1955373222
 31
0.0
  0
LINE
  5
AB
330
1F
100
AcDbEntity
  8
0
  6
Continuous
 62
     7
370
    25
100
AcDbLine
 10
0.8535338409
 20
0.1883151346
 30
0.0
 11
0.5044309908
 21
-0.1524199494
 31
0.0
  0
LINE
  5
AC
330
1F
100
AcDbEntity
  8
0
  6
Continuous
 62
     7
370
    25
100
AcDbLine
 10
0.880130564
 20
0.1756768632
 30
0.0
 11
0.8535338409
 21
0.1883151346
 31
0.0
  0
LINE
  5
AD
330
1F
100
AcDbEntity
  8
0
  6
Continuous
 62
     7
370
    25
100
AcDbLine
 10
0.5126538799
 20
-0.1829916461
 30
0.0
 11
0.880130564
 21
0.1756768632
 31
0.0
  0
LINE
  5
AE
330
1F
100
AcDbEntity
  8
0
  6
Continuous
 62
     7
370
    25
100
AcDbLine
 10
-0.5044309909
 20
0.5573808781
 30
0.0
 11
-0.8535338408
 21
0.2166457943
 31
0.0
  0
LINE
  5
AF
330
1F
100
AcDbEntity
  8
0
  6
Continuous
 62
     7
370
    25
100
AcDbLine
 10
0.8535338408
 20
0.1883151345
 30
0.0
 11
-0.5044309909
 21
0.5573808781
 31
0.0
  0
LINE
  5
B0
330
1F
100
AcDbEntity
  8
0
  6
Continuous
 62
     7
370
    25
100
AcDbLine
 10
0.8801305639
 20
0.175676863
 30
0.0
 11
0.8801305639
 21
-0.2124106939
 31
0.0
  0
LINE
  5
B1
330
1F
100
AcDbEntity
  8
0
  6
Continuous
 62
     7
370
    25
100
AcDbLine
 10
0.8801305639
 20
-0.2124106939
 30
0.0
 11
0.5126538801
 21
-0.5710792029
 31
0.0
  0
LINE
  5
B2
330
1F
100
AcDbEntity
  8
0
  6
Continuous
 62
     7
370
    25
100
AcDbLine
 10
0.5126538801
 20
-0.5710792029
 30
0.0
 11
0.5126538801
 21
-0.1829916459
 31
0.0
  0
LINE
  5
B3
330
1F
100
AcDbEntity
  8
0
  6
Continuous
 62
     7
370
    25
100
AcDbLine
 10
0.5126538801
 20
-0.5710792029
 30
0.0
 11
-0.8801305639
 21
-0.1925502348
 31
0.0
  0
LINE
  5
B4
330
1F
100
AcDbEntity
  8
0
  6
Continuous
 62
     7
370
    25
100
AcDbLine
 10
-0.8801305639
 20
-0.1925502348
 30
0.0
 11
-0.8801305639
 21
0.1955373222
 31
0.0
  0
LINE
  5
B5
330
1F
100
AcDbEntity
  8
0
  6
Continuous
 62
     7
370
    25
100
AcDbLine
 10
0.4750941908
 20
-0.5617825904
 30
0.0
 11
0.4827824206
 21
-0.5629607802
 31
0.0
  0
LINE
  5
B6
330
1F
100
AcDbEntity
  8
0
  6
Continuous
 62
     7
370
    25
100
AcDbLine
 10
0.6879230776
 20
0.1195135781
 30
0.0
 11
0.6908416307
 21
0.118520728
 31
0.0
  0
LINE
  5
B7
330
1F
100
AcDbEntity
  8
0
  6
Continuous
 62
     7
370
    25
100
AcDbLine
 10
-0.8801305639
 20
0.1955373222
 30
0.0
 11
-0.5126538801
 21
0.5542058311
 31
0.0
  0
LINE
  5
B8
330
1F
100
AcDbEntity
  8
0
  6
Continuous
 62
     7
370
    25
100
AcDbLine
 10
-0.5126538798
 20
0.5542058311
 30
0.0
 11
-0.5044309921
 21
0.5573808784
 31
0.0
  0
LINE
  5
B9
330
1F
100
AcDbEntity
  8
0
  6
Continuous
 62
     7
370
    25
100
AcDbLine
 10
-0.8241526828
 20
-0.2077638234
 30
0.0
 11
-0.8179251031
 21
-0.2103676523
 31
0.0
  0
SPLINE
  5
C3
330
1B
100
AcDbEntity
 67
     1
  8
0
  6
Continuous
 62
     7
370
    25
100
AcDbSpline
210
0.0
220
0.0
230
1.0
 70
    24
 71
     3
 72
    10
 73
     6
 74
     0
 42
0.00000001
 43
0.00000001
 40
0.0
 40
0.0
 40
0.0
 40
0.0
 40
0.4999999999999997
 40
0.4999999999999997
 40
1.0
 40
1.0
 40
1.0
 40
1.0
 10
-0.7309984250053877
 20
-0.255220472
 30
0.0
 10
-0.7389546945264585
 20
-0.255220472
 30
0.0
 10
-0.7465856963118719
 20
-0.255220472
 30
0.0
 10
-0.7578375605712913
 20
-0.255220472
 30
0.0
 10
-0.7609984250030608
 20
-0.255220472
 30
0.0
 10
-0.7609984250000001
 20
-0.255220472
 30
0.0
  0
SPLINE
  5
C5
330
1B
100
AcDbEntity
 67
     1
  8
0
  6
Continuous
 62
     7
370
    25
100
AcDbSpline
210
0.0
220
0.0
230
1.0
 70
    24
 71
     3
 72
    10
 73
     6
 74
     0
 42
0.00000001
 43
0.00000001
 40
0.0
 40
0.0
 40
0.0
 40
0.0
 40
0.5
 40
0.5
 40
1.0
 40
1.0
 40
1.0
 40
1.0
 10
0.761001575
 20
-0.255220472
 30
0.0
 10
0.7610015750016319
 20
-0.255220472
 30
0.0
 10
0.7578407105684919
 20
-0.255220472
 30
0.0
 10
0.746588846307052
 20
-0.255220472
 30
0.0
 10
0.7389578445210709
 20
-0.255220472
 30
0.0
 10
0.7310015750000001
 20
-0.255220472
 30
0.0
  0
LINE
  5
C6
330
1B
100
AcDbEntity
 67
     1
  8
0
  6
Continuous
 62
     7
370
    25
100
AcDbLine
 10
0.787401575
 20
0.216535433
 30
0.0
 11
-0.787401575
 21
0.216535433
 31
0.0
  0
LINE
  5
C7
330
1B
100
AcDbEntity
 67
     1
  8
0
  6
Continuous
 62
     7
370
    25
100
AcDbLine
 10
0.787401575
 20
-0.236220472
 30
0.0
 11
-0.787401575
 21
-0.236220472
 31
0.0
  0
LINE
  5
C8
330
1B
100
AcDbEntity
 67
     1
  8
0
  6
Continuous
 62
     7
370
    25
100
AcDbLine
 10
0.787401575
 20
-0.236220472
 30
0.0
 11
0.787401575
 21
0.216535433
 31
0.0
  0
LINE
  5
C9
330
1B
100
AcDbEntity
 67
     1
  8
0
  6
Continuous
 62
     7
370
    25
100
AcDbLine
 10
-0.787401575
 20
-0.236220472
 30
0.0
 11
-0.787401575
 21
0.216535433
 31
0.0
  0
LINE
  5
CA
330
1B
100
AcDbEntity
 67
     1
  8
0
  6
Continuous
 62
     7
370
    25
100
AcDbLine
 10
-0.767716535
 20
0.236220472
 30
0.0
 11
0.767716535
 21
0.236220472
 31
0.0
  0
LINE
  5
CB
330
1B
100
AcDbEntity
 67
     1
  8
0
  6
Continuous
 62
     7
370
    25
100
AcDbLine
 10
0.767716535
 20
0.236220472
 30
0.0
 11
0.787401575
 21
0.216535433
 31
0.0
  0
LINE
  5
CC
330
1B
100
AcDbEntity
 67
     1
  8
0
  6
Continuous
 62
     7
370
    25
100
AcDbLine
 10
-0.7677165364
 20
0.236220472
 30
0.0
 11
-0.7874015747
 21
0.216535433
 31
0.0
  0
LINE
  5
CD
330
1B
100
AcDbEntity
 67
     1
  8
0
  6
Continuous
 62
     7
370
    25
100
AcDbLine
 10
-0.730998425
 20
-0.255220472
 30
0.0
 11
0.731001575
 21
-0.255220472
 31
0.0
  0
LINE
  5
CE
330
1B
100
AcDbEntity
 67
     1
  8
0
  6
Continuous
 62
     7
370
    25
100
AcDbLine
 10
-0.760998425
 20
-0.255220472
 30
0.0
 11
-0.760998425
 21
-0.236220472
 31
0.0
  0
LINE
  5
CF
330
1B
100
AcDbEntity
 67
     1
  8
0
  6
Continuous
 62
     7
370
    25
100
AcDbLine
 10
0.761001575
 20
-0.236220472
 30
0.0
 11
0.761001575
 21
-0.255220472
 31
0.0
  0
VIEWPORT
  5
255
330
1B
100
AcDbEntity
 67
     1
  8
0
100
AcDbViewport
 10
0.0
 20
0.0
 30
0.0
 40
8.4
 41
6.4
 68
     1
 69
     1
 12
0.0000000001
 22
-0.0068491622
 13
0.0
 23
0.0
 14
0.5
 24
0.5
 15
0.5
 25
0.5
 16
0.0
 26
0.0
 36
1.0
 17
0.0
 27
0.0
 37
0.0
 42
50.0
 43
0.0
 44
0.0
 45
1.3679743623
 50
0.0
 51
0.0
 72
   100
 90
   557152
  1

281
     0
 71
     1
 74
     0
110
0.0
120
0.0
130
0.0
111
1.0
121
0.0
131
0.0
112
0.0
122
1.0
132
0.0
 79
     0
146
0.0
  0
ENDSEC
  0
SECTION
  2
OBJECTS
  0
DICTIONARY
  5
C
330
0
100
AcDbDictionary
281
     1
  3
ACAD_GROUP
350
D
  3
ACAD_LAYOUT
350
1A
  3
ACAD_MLINESTYLE
350
17
  3
ACAD_PLOTSETTINGS
350
19
  3
ACAD_PLOTSTYLENAME
350
E
  3
ACAD_SCALELIST
350
47
  3
DWGPROPS
350
267
  0
DICTIONARY
  5
D
102
{ACAD_REACTORS
330
C
102
}
330
C
100
AcDbDictionary
281
     1
  0
DICTIONARY
  5
1A
102
{ACAD_REACTORS
330
C
102
}
330
C
100
AcDbDictionary
281
     1
  3
_Back
350
26
  3
_Bottom
350
155
  3
_Dimetric
350
20E
  3
_Front
350
1E
  3
_Isometric
350
183
  3
_Left
350
E7
  3
_Right
350
101
  3
_Top
350
11F
  3
_Trimetric
350
1C3
  3
Model
350
22
  0
DICTIONARY
  5
17
102
{ACAD_REACTORS
330
C
102
}
330
C
100
AcDbDictionary
281
     1
  3
Standard
350
18
  0
DICTIONARY
  5
19
102
{ACAD_REACTORS
330
C
102
}
330
C
100
AcDbDictionary
281
     1
  0
ACDBDICTIONARYWDFLT
  5
E
102
{ACAD_REACTORS
330
C
102
}
330
C
100
AcDbDictionary
281
     1
  3
Normal
350
F
100
AcDbDictionaryWithDefault
340
F
  0
DICTIONARY
  5
47
102
{ACAD_REACTORS
330
C
102
}
330
C
100
AcDbDictionary
281
     1
  3
A0
350
48
  3
A1
350
49
  3
A2
350
4A
  3
A3
350
4B
  3
A4
350
4C
  3
A5
350
4D
  3
A6
350
4E
  3
A7
350
4F
  3
A8
350
50
  3
A9
350
51
  3
B0
350
52
  3
B1
350
53
  3
B2
350
54
  3
B3
350
55
  3
B4
350
56
  3
B5
350
57
  3
B6
350
58
  3
B7
350
59
  3
B8
350
5A
  3
B9
350
5B
  3
C0
350
5C
  3
C1
350
5D
  3
C2
350
5E
  3
C3
350
5F
  3
C4
350
60
  3
C5
350
61
  3
C6
350
62
  3
C7
350
63
  3
C8
350
64
  3
C9
350
65
  3
D0
350
66
  3
D1
350
67
  3
D2
350
68
  0
XRECORD
  5
267
102
{ACAD_REACTORS
330
C
102
}
330
C
100
AcDbXrecord
280
     1
  1
DWGPROPS COOKIE
  2

  3

  4

  6

  7

  8
16097
  9

300
=
301
=
302
=
303
=
304
=
305
=
306
=
307
=
308
=
309
=
 40
0.0
 41
2460265.843203438
 42
2460265.843266435
  1

 90
        0
  0
LAYOUT
  5
26
102
{ACAD_REACTORS
330
1A
102
}
330
1A
100
AcDbPlotSettings
  1

  2
none_device
  4
Letter_(8.50_x_11.00_Inches)
  6

 40
6.35
 41
6.35
 42
6.35001
 43
6.35001
 44
215.9
 45
279.4
 46
0.0
 47
0.0
 48
0.0
 49
0.0
140
0.0
141
0.0
142
1.0
143
0.149981258
 70
   688
 72
     0
 73
     1
 74
     1
  7

 75
     0
147
6.6674997483
148
20.000000005
149
6.4825999888
100
AcDbLayout
  1
_Back
 70
     1
 71
     2
 10
0.0
 20
0.0
 11
0.0
 21
0.0
 12
0.0
 22
0.0
 32
0.0
 14
0.0
 24
0.0
 34
0.0
 15
0.0
 25
0.0
 35
0.0
146
0.0
 13
0.0
 23
0.0
 33
0.0
 16
1.0
 26
0.0
 36
0.0
 17
0.0
 27
1.0
 37
0.0
 76
     0
330
23
331
257
  0
LAYOUT
  5
155
102
{ACAD_REACTORS
330
1A
102
}
330
1A
100
AcDbPlotSettings
  1

  2
none_device
  4
Letter_(8.50_x_11.00_Inches)
  6

 40
6.35
 41
6.35
 42
6.35001
 43
6.35001
 44
215.9
 45
279.4
 46
0.0
 47
0.0
 48
0.0
 49
0.0
140
0.0
141
0.0
142
1.0
143
0.149981258
 70
   688
 72
     0
 73
     1
 74
     1
  7

 75
     0
147
6.6674997483
148
20.000000005
149
6.4825999888
100
AcDbLayout
  1
_Bottom
 70
     1
 71
     6
 10
0.0
 20
0.0
 11
0.0
 21
0.0
 12
0.0
 22
0.0
 32
0.0
 14
0.0
 24
0.0
 34
0.0
 15
0.0
 25
0.0
 35
0.0
146
0.0
 13
0.0
 23
0.0
 33
0.0
 16
1.0
 26
0.0
 36
0.0
 17
0.0
 27
1.0
 37
0.0
 76
     0
330
154
331
25F
  0
LAYOUT
  5
20E
102
{ACAD_REACTORS
330
1A
102
}
330
1A
100
AcDbPlotSettings
  1

  2
none_device
  4
Letter_(8.50_x_11.00_Inches)
  6

 40
6.35
 41
6.35
 42
6.35001
 43
6.35001
 44
215.9
 45
279.4
 46
0.0
 47
0.0
 48
0.0
 49
0.0
140
0.0
141
0.0
142
1.0
143
0.149981258
 70
   688
 72
     0
 73
     1
 74
     1
  7

 75
     0
147
6.6674997483
148
20.000000005
149
6.4825999888
100
AcDbLayout
  1
_Dimetric
 70
     1
 71
     9
 10
0.0
 20
0.0
 11
0.0
 21
0.0
 12
0.0
 22
0.0
 32
0.0
 14
0.0
 24
0.0
 34
0.0
 15
0.0
 25
0.0
 35
0.0
146
0.0
 13
0.0
 23
0.0
 33
0.0
 16
1.0
 26
0.0
 36
0.0
 17
0.0
 27
1.0
 37
0.0
 76
     0
330
20D
331
265
  0
LAYOUT
  5
1E
102
{ACAD_REACTORS
330
1A
102
}
330
1A
100
AcDbPlotSettings
  1

  2
none_device
  4
Letter_(8.50_x_11.00_Inches)
  6

 40
6.35
 41
6.35
 42
6.35001
 43
6.35001
 44
215.9
 45
279.4
 46
0.0
 47
0.0
 48
0.0
 49
0.0
140
0.0
141
0.0
142
1.0
143
0.149981258
 70
   688
 72
     0
 73
     1
 74
     1
  7

 75
     0
147
6.6674997483
148
20.000000005
149
6.4825999888
100
AcDbLayout
  1
_Front
 70
     1
 71
     1
 10
-0.8248969485
 20
-0.2927157865
 11
0.8248968895
 21
0.9821249065
 12
0.0
 22
0.0
 32
0.0
 14
-0.787401575
 24
-0.255220472
 34
0.0
 15
0.787401575
 25
0.236220472
 35
0.0
146
0.0
 13
0.0
 23
0.0
 33
0.0
 16
1.0
 26
0.0
 36
0.0
 17
0.0
 27
1.0
 37
0.0
 76
     0
330
1B
331
255
  0
LAYOUT
  5
183
102
{ACAD_REACTORS
330
1A
102
}
330
1A
100
AcDbPlotSettings
  1

  2
none_device
  4
Letter_(8.50_x_11.00_Inches)
  6

 40
6.35
 41
6.35
 42
6.35001
 43
6.35001
 44
215.9
 45
279.4
 46
0.0
 47
0.0
 48
0.0
 49
0.0
140
0.0
141
0.0
142
1.0
143
0.149981258
 70
   688
 72
     0
 73
     1
 74
     1
  7

 75
     0
147
6.6674997483
148
20.000000005
149
6.4825999888
100
AcDbLayout
  1
_Isometric
 70
     1
 71
     7
 10
0.0
 20
0.0
 11
0.0
 21
0.0
 12
0.0
 22
0.0
 32
0.0
 14
0.0
 24
0.0
 34
0.0
 15
0.0
 25
0.0
 35
0.0
146
0.0
 13
0.0
 23
0.0
 33
0.0
 16
1.0
 26
0.0
 36
0.0
 17
0.0
 27
1.0
 37
0.0
 76
     0
330
182
331
261
  0
LAYOUT
  5
E7
102
{ACAD_REACTORS
330
1A
102
}
330
1A
100
AcDbPlotSettings
  1

  2
none_device
  4
Letter_(8.50_x_11.00_Inches)
  6

 40
6.35
 41
6.35
 42
6.35001
 43
6.35001
 44
215.9
 45
279.4
 46
0.0
 47
0.0
 48
0.0
 49
0.0
140
0.0
141
0.0
142
1.0
143
0.149981258
 70
   688
 72
     0
 73
     1
 74
     1
  7

 75
     0
147
6.6674997483
148
20.000000005
149
6.4825999888
100
AcDbLayout
  1
_Left
 70
     1
 71
     3
 10
0.0
 20
0.0
 11
0.0
 21
0.0
 12
0.0
 22
0.0
 32
0.0
 14
0.0
 24
0.0
 34
0.0
 15
0.0
 25
0.0
 35
0.0
146
0.0
 13
0.0
 23
0.0
 33
0.0
 16
1.0
 26
0.0
 36
0.0
 17
0.0
 27
1.0
 37
0.0
 76
     0
330
E6
331
259
  0
LAYOUT
  5
101
102
{ACAD_REACTORS
330
1A
102
}
330
1A
100
AcDbPlotSettings
  1

  2
none_device
  4
Letter_(8.50_x_11.00_Inches)
  6

 40
6.35
 41
6.35
 42
6.35001
 43
6.35001
 44
215.9
 45
279.4
 46
0.0
 47
0.0
 48
0.0
 49
0.0
140
0.0
141
0.0
142
1.0
143
0.149981258
 70
   688
 72
     0
 73
     1
 74
     1
  7

 75
     0
147
6.6674997483
148
20.000000005
149
6.4825999888
100
AcDbLayout
  1
_Right
 70
     1
 71
     4
 10
0.0
 20
0.0
 11
0.0
 21
0.0
 12
0.0
 22
0.0
 32
0.0
 14
0.0
 24
0.0
 34
0.0
 15
0.0
 25
0.0
 35
0.0
146
0.0
 13
0.0
 23
0.0
 33
0.0
 16
1.0
 26
0.0
 36
0.0
 17
0.0
 27
1.0
 37
0.0
 76
     0
330
100
331
25B
  0
LAYOUT
  5
11F
102
{ACAD_REACTORS
330
1A
102
}
330
1A
100
AcDbPlotSettings
  1

  2
none_device
  4
Letter_(8.50_x_11.00_Inches)
  6

 40
6.35
 41
6.35
 42
6.35001
 43
6.35001
 44
215.9
 45
279.4
 46
0.0
 47
0.0
 48
0.0
 49
0.0
140
0.0
141
0.0
142
1.0
143
0.149981258
 70
   688
 72
     0
 73
     1
 74
     1
  7

 75
     0
147
6.6674997483
148
20.000000005
149
6.4825999888
100
AcDbLayout
  1
_Top
 70
     1
 71
     5
 10
0.0
 20
0.0
 11
0.0
 21
0.0
 12
0.0
 22
0.0
 32
0.0
 14
0.0
 24
0.0
 34
0.0
 15
0.0
 25
0.0
 35
0.0
146
0.0
 13
0.0
 23
0.0
 33
0.0
 16
1.0
 26
0.0
 36
0.0
 17
0.0
 27
1.0
 37
0.0
 76
     0
330
11E
331
25D
  0
LAYOUT
  5
1C3
102
{ACAD_REACTORS
330
1A
102
}
330
1A
100
AcDbPlotSettings
  1

  2
none_device
  4
Letter_(8.50_x_11.00_Inches)
  6

 40
6.35
 41
6.35
 42
6.35001
 43
6.35001
 44
215.9
 45
279.4
 46
0.0
 47
0.0
 48
0.0
 49
0.0
140
0.0
141
0.0
142
1.0
143
0.149981258
 70
   688
 72
     0
 73
     1
 74
     1
  7

 75
     0
147
6.6674997483
148
20.000000005
149
6.4825999888
100
AcDbLayout
  1
_Trimetric
 70
     1
 71
     8
 10
0.0
 20
0.0
 11
0.0
 21
0.0
 12
0.0
 22
0.0
 32
0.0
 14
0.0
 24
0.0
 34
0.0
 15
0.0
 25
0.0
 35
0.0
146
0.0
 13
0.0
 23
0.0
 33
0.0
 16
1.0
 26
0.0
 36
0.0
 17
0.0
 27
1.0
 37
0.0
 76
     0
330
1C2
331
263
  0
LAYOUT
  5
22
102
{ACAD_REACTORS
330
1A
102
}
330
1A
100
AcDbPlotSettings
  1

  2
none_device
  4
ANSI_A_(11.00_x_8.50_Inches)
  6

 40
6.35
 41
19.05
 42
6.35000508
 43
19.05000254
 44
279.4
 45
215.9
 46
133.349997447
 47
89.9762705065
 48
0.0
 49
0.0
140
0.0
141
0.0
142
6.1865821083
143
1.0
 70
  1696
 72
     0
 73
     0
 74
     0
  7

 75
     0
147
0.5913241897
148
-39.4088153714
149
0.0
100
AcDbLayout
  1
Model
 70
     1
 71
     0
 10
0.0
 20
0.0
 11
12.0
 21
9.0
 12
0.0
 22
0.0
 32
0.0
 14
-0.8801305639
 24
-0.5710792029
 34
0.0
 15
0.880130564
 25
0.5573808784
 35
0.0
146
0.0
 13
0.0
 23
0.0
 33
0.0
 16
1.0
 26
0.0
 36
0.0
 17
0.0
 27
1.0
 37
0.0
 76
     0
330
1F
331
29
  0
MLINESTYLE
  5
18
102
{ACAD_REACTORS
330
17
102
}
330
17
100
AcDbMlineStyle
  2
Standard
 70
     0
  3

 62
   256
 51
90.0
 52
90.0
 71
     2
 49
0.5
 62
   256
  6
BYLAYER
 49
-0.5
 62
   256
  6
BYLAYER
  0
ACDBPLACEHOLDER
  5
F
102
{ACAD_REACTORS
330
E
102
}
330
E
  0
SCALE
  5
48
102
{ACAD_REACTORS
330
47
102
}
330
47
100
AcDbScale
 70
     0
300
1:1
140
1.0
141
1.0
290
     1
  0
SCALE
  5
49
102
{ACAD_REACTORS
330
47
102
}
330
47
100
AcDbScale
 70
     0
300
1:2
140
1.0
141
2.0
290
     0
  0
SCALE
  5
4A
102
{ACAD_REACTORS
330
47
102
}
330
47
100
AcDbScale
 70
     0
300
1:4
140
1.0
141
4.0
290
     0
  0
SCALE
  5
4B
102
{ACAD_REACTORS
330
47
102
}
330
47
100
AcDbScale
 70
     0
300
1:5
140
1.0
141
5.0
290
     0
  0
SCALE
  5
4C
102
{ACAD_REACTORS
330
47
102
}
330
47
100
AcDbScale
 70
     0
300
1:8
140
1.0
141
8.0
290
     0
  0
SCALE
  5
4D
102
{ACAD_REACTORS
330
47
102
}
330
47
100
AcDbScale
 70
     0
300
1:10
140
1.0
141
10.0
290
     0
  0
SCALE
  5
4E
102
{ACAD_REACTORS
330
47
102
}
330
47
100
AcDbScale
 70
     0
300
1:16
140
1.0
141
16.0
290
     0
  0
SCALE
  5
4F
102
{ACAD_REACTORS
330
47
102
}
330
47
100
AcDbScale
 70
     0
300
1:20
140
1.0
141
20.0
290
     0
  0
SCALE
  5
50
102
{ACAD_REACTORS
330
47
102
}
330
47
100
AcDbScale
 70
     0
300
1:30
140
1.0
141
30.0
290
     0
  0
SCALE
  5
51
102
{ACAD_REACTORS
330
47
102
}
330
47
100
AcDbScale
 70
     0
300
1:40
140
1.0
141
40.0
290
     0
  0
SCALE
  5
52
102
{ACAD_REACTORS
330
47
102
}
330
47
100
AcDbScale
 70
     0
300
1:50
140
1.0
141
50.0
290
     0
  0
SCALE
  5
53
102
{ACAD_REACTORS
330
47
102
}
330
47
100
AcDbScale
 70
     0
300
1:100
140
1.0
141
100.0
290
     0
  0
SCALE
  5
54
102
{ACAD_REACTORS
330
47
102
}
330
47
100
AcDbScale
 70
     0
300
2:1
140
2.0
141
1.0
290
     0
  0
SCALE
  5
55
102
{ACAD_REACTORS
330
47
102
}
330
47
100
AcDbScale
 70
     0
300
4:1
140
4.0
141
1.0
290
     0
  0
SCALE
  5
56
102
{ACAD_REACTORS
330
47
102
}
330
47
100
AcDbScale
 70
     0
300
8:1
140
8.0
141
1.0
290
     0
  0
SCALE
  5
57
102
{ACAD_REACTORS
330
47
102
}
330
47
100
AcDbScale
 70
     0
300
10:1
140
10.0
141
1.0
290
     0
  0
SCALE
  5
58
102
{ACAD_REACTORS
330
47
102
}
330
47
100
AcDbScale
 70
     0
300
100:1
140
100.0
141
1.0
290
     0
  0
SCALE
  5
59
102
{ACAD_REACTORS
330
47
102
}
330
47
100
AcDbScale
 70
     0
300
1/128" = 1'-0"
140
0.0078125
141
12.0
290
     0
  0
SCALE
  5
5A
102
{ACAD_REACTORS
330
47
102
}
330
47
100
AcDbScale
 70
     0
300
1/64" = 1'-0"
140
0.015625
141
12.0
290
     0
  0
SCALE
  5
5B
102
{ACAD_REACTORS
330
47
102
}
330
47
100
AcDbScale
 70
     0
300
1/32" = 1'-0"
140
0.03125
141
12.0
290
     0
  0
SCALE
  5
5C
102
{ACAD_REACTORS
330
47
102
}
330
47
100
AcDbScale
 70
     0
300
1/16" = 1'-0"
140
0.0625
141
12.0
290
     0
  0
SCALE
  5
5D
102
{ACAD_REACTORS
330
47
102
}
330
47
100
AcDbScale
 70
     0
300
3/32" = 1'-0"
140
0.09375
141
12.0
290
     0
  0
SCALE
  5
5E
102
{ACAD_REACTORS
330
47
102
}
330
47
100
AcDbScale
 70
     0
300
1/8" = 1'-0"
140
0.125
141
12.0
290
     0
  0
SCALE
  5
5F
102
{ACAD_REACTORS
330
47
102
}
330
47
100
AcDbScale
 70
     0
300
3/16" = 1'-0"
140
0.1875
141
12.0
290
     0
  0
SCALE
  5
60
102
{ACAD_REACTORS
330
47
102
}
330
47
100
AcDbScale
 70
     0
300
1/4" = 1'-0"
140
0.25
141
12.0
290
     0
  0
SCALE
  5
61
102
{ACAD_REACTORS
330
47
102
}
330
47
100
AcDbScale
 70
     0
300
3/8" = 1'-0"
140
0.375
141
12.0
290
     0
  0
SCALE
  5
62
102
{ACAD_REACTORS
330
47
102
}
330
47
100
AcDbScale
 70
     0
300
1/2" = 1'-0"
140
0.5
141
12.0
290
     0
  0
SCALE
  5
63
102
{ACAD_REACTORS
330
47
102
}
330
47
100
AcDbScale
 70
     0
300
3/4" = 1'-0"
140
0.75
141
12.0
290
     0
  0
SCALE
  5
64
102
{ACAD_REACTORS
330
47
102
}
330
47
100
AcDbScale
 70
     0
300
1" = 1'-0"
140
1.0
141
12.0
290
     0
  0
SCALE
  5
65
102
{ACAD_REACTORS
330
47
102
}
330
47
100
AcDbScale
 70
     0
300
1-1/2" = 1'-0"
140
1.5
141
12.0
290
     0
  0
SCALE
  5
66
102
{ACAD_REACTORS
330
47
102
}
330
47
100
AcDbScale
 70
     0
300
3" = 1'-0"
140
3.0
141
12.0
290
     0
  0
SCALE
  5
67
102
{ACAD_REACTORS
330
47
102
}
330
47
100
AcDbScale
 70
     0
300
6" = 1'-0"
140
6.0
141
12.0
290
     0
  0
SCALE
  5
68
102
{ACAD_REACTORS
330
47
102
}
330
47
100
AcDbScale
 70
     0
300
1'-0" = 1'-0"
140
12.0
141
12.0
290
     0
  0
ENDSEC
  0
EOF
