  0
SECTION
  2
HEADER
  9
$ACADVER
  1
AC1015
  9
$ACADMAINTVER
 70
     6
  9
$DWGCODEPAGE
  3
ANSI_1252
  9
$INSBASE
 10
0.0
 20
0.0
 30
0.0
  9
$EXTMIN
 10
-1.1001632052
 20
-0.7485520674
 30
0.0
  9
$EXTMAX
 10
1.1001632052
 20
0.7170240515
 30
0.0
  9
$LIMMIN
 10
0.0
 20
0.0
  9
$LIMMAX
 10
12.0
 20
9.0
  9
$ORTHOMODE
 70
     0
  9
$REGENMODE
 70
     1
  9
$FILLMODE
 70
     1
  9
$QTEXTMODE
 70
     0
  9
$MIRRTEXT
 70
     1
  9
$LTSCALE
 40
1.0
  9
$ATTMODE
 70
     1
  9
$TEXTSIZE
 40
0.1377952756
  9
$TRACEWID
 40
0.05
  9
$TEXTSTYLE
  7
Standard
  9
$CLAYER
  8
0
  9
$CELTYPE
  6
ByLayer
  9
$CECOLOR
 62
   256
  9
$CELTSCALE
 40
1.0
  9
$DISPSILH
 70
     0
  9
$DIMSCALE
 40
1.0
  9
$DIMASZ
 40
0.13
  9
$DIMEXO
 40
0.0
  9
$DIMDLI
 40
0.38
  9
$DIMRND
 40
0.0
  9
$DIMDLE
 40
0.0
  9
$DIMEXE
 40
0.0393700787
  9
$DIMTP
 40
0.0
  9
$DIMTM
 40
0.0
  9
$DIMTXT
 40
0.1377952756
  9
$DIMCEN
 40
0.09
  9
$DIMTSZ
 40
0.0
  9
$DIMTOL
 70
     0
  9
$DIMLIM
 70
     0
  9
$DIMTIH
 70
     1
  9
$DIMTOH
 70
     1
  9
$DIMSE1
 70
     0
  9
$DIMSE2
 70
     0
  9
$DIMTAD
 70
     1
  9
$DIMZIN
 70
     1
  9
$DIMBLK
  1

  9
$DIMASO
 70
     1
  9
$DIMSHO
 70
     1
  9
$DIMPOST
  1

  9
$DIMAPOST
  1

  9
$DIMALT
 70
     0
  9
$DIMALTD
 70
     2
  9
$DIMALTF
 40
25.4
  9
$DIMLFAC
 40
1.0
  9
$DIMTOFL
 70
     0
  9
$DIMTVP
 40
0.0
  9
$DIMTIX
 70
     0
  9
$DIMSOXD
 70
     0
  9
$DIMSAH
 70
     0
  9
$DIMBLK1
  1

  9
$DIMBLK2
  1

  9
$DIMSTYLE
  2
Standard
  9
$DIMCLRD
 70
     0
  9
$DIMCLRE
 70
     0
  9
$DIMCLRT
 70
     0
  9
$DIMTFAC
 40
1.0
  9
$DIMGAP
 40
0.06
  9
$DIMJUST
 70
     0
  9
$DIMSD1
 70
     0
  9
$DIMSD2
 70
     0
  9
$DIMTOLJ
 70
     1
  9
$DIMTZIN
 70
     1
  9
$DIMALTZ
 70
     0
  9
$DIMALTTZ
 70
     0
  9
$DIMUPT
 70
     0
  9
$DIMDEC
 70
     2
  9
$DIMTDEC
 70
     2
  9
$DIMALTU
 70
     2
  9
$DIMALTTD
 70
     2
  9
$DIMTXSTY
  7
Standard
  9
$DIMAUNIT
 70
     0
  9
$DIMADEC
 70
     2
  9
$DIMALTRND
 40
0.0
  9
$DIMAZIN
 70
     0
  9
$DIMDSEP
 70
    46
  9
$DIMATFIT
 70
     3
  9
$DIMFRAC
 70
     0
  9
$DIMLDRBLK
  1

  9
$DIMLUNIT
 70
     2
  9
$DIMLWD
 70
    -2
  9
$DIMLWE
 70
    -2
  9
$DIMTMOVE
 70
     0
  9
$LUNITS
 70
     2
  9
$LUPREC
 70
     2
  9
$SKETCHINC
 40
0.1
  9
$FILLETRAD
 40
0.5
  9
$AUNITS
 70
     0
  9
$AUPREC
 70
     2
  9
$MENU
  1
.
  9
$ELEVATION
 40
0.0
  9
$PELEVATION
 40
0.0
  9
$THICKNESS
 40
0.0
  9
$LIMCHECK
 70
     0
  9
$CHAMFERA
 40
0.0
  9
$CHAMFERB
 40
0.0
  9
$CHAMFERC
 40
0.0
  9
$CHAMFERD
 40
0.0
  9
$SKPOLY
 70
     0
  9
$TDCREATE
 40
2460265.637480116
  9
$TDUCREATE
 40
2460265.845813449
  9
$TDUPDATE
 40
2460265.63757471
  9
$TDUUPDATE
 40
2460265.845908044
  9
$TDINDWG
 40
0.0000000116
  9
$TDUSRTIMER
 40
0.0000000116
  9
$USRTIMER
 70
     1
  9
$ANGBASE
 50
0.0
  9
$ANGDIR
 70
     0
  9
$PDMODE
 70
     0
  9
$PDSIZE
 40
-1.0
  9
$PLINEWID
 40
0.0
  9
$SPLFRAME
 70
     0
  9
$SPLINETYPE
 70
     6
  9
$SPLINESEGS
 70
     8
  9
$HANDSEED
  5
2D5
  9
$SURFTAB1
 70
     6
  9
$SURFTAB2
 70
     6
  9
$SURFTYPE
 70
     6
  9
$SURFU
 70
     6
  9
$SURFV
 70
     6
  9
$UCSBASE
  2

  9
$UCSNAME
  2

  9
$UCSORG
 10
0.0
 20
0.0
 30
0.0
  9
$UCSXDIR
 10
1.0
 20
0.0
 30
0.0
  9
$UCSYDIR
 10
0.0
 20
1.0
 30
0.0
  9
$UCSORTHOREF
  2

  9
$UCSORTHOVIEW
 70
     0
  9
$UCSORGTOP
 10
0.0
 20
0.0
 30
0.0
  9
$UCSORGBOTTOM
 10
0.0
 20
0.0
 30
0.0
  9
$UCSORGLEFT
 10
0.0
 20
0.0
 30
0.0
  9
$UCSORGRIGHT
 10
0.0
 20
0.0
 30
0.0
  9
$UCSORGFRONT
 10
0.0
 20
0.0
 30
0.0
  9
$UCSORGBACK
 10
0.0
 20
0.0
 30
0.0
  9
$PUCSBASE
  2

  9
$PUCSNAME
  2

  9
$PUCSORG
 10
0.0
 20
0.0
 30
0.0
  9
$PUCSXDIR
 10
1.0
 20
0.0
 30
0.0
  9
$PUCSYDIR
 10
0.0
 20
1.0
 30
0.0
  9
$PUCSORTHOREF
  2

  9
$PUCSORTHOVIEW
 70
     0
  9
$PUCSORGTOP
 10
0.0
 20
0.0
 30
0.0
  9
$PUCSORGBOTTOM
 10
0.0
 20
0.0
 30
0.0
  9
$PUCSORGLEFT
 10
0.0
 20
0.0
 30
0.0
  9
$PUCSORGRIGHT
 10
0.0
 20
0.0
 30
0.0
  9
$PUCSORGFRONT
 10
0.0
 20
0.0
 30
0.0
  9
$PUCSORGBACK
 10
0.0
 20
0.0
 30
0.0
  9
$USERI1
 70
     0
  9
$USERI2
 70
     0
  9
$USERI3
 70
     0
  9
$USERI4
 70
     0
  9
$USERI5
 70
     0
  9
$USERR1
 40
0.0
  9
$USERR2
 40
0.0
  9
$USERR3
 40
0.0
  9
$USERR4
 40
0.0
  9
$USERR5
 40
0.0
  9
$WORLDVIEW
 70
     1
  9
$SHADEDGE
 70
     3
  9
$SHADEDIF
 70
    70
  9
$TILEMODE
 70
     1
  9
$MAXACTVP
 70
    64
  9
$PINSBASE
 10
0.0
 20
0.0
 30
0.0
  9
$PLIMCHECK
 70
     0
  9
$PEXTMIN
 10
-0.984251969
 20
-0.35396063
 30
0.0
  9
$PEXTMAX
 10
0.984251969
 20
0.31496063
 30
0.0
  9
$PLIMMIN
 10
-1.0311211859
 20
-0.4008297731
  9
$PLIMMAX
 10
1.0311211121
 20
1.1927210936
  9
$UNITMODE
 70
     0
  9
$VISRETAIN
 70
     1
  9
$PLINEGEN
 70
     0
  9
$PSLTSCALE
 70
     1
  9
$TREEDEPTH
 70
  3020
  9
$CMLSTYLE
  2
Standard
  9
$CMLJUST
 70
     0
  9
$CMLSCALE
 40
1.0
  9
$PROXYGRAPHICS
 70
     1
  9
$MEASUREMENT
 70
     0
  9
$CELWEIGHT
370
    -1
  9
$ENDCAPS
280
     0
  9
$JOINSTYLE
280
     0
  9
$LWDISPLAY
290
     1
  9
$INSUNITS
 70
     1
  9
$HYPERLINKBASE
  1

  9
$STYLESHEET
  1

  9
$XEDIT
290
     1
  9
$CEPSNTYPE
380
     0
  9
$PSTYLEMODE
290
     1
  9
$FINGERPRINTGUID
  2
{c86d5372-1fac-4a88-9d5f-f02ae42c56ff}
  9
$VERSIONGUID
  2
{FAEB1C32-E019-11D5-929B-00C0DF256EC4}
  9
$EXTNAMES
290
     1
  9
$PSVPSCALE
 40
0.0
  9
$OLESTARTUP
290
     0
  0
ENDSEC
  0
SECTION
  2
CLASSES
  0
CLASS
  1
ACDBDICTIONARYWDFLT
  2
AcDbDictionaryWithDefault
  3
ObjectDBX Classes
 90
        0
280
     0
281
     0
  0
CLASS
  1
VISUALSTYLE
  2
AcDbVisualStyle
  3
ObjectDBX Classes
 90
     4095
280
     0
281
     0
  0
CLASS
  1
MATERIAL
  2
AcDbMaterial
  3
ObjectDBX Classes
 90
     1153
280
     0
281
     0
  0
CLASS
  1
SCALE
  2
AcDbScale
  3
ObjectDBX Classes
 90
     1153
280
     0
281
     0
  0
CLASS
  1
TABLESTYLE
  2
AcDbTableStyle
  3
ObjectDBX Classes
 90
     4095
280
     0
281
     0
  0
CLASS
  1
MLEADERSTYLE
  2
AcDbMLeaderStyle
  3
ACDB_MLEADERSTYLE_CLASS
 90
     4095
280
     0
281
     0
  0
CLASS
  1
SUN
  2
AcDbSun
  3
SCENEOE
 90
     1153
280
     0
281
     0
  0
CLASS
  1
ACDBPLACEHOLDER
  2
AcDbPlaceHolder
  3
ObjectDBX Classes
 90
        0
280
     0
281
     0
  0
CLASS
  1
LAYOUT
  2
AcDbLayout
  3
ObjectDBX Classes
 90
        0
280
     0
281
     0
  0
ENDSEC
  0
SECTION
  2
TABLES
  0
TABLE
  2
VPORT
  5
8
330
0
100
AcDbSymbolTable
 70
     1
  0
VPORT
  5
29
330
8
100
AcDbSymbolTableRecord
100
AcDbViewportTableRecord
  2
*Active
 70
     0
 10
0.0
 20
0.0
 11
1.0
 21
1.0
 12
0.0
 22
-0.0157640079
 13
0.0
 23
0.0
 14
0.5
 24
0.5
 15
0.5
 25
0.5
 16
0.0
 26
0.0
 36
1.0
 17
0.0
 27
0.0
 37
0.0
 40
1.4948876413
 41
1.501338881
 42
50.0
 43
0.0
 44
0.0
 50
0.0
 51
0.0
 71
     0
 72
   100
 73
     1
 74
     3
 75
     0
 76
     0
 77
     0
 78
     0
281
     0
 65
     1
110
0.0
120
0.0
130
0.0
111
1.0
121
0.0
131
0.0
112
0.0
122
1.0
132
0.0
 79
     0
146
0.0
  0
ENDTAB
  0
TABLE
  2
LTYPE
  5
5
330
0
100
AcDbSymbolTable
 70
     6
  0
LTYPE
  5
14
330
5
100
AcDbSymbolTableRecord
100
AcDbLinetypeTableRecord
  2
ByBlock
 70
     0
  3

 72
    65
 73
     0
 40
0.0
  0
LTYPE
  5
15
330
5
100
AcDbSymbolTableRecord
100
AcDbLinetypeTableRecord
  2
ByLayer
 70
     0
  3

 72
    65
 73
     0
 40
0.0
  0
LTYPE
  5
16
330
5
100
AcDbSymbolTableRecord
100
AcDbLinetypeTableRecord
  2
Continuous
 70
     0
  3
Solid line
 72
    65
 73
     0
 40
0.0
  0
LTYPE
  5
6E
330
5
100
AcDbSymbolTableRecord
100
AcDbLinetypeTableRecord
  2
HIDDEN
 70
     0
  3
Hidden __ __ __ __ __ __ __ __ __ __ __ __ __ __
 72
    65
 73
     2
 40
0.075
 49
0.05
 74
     0
 49
-0.025
 74
     0
  0
LTYPE
  5
6F
330
5
100
AcDbSymbolTableRecord
100
AcDbLinetypeTableRecord
  2
PHANTOM
 70
     0
  3
Phantom ______  __  __  ______  __  __  ______
 72
    65
 73
     6
 40
0.5
 49
0.25
 74
     0
 49
-0.05
 74
     0
 49
0.05
 74
     0
 49
-0.05
 74
     0
 49
0.05
 74
     0
 49
-0.05
 74
     0
  0
LTYPE
  5
70
330
5
100
AcDbSymbolTableRecord
100
AcDbLinetypeTableRecord
  2
CENTER
 70
     0
  3
Center ____ _ ____ _ ____ _ ____ _ ____ _ ____
 72
    65
 73
     4
 40
0.4
 49
0.25
 74
     0
 49
-0.05
 74
     0
 49
0.05
 74
     0
 49
-0.05
 74
     0
  0
LTYPE
  5
71
330
5
100
AcDbSymbolTableRecord
100
AcDbLinetypeTableRecord
  2
CENTERX2
 70
     0
  3
Center (2x) ________  __  ________  __  _____
 72
    65
 73
     4
 40
0.8
 49
0.5
 74
     0
 49
-0.1
 74
     0
 49
0.1
 74
     0
 49
-0.1
 74
     0
  0
LTYPE
  5
72
330
5
100
AcDbSymbolTableRecord
100
AcDbLinetypeTableRecord
  2
DOT2
 70
     0
  3
Dot (.5x) ........................................
 72
    65
 73
     2
 40
0.025
 49
0.0
 74
     0
 49
-0.025
 74
     0
  0
ENDTAB
  0
TABLE
  2
LAYER
  5
2
330
0
100
AcDbSymbolTable
 70
     1
  0
LAYER
  5
10
330
2
100
AcDbSymbolTableRecord
100
AcDbLayerTableRecord
  2
0
 70
     0
 62
     7
  6
Continuous
370
    -3
390
F
  0
ENDTAB
  0
TABLE
  2
STYLE
  5
3
330
0
100
AcDbSymbolTable
 70
     1
  0
STYLE
  5
11
330
3
100
AcDbSymbolTableRecord
100
AcDbTextStyleTableRecord
  2
Standard
 70
     0
 40
0.0
 41
1.0
 50
0.0
 71
     0
 42
0.1377952756
  3
txt
  4

  0
ENDTAB
  0
TABLE
  2
VIEW
  5
6
330
0
100
AcDbSymbolTable
 70
     0
  0
ENDTAB
  0
TABLE
  2
UCS
  5
7
330
0
100
AcDbSymbolTable
 70
     0
  0
ENDTAB
  0
TABLE
  2
APPID
  5
9
330
0
100
AcDbSymbolTable
 70
     1
  0
APPID
  5
12
330
9
100
AcDbSymbolTableRecord
100
AcDbRegAppTableRecord
  2
ACAD
 70
     0
  0
ENDTAB
  0
TABLE
  2
DIMSTYLE
  5
A
330
0
100
AcDbSymbolTable
 70
     1
100
AcDbDimStyleTable
  0
DIMSTYLE
105
27
330
A
100
AcDbSymbolTableRecord
100
AcDbDimStyleTableRecord
  2
Standard
 70
     0
178
     0
340
11
  0
ENDTAB
  0
TABLE
  2
BLOCK_RECORD
  5
1
330
0
100
AcDbSymbolTable
 70
     8
  0
BLOCK_RECORD
  5
1F
330
1
100
AcDbSymbolTableRecord
100
AcDbBlockTableRecord
  2
*Model_Space
340
22
  0
BLOCK_RECORD
  5
1B
330
1
100
AcDbSymbolTableRecord
100
AcDbBlockTableRecord
  2
*Paper_Space
340
1E
  0
BLOCK_RECORD
  5
23
330
1
100
AcDbSymbolTableRecord
100
AcDbBlockTableRecord
  2
*Paper_Space0
340
26
  0
BLOCK_RECORD
  5
FB
330
1
100
AcDbSymbolTableRecord
100
AcDbBlockTableRecord
  2
*Paper_Space1
340
FC
  0
BLOCK_RECORD
  5
113
330
1
100
AcDbSymbolTableRecord
100
AcDbBlockTableRecord
  2
*Paper_Space2
340
114
  0
BLOCK_RECORD
  5
133
330
1
100
AcDbSymbolTableRecord
100
AcDbBlockTableRecord
  2
*Paper_Space3
340
134
  0
BLOCK_RECORD
  5
17C
330
1
100
AcDbSymbolTableRecord
100
AcDbBlockTableRecord
  2
*Paper_Space4
340
17D
  0
BLOCK_RECORD
  5
1AA
330
1
100
AcDbSymbolTableRecord
100
AcDbBlockTableRecord
  2
*Paper_Space5
340
1AB
  0
BLOCK_RECORD
  5
20B
330
1
100
AcDbSymbolTableRecord
100
AcDbBlockTableRecord
  2
*Paper_Space6
340
20C
  0
BLOCK_RECORD
  5
26F
330
1
100
AcDbSymbolTableRecord
100
AcDbBlockTableRecord
  2
*Paper_Space7
340
270
  0
ENDTAB
  0
ENDSEC
  0
SECTION
  2
BLOCKS
  0
BLOCK
  5
20
330
1F
100
AcDbEntity
  8
0
100
AcDbBlockBegin
  2
*Model_Space
 70
     0
 10
0.0
 20
0.0
 30
0.0
  3
*Model_Space
  1

  0
ENDBLK
  5
21
330
1F
100
AcDbEntity
  8
0
100
AcDbBlockEnd
  0
BLOCK
  5
1C
330
1B
100
AcDbEntity
 67
     1
  8
0
100
AcDbBlockBegin
  2
*Paper_Space
 70
     0
 10
0.0
 20
0.0
 30
0.0
  3
*Paper_Space
  1

  0
ENDBLK
  5
1D
330
1B
100
AcDbEntity
 67
     1
  8
0
100
AcDbBlockEnd
  0
BLOCK
  5
24
330
23
100
AcDbEntity
  8
0
100
AcDbBlockBegin
  2
*Paper_Space0
 70
     0
 10
0.0
 20
0.0
 30
0.0
  3
*Paper_Space0
  1

  0
LINE
  5
F1
330
23
100
AcDbEntity
  8
0
  6
Continuous
 62
     7
370
    25
100
AcDbLine
 10
0.984251969
 20
0.295275591
 30
0.0
 11
-0.984251969
 21
0.295275591
 31
0.0
  0
LINE
  5
F2
330
23
100
AcDbEntity
  8
0
  6
Continuous
 62
     7
370
    25
100
AcDbLine
 10
0.984251969
 20
0.295275591
 30
0.0
 11
0.984251969
 21
-0.31496063
 31
0.0
  0
LINE
  5
F3
330
23
100
AcDbEntity
  8
0
  6
Continuous
 62
     7
370
    25
100
AcDbLine
 10
0.984251969
 20
-0.31496063
 30
0.0
 11
-0.984251969
 21
-0.31496063
 31
0.0
  0
LINE
  5
F4
330
23
100
AcDbEntity
  8
0
  6
Continuous
 62
     7
370
    25
100
AcDbLine
 10
-0.984251969
 20
0.295275591
 30
0.0
 11
-0.984251969
 21
-0.31496063
 31
0.0
  0
LINE
  5
F5
330
23
100
AcDbEntity
  8
0
  6
Continuous
 62
     7
370
    25
100
AcDbLine
 10
0.9842519679
 20
0.295275591
 30
0.0
 11
0.9645669284
 21
0.31496063
 31
0.0
  0
LINE
  5
F6
330
23
100
AcDbEntity
  8
0
  6
Continuous
 62
     7
370
    25
100
AcDbLine
 10
-0.964566929
 20
0.31496063
 30
0.0
 11
0.964566929
 21
0.31496063
 31
0.0
  0
LINE
  5
F7
330
23
100
AcDbEntity
  8
0
  6
Continuous
 62
     7
370
    25
100
AcDbLine
 10
-0.984251969
 20
0.295275591
 30
0.0
 11
-0.964566929
 21
0.31496063
 31
0.0
  0
LINE
  5
F8
330
23
100
AcDbEntity
  8
0
  6
Continuous
 62
     7
370
    25
100
AcDbLine
 10
0.962001969
 20
-0.31496063
 30
0.0
 11
0.962001969
 21
-0.35396063
 31
0.0
  0
LINE
  5
F9
330
23
100
AcDbEntity
  8
0
  6
Continuous
 62
     7
370
    25
100
AcDbLine
 10
0.962001969
 20
-0.35396063
 30
0.0
 11
-0.961998031
 21
-0.35396063
 31
0.0
  0
LINE
  5
FA
330
23
100
AcDbEntity
  8
0
  6
Continuous
 62
     7
370
    25
100
AcDbLine
 10
-0.961998031
 20
-0.31496063
 30
0.0
 11
-0.961998031
 21
-0.35396063
 31
0.0
  0
VIEWPORT
  5
2C4
330
23
100
AcDbEntity
  8
0
100
AcDbViewport
 10
0.0
 20
0.0
 30
0.0
 40
8.4
 41
6.4
 68
     1
 69
     1
 12
0.0
 22
-0.0157640079
 13
0.0
 23
0.0
 14
0.5
 24
0.5
 15
0.5
 25
0.5
 16
0.0
 26
0.0
 36
1.0
 17
0.0
 27
0.0
 37
0.0
 42
50.0
 43
0.0
 44
0.0
 45
1.7099679532
 50
0.0
 51
0.0
 72
   100
 90
   557152
  1

281
     0
 71
     1
 74
     0
110
0.0
120
0.0
130
0.0
111
1.0
121
0.0
131
0.0
112
0.0
122
1.0
132
0.0
 79
     0
146
0.0
  0
ENDBLK
  5
25
330
23
100
AcDbEntity
  8
0
100
AcDbBlockEnd
  0
BLOCK
  5
FD
330
FB
100
AcDbEntity
  8
0
100
AcDbBlockBegin
  2
*Paper_Space1
 70
     0
 10
0.0
 20
0.0
 30
0.0
  3
*Paper_Space1
  1

  0
LINE
  5
109
330
FB
100
AcDbEntity
  8
0
  6
Continuous
 62
     7
370
    25
100
AcDbLine
 10
0.492125984
 20
0.295275591
 30
0.0
 11
-0.492125984
 21
0.295275591
 31
0.0
  0
LINE
  5
10A
330
FB
100
AcDbEntity
  8
0
  6
Continuous
 62
     7
370
    25
100
AcDbLine
 10
0.492125984
 20
-0.31496063
 30
0.0
 11
0.492125984
 21
0.295275591
 31
0.0
  0
LINE
  5
10B
330
FB
100
AcDbEntity
  8
0
  6
Continuous
 62
     7
370
    25
100
AcDbLine
 10
0.492125984
 20
-0.31496063
 30
0.0
 11
-0.492125984
 21
-0.31496063
 31
0.0
  0
LINE
  5
10C
330
FB
100
AcDbEntity
  8
0
  6
Continuous
 62
     7
370
    25
100
AcDbLine
 10
-0.492125984
 20
0.295275591
 30
0.0
 11
-0.492125984
 21
-0.31496063
 31
0.0
  0
LINE
  5
10D
330
FB
100
AcDbEntity
  8
0
  6
Continuous
 62
     7
370
    25
100
AcDbLine
 10
0.472440945
 20
0.31496063
 30
0.0
 11
0.492125984
 21
0.295275591
 31
0.0
  0
LINE
  5
10E
330
FB
100
AcDbEntity
  8
0
  6
Continuous
 62
     7
370
    25
100
AcDbLine
 10
-0.492125984
 20
0.295275591
 30
0.0
 11
-0.472440945
 21
0.31496063
 31
0.0
  0
LINE
  5
10F
330
FB
100
AcDbEntity
  8
0
  6
Continuous
 62
     7
370
    25
100
AcDbLine
 10
-0.472440945
 20
0.31496063
 30
0.0
 11
0.472440945
 21
0.31496063
 31
0.0
  0
LINE
  5
110
330
FB
100
AcDbEntity
  8
0
  6
Continuous
 62
     7
370
    25
100
AcDbLine
 10
0.469622047
 20
-0.35396063
 30
0.0
 11
0.469622047
 21
-0.31496063
 31
0.0
  0
LINE
  5
111
330
FB
100
AcDbEntity
  8
0
  6
Continuous
 62
     7
370
    25
100
AcDbLine
 10
0.469622047
 20
-0.35396063
 30
0.0
 11
-0.470125984
 21
-0.35396063
 31
0.0
  0
LINE
  5
112
330
FB
100
AcDbEntity
  8
0
  6
Continuous
 62
     7
370
    25
100
AcDbLine
 10
-0.470125984
 20
-0.31496063
 30
0.0
 11
-0.470125984
 21
-0.35396063
 31
0.0
  0
VIEWPORT
  5
2C6
330
FB
100
AcDbEntity
  8
0
100
AcDbViewport
 10
0.0
 20
0.0
 30
0.0
 40
8.4
 41
6.4
 68
     1
 69
     1
 12
0.0
 22
-0.0157640079
 13
0.0
 23
0.0
 14
0.5
 24
0.5
 15
0.5
 25
0.5
 16
0.0
 26
0.0
 36
1.0
 17
0.0
 27
0.0
 37
0.0
 42
50.0
 43
0.0
 44
0.0
 45
1.7099679532
 50
0.0
 51
0.0
 72
   100
 90
   557152
  1

281
     0
 71
     1
 74
     0
110
0.0
120
0.0
130
0.0
111
1.0
121
0.0
131
0.0
112
0.0
122
1.0
132
0.0
 79
     0
146
0.0
  0
ENDBLK
  5
FE
330
FB
100
AcDbEntity
  8
0
100
AcDbBlockEnd
  0
BLOCK
  5
115
330
113
100
AcDbEntity
  8
0
100
AcDbBlockBegin
  2
*Paper_Space2
 70
     0
 10
0.0
 20
0.0
 30
0.0
  3
*Paper_Space2
  1

  0
SPLINE
  5
11B
330
113
100
AcDbEntity
  8
0
  6
Continuous
 62
     7
370
    25
100
AcDbSpline
210
0.0
220
0.0
230
1.0
 70
     8
 71
     3
 72
    14
 73
    10
 74
     0
 42
0.00000001
 43
0.00000001
 40
0.0
 40
0.0
 40
0.0
 40
0.0
 40
0.25
 40
0.25
 40
0.5000000000000001
 40
0.5000000000000001
 40
0.75
 40
0.75
 40
1.0
 40
1.0
 40
1.0
 40
1.0
 10
0.2020000000000001
 20
-0.0000000000512759
 30
0.0
 10
0.2020000000135989
 20
-0.0331511230448605
 30
0.0
 10
0.215170268496034
 20
-0.0649469638049897
 30
0.0
 10
0.2620530362537788
 20
-0.1118297315380968
 30
0.0
 10
0.2938488770208292
 20
-0.1250000000038226
 30
0.0
 10
0.3601511230079985
 20
-0.1249999999961772
 30
0.0
 10
0.3919469637720115
 20
-0.1118297315231186
 30
0.0
 10
0.4388297315189442
 20
-0.0649469637791994
 30
0.0
 10
0.4519999999940466
 20
-0.0331511230160328
 30
0.0
 10
0.452
 20
-0.0000000000224482
 30
0.0
  0
SPLINE
  5
11C
330
113
100
AcDbEntity
  8
0
  6
Continuous
 62
     7
370
    25
100
AcDbSpline
210
0.0
220
0.0
230
1.0
 70
     8
 71
     3
 72
    12
 73
     8
 74
     0
 42
0.00000001
 43
0.00000001
 40
0.0
 40
0.0
 40
0.0
 40
0.0
 40
0.3333333333333333
 40
0.3333333333333333
 40
0.6666666666666665
 40
0.6666666666666665
 40
0.9999999999999999
 40
0.9999999999999999
 40
0.9999999999999999
 40
0.9999999999999999
 10
0.452
 20
0.0
 30
0.0
 10
0.452
 20
0.04465167882098
 30
0.0
 10
0.428169488168843
 20
0.0859273360763983
 30
0.0
 10
0.3508305118015531
 20
0.1305790148868033
 30
0.0
 10
0.3031694881448828
 20
0.1305790148770279
 30
0.0
 10
0.2258305117959091
 20
0.085927336034898
 30
0.0
 10
0.2019999999816836
 20
0.0446516787697043
 30
0.0
 10
0.202
 20
-0.0000000000512757
 30
0.0
  0
SPLINE
  5
11D
330
113
100
AcDbEntity
  8
0
  6
Continuous
 62
     7
370
    25
100
AcDbSpline
210
0.0
220
0.0
230
1.0
 70
     8
 71
     3
 72
    12
 73
     8
 74
     0
 42
0.00000001
 43
0.00000001
 40
0.0
 40
0.0
 40
0.0
 40
0.0
 40
0.3333333333333333
 40
0.3333333333333333
 40
0.6666666666666665
 40
0.6666666666666665
 40
0.9999999999999999
 40
0.9999999999999999
 40
0.9999999999999999
 40
0.9999999999999999
 10
0.125
 20
0.0
 30
0.0
 10
0.125
 20
0.04465167882098
 30
0.0
 10
0.1011694881688429
 20
0.0859273360763983
 30
0.0
 10
0.023830511801553
 20
0.1305790148868033
 30
0.0
 10
-0.0238305118551173
 20
0.1305790148770279
 30
0.0
 10
-0.1011694882040909
 20
0.085927336034898
 30
0.0
 10
-0.1250000000183164
 20
0.0446516787697042
 30
0.0
 10
-0.125
 20
-0.0000000000512757
 30
0.0
  0
SPLINE
  5
11E
330
113
100
AcDbEntity
  8
0
  6
Continuous
 62
     7
370
    25
100
AcDbSpline
210
0.0
220
0.0
230
1.0
 70
     8
 71
     3
 72
    14
 73
    10
 74
     0
 42
0.00000001
 43
0.00000001
 40
0.0
 40
0.0
 40
0.0
 40
0.0
 40
0.25
 40
0.25
 40
0.5000000000000001
 40
0.5000000000000001
 40
0.75
 40
0.75
 40
1.0
 40
1.0
 40
1.0
 40
1.0
 10
-0.125
 20
-0.0000000000512759
 30
0.0
 10
-0.1249999999864012
 20
-0.0331511230448605
 30
0.0
 10
-0.111829731503966
 20
-0.0649469638049897
 30
0.0
 10
-0.0649469637462212
 20
-0.1118297315380967
 30
0.0
 10
-0.0331511229791708
 20
-0.1250000000038226
 30
0.0
 10
0.0331511230079985
 20
-0.1249999999961773
 30
0.0
 10
0.0649469637720115
 20
-0.1118297315231186
 30
0.0
 10
0.1118297315189441
 20
-0.0649469637791992
 30
0.0
 10
0.1249999999940465
 20
-0.0331511230160327
 30
0.0
 10
0.1249999999999999
 20
-0.0000000000224481
 30
0.0
  0
SPLINE
  5
125
330
113
100
AcDbEntity
  8
0
  6
Continuous
 62
     7
370
    25
100
AcDbSpline
210
0.0
220
0.0
230
1.0
 70
     8
 71
     3
 72
    28
 73
    24
 74
     0
 42
0.00000001
 43
0.00000001
 40
0.0
 40
0.0
 40
0.0
 40
0.0
 40
0.020871579608761
 40
0.0416983120771539
 40
0.0625698923264251
 40
0.0938478484978717
 40
0.1251258057670328
 40
0.1876060022504955
 40
0.2500862001266989
 40
0.3125663980029029
 40
0.3750465944863655
 40
0.4375267922076509
 40
0.5000069896128296
 40
0.5624871870180084
 40
0.6249673847392938
 40
0.6874475812227568
 40
0.7499277790989599
 40
0.812407976975164
 40
0.8748881734586269
 40
0.9061661307277881
 40
0.9374440868992344
 40
0.968722043810243
 40
1.0
 40
1.0
 40
1.0
 40
1.0
 10
0.277787401653
 20
0.0
 30
0.0
 10
0.2778075465253355
 20
0.0010744279289535
 30
0.0
 10
0.2778477929843552
 20
0.0032209751441487
 30
0.0
 10
0.2781755014552079
 20
0.0064282539979966
 30
0.0
 10
0.2787850466018007
 20
0.0101362793944881
 30
0.0
 10
0.2798302656382167
 20
0.0143092766670469
 30
0.0
 10
0.282001733182775
 20
0.0203760516308006
 30
0.0
 10
0.2858176483124079
 20
0.0275185370453391
 30
0.0
 10
0.2919770662159389
 20
0.035022549171186
 30
0.0
 10
0.2994827137818335
 20
0.0411826393119029
 30
0.0
 10
0.3080457499153925
 20
0.0457595743941998
 30
0.0
 10
0.3173372101039782
 20
0.0485781373734712
 30
0.0
 10
0.3269999995141757
 20
0.0495298288582744
 30
0.0
 10
0.3366627918393194
 20
0.0485781372722214
 30
0.0
 10
0.3459542432830664
 20
0.0457595747991995
 30
0.0
 10
0.3545173114810336
 20
0.0411826377931541
 30
0.0
 10
0.3620228395341326
 20
0.035022554841182
 30
0.0
 10
0.3681827034244353
 20
0.0275185158841035
 30
0.0
 10
0.3719972311893402
 20
0.0203761139366071
 30
0.0
 10
0.3741715305089393
 20
0.0143091686065987
 30
0.0
 10
0.3753384737808564
 20
0.0096161706171028
 30
0.0
 10
0.3760765271508612
 20
0.0048315588592218
 30
0.0
 10
0.376167241281969
 20
0.0016105196073614
 30
0.0
 10
0.376212598347
 20
0.0
 30
0.0
  0
SPLINE
  5
126
330
113
100
AcDbEntity
  8
0
  6
Continuous
 62
     7
370
    25
100
AcDbSpline
210
0.0
220
0.0
230
1.0
 70
     8
 71
     3
 72
    28
 73
    24
 74
     0
 42
0.00000001
 43
0.00000001
 40
0.0
 40
0.0
 40
0.0
 40
0.0
 40
0.0208715796087612
 40
0.0416983120771539
 40
0.0625698923264251
 40
0.0938478484978713
 40
0.1251258057670326
 40
0.1876060022504955
 40
0.2500862001266996
 40
0.312566398002903
 40
0.3750465944863656
 40
0.4375267922076511
 40
0.5000069896128299
 40
0.5624871870180086
 40
0.624967384739294
 40
0.6874475812227567
 40
0.7499277790989605
 40
0.8124079769751641
 40
0.874888173458627
 40
0.9061661307277882
 40
0.9374440868992345
 40
0.9687220438102427
 40
1.0
 40
1.0
 40
1.0
 40
1.0
 10
0.376212598347
 20
0.0
 30
0.0
 10
0.3761924534746645
 20
-0.0010744279289535
 30
0.0
 10
0.3761522070156447
 20
-0.0032209751441487
 30
0.0
 10
0.3758244985447922
 20
-0.0064282539979966
 30
0.0
 10
0.3752149533981992
 20
-0.010136279394488
 30
0.0
 10
0.3741697343617836
 20
-0.0143092766670469
 30
0.0
 10
0.3719982668172249
 20
-0.0203760516308006
 30
0.0
 10
0.3681823516875927
 20
-0.0275185370453391
 30
0.0
 10
0.3620229337840609
 20
-0.0350225491711859
 30
0.0
 10
0.3545172862181665
 20
-0.0411826393119029
 30
0.0
 10
0.3459542500846076
 20
-0.0457595743941998
 30
0.0
 10
0.3366627898960218
 20
-0.0485781373734713
 30
0.0
 10
0.3270000004858244
 20
-0.0495298288582744
 30
0.0
 10
0.3173372081606809
 20
-0.0485781372722213
 30
0.0
 10
0.3080457567169336
 20
-0.0457595747991995
 30
0.0
 10
0.2994826885189669
 20
-0.041182637793154
 30
0.0
 10
0.2919771604658674
 20
-0.0350225548411822
 30
0.0
 10
0.2858172965755648
 20
-0.0275185158841035
 30
0.0
 10
0.2820027688106601
 20
-0.020376113936607
 30
0.0
 10
0.2798284694910609
 20
-0.0143091686065987
 30
0.0
 10
0.2786615262191436
 20
-0.0096161706171028
 30
0.0
 10
0.277923472849139
 20
-0.0048315588592218
 30
0.0
 10
0.277832758718031
 20
-0.0016105196073614
 30
0.0
 10
0.277787401653
 20
0.0
 30
0.0
  0
SPLINE
  5
127
330
113
100
AcDbEntity
  8
0
  6
Continuous
 62
     7
370
    25
100
AcDbSpline
210
0.0
220
0.0
230
1.0
 70
     8
 71
     3
 72
    28
 73
    24
 74
     0
 42
0.00000001
 43
0.00000001
 40
0.0
 40
0.0
 40
0.0
 40
0.0
 40
0.0208715796087612
 40
0.0416983120771539
 40
0.0625698923264251
 40
0.0938478484978713
 40
0.1251258057670327
 40
0.1876060022504955
 40
0.2500862001266994
 40
0.3125663980029031
 40
0.3750465944863658
 40
0.4375267922076511
 40
0.5000069896128299
 40
0.5624871870180086
 40
0.6249673847392938
 40
0.6874475812227566
 40
0.7499277790989605
 40
0.8124079769751642
 40
0.874888173458627
 40
0.9061661307277882
 40
0.9374440868992345
 40
0.9687220438102427
 40
1.0
 40
1.0
 40
1.0
 40
1.0
 10
-0.049212598347
 20
0.0
 30
0.0
 10
-0.0491924534746645
 20
0.0010744279289535
 30
0.0
 10
-0.0491522070156447
 20
0.0032209751441487
 30
0.0
 10
-0.0488244985447922
 20
0.0064282539979966
 30
0.0
 10
-0.0482149533981993
 20
0.010136279394488
 30
0.0
 10
-0.0471697343617835
 20
0.0143092766670469
 30
0.0
 10
-0.0449982668172249
 20
0.0203760516308006
 30
0.0
 10
-0.0411823516875924
 20
0.0275185370453391
 30
0.0
 10
-0.035022933784061
 20
0.0350225491711859
 30
0.0
 10
-0.0275172862181665
 20
0.0411826393119029
 30
0.0
 10
-0.0189542500846075
 20
0.0457595743941998
 30
0.0
 10
-0.0096627898960217
 20
0.0485781373734713
 30
0.0
 10
-0.0000000004858244
 20
0.0495298288582743
 30
0.0
 10
0.0096627918393192
 20
0.0485781372722214
 30
0.0
 10
0.0189542432830664
 20
0.0457595747991995
 30
0.0
 10
0.0275173114810333
 20
0.041182637793154
 30
0.0
 10
0.0350228395341326
 20
0.0350225548411822
 30
0.0
 10
0.0411827034244353
 20
0.0275185158841035
 30
0.0
 10
0.04499723118934
 20
0.020376113936607
 30
0.0
 10
0.0471715305089391
 20
0.0143091686065987
 30
0.0
 10
0.0483384737808564
 20
0.0096161706171028
 30
0.0
 10
0.0490765271508611
 20
0.0048315588592218
 30
0.0
 10
0.049167241281969
 20
0.0016105196073614
 30
0.0
 10
0.049212598347
 20
0.0
 30
0.0
  0
SPLINE
  5
128
330
113
100
AcDbEntity
  8
0
  6
Continuous
 62
     7
370
    25
100
AcDbSpline
210
0.0
220
0.0
230
1.0
 70
     8
 71
     3
 72
    28
 73
    24
 74
     0
 42
0.00000001
 43
0.00000001
 40
0.0
 40
0.0
 40
0.0
 40
0.0
 40
0.020871579608761
 40
0.0416983120771539
 40
0.0625698923264251
 40
0.0938478484978717
 40
0.1251258057670327
 40
0.1876060022504954
 40
0.250086200126699
 40
0.312566398002903
 40
0.3750465944863657
 40
0.4375267922076509
 40
0.5000069896128296
 40
0.5624871870180084
 40
0.6249673847392937
 40
0.6874475812227564
 40
0.7499277790989601
 40
0.812407976975164
 40
0.8748881734586267
 40
0.9061661307277881
 40
0.9374440868992344
 40
0.9687220438102428
 40
1.0
 40
1.0
 40
1.0
 40
1.0
 10
0.049212598347
 20
0.0
 30
0.0
 10
0.0491924534746645
 20
-0.0010744279289535
 30
0.0
 10
0.0491522070156447
 20
-0.0032209751441487
 30
0.0
 10
0.0488244985447922
 20
-0.0064282539979966
 30
0.0
 10
0.0482149533981993
 20
-0.0101362793944881
 30
0.0
 10
0.0471697343617834
 20
-0.0143092766670469
 30
0.0
 10
0.044998266817225
 20
-0.0203760516308006
 30
0.0
 10
0.0411823516875923
 20
-0.0275185370453391
 30
0.0
 10
0.035022933784061
 20
-0.0350225491711859
 30
0.0
 10
0.0275172862181665
 20
-0.0411826393119029
 30
0.0
 10
0.0189542500846075
 20
-0.0457595743941998
 30
0.0
 10
0.0096627898960217
 20
-0.0485781373734712
 30
0.0
 10
0.0000000004858244
 20
-0.0495298288582744
 30
0.0
 10
-0.0096627918393192
 20
-0.0485781372722214
 30
0.0
 10
-0.0189542432830664
 20
-0.0457595747991995
 30
0.0
 10
-0.0275173114810333
 20
-0.041182637793154
 30
0.0
 10
-0.0350228395341325
 20
-0.0350225548411821
 30
0.0
 10
-0.0411827034244353
 20
-0.0275185158841035
 30
0.0
 10
-0.04499723118934
 20
-0.020376113936607
 30
0.0
 10
-0.0471715305089392
 20
-0.0143091686065987
 30
0.0
 10
-0.0483384737808564
 20
-0.0096161706171028
 30
0.0
 10
-0.0490765271508611
 20
-0.0048315588592218
 30
0.0
 10
-0.049167241281969
 20
-0.0016105196073614
 30
0.0
 10
-0.049212598347
 20
0.0
 30
0.0
  0
LINE
  5
129
330
113
100
AcDbEntity
  8
0
  6
Continuous
 62
     7
370
    25
100
AcDbLine
 10
0.492125984
 20
0.295275591
 30
0.0
 11
0.492125984
 21
-0.31496063
 31
0.0
  0
LINE
  5
12A
330
113
100
AcDbEntity
  8
0
  6
Continuous
 62
     7
370
    25
100
AcDbLine
 10
0.492125984
 20
-0.31496063
 30
0.0
 11
-0.492125984
 21
-0.31496063
 31
0.0
  0
LINE
  5
12B
330
113
100
AcDbEntity
  8
0
  6
Continuous
 62
     7
370
    25
100
AcDbLine
 10
-0.492125984
 20
-0.31496063
 30
0.0
 11
-0.492125984
 21
0.295275591
 31
0.0
  0
LINE
  5
12C
330
113
100
AcDbEntity
  8
0
  6
Continuous
 62
     7
370
    25
100
AcDbLine
 10
-0.4921259839
 20
0.295275591
 30
0.0
 11
0.4921259839
 21
0.295275591
 31
0.0
  0
LINE
  5
12D
330
113
100
AcDbEntity
  8
0
  6
Continuous
 62
     7
370
    25
100
AcDbLine
 10
0.4724409444
 20
0.31496063
 30
0.0
 11
-0.4724409444
 21
0.31496063
 31
0.0
  0
LINE
  5
12E
330
113
100
AcDbEntity
  8
0
  6
Continuous
 62
     7
370
    25
100
AcDbLine
 10
0.4921259839
 20
0.295275591
 30
0.0
 11
0.4724409444
 21
0.31496063
 31
0.0
  0
LINE
  5
12F
330
113
100
AcDbEntity
  8
0
  6
Continuous
 62
     7
370
    25
100
AcDbLine
 10
-0.4724409444
 20
0.31496063
 30
0.0
 11
-0.4921259839
 21
0.295275591
 31
0.0
  0
LINE
  5
130
330
113
100
AcDbEntity
  8
0
  6
Continuous
 62
     7
370
    25
100
AcDbLine
 10
0.470125984
 20
-0.35396063
 30
0.0
 11
-0.469622047
 21
-0.35396063
 31
0.0
  0
LINE
  5
131
330
113
100
AcDbEntity
  8
0
  6
Continuous
 62
     7
370
    25
100
AcDbLine
 10
-0.469622047
 20
-0.31496063
 30
0.0
 11
-0.469622047
 21
-0.35396063
 31
0.0
  0
LINE
  5
132
330
113
100
AcDbEntity
  8
0
  6
Continuous
 62
     7
370
    25
100
AcDbLine
 10
0.470125984
 20
-0.31496063
 30
0.0
 11
0.470125984
 21
-0.35396063
 31
0.0
  0
VIEWPORT
  5
2C8
330
113
100
AcDbEntity
  8
0
100
AcDbViewport
 10
0.0
 20
0.0
 30
0.0
 40
8.4
 41
6.4
 68
     1
 69
     1
 12
0.0
 22
-0.0157640079
 13
0.0
 23
0.0
 14
0.5
 24
0.5
 15
0.5
 25
0.5
 16
0.0
 26
0.0
 36
1.0
 17
0.0
 27
0.0
 37
0.0
 42
50.0
 43
0.0
 44
0.0
 45
1.7099679532
 50
0.0
 51
0.0
 72
   100
 90
   557152
  1

281
     0
 71
     1
 74
     0
110
0.0
120
0.0
130
0.0
111
1.0
121
0.0
131
0.0
112
0.0
122
1.0
132
0.0
 79
     0
146
0.0
  0
ENDBLK
  5
116
330
113
100
AcDbEntity
  8
0
100
AcDbBlockEnd
  0
BLOCK
  5
135
330
133
100
AcDbEntity
  8
0
100
AcDbBlockBegin
  2
*Paper_Space3
 70
     0
 10
0.0
 20
0.0
 30
0.0
  3
*Paper_Space3
  1

  0
SPLINE
  5
13B
330
133
100
AcDbEntity
  8
0
  6
Continuous
 62
     7
370
    25
100
AcDbSpline
210
0.0
220
0.0
230
1.0
 70
     8
 71
     3
 72
    25
 73
    21
 74
     0
 42
0.00000001
 43
0.00000001
 40
0.0
 40
0.0
 40
0.0
 40
0.0
 40
0.0312831305250867
 40
0.0625662518262054
 40
0.1250567891594311
 40
0.1875473258269893
 40
0.2500378599578951
 40
0.3125283987838809
 40
0.3750189324650791
 40
0.4375094667148555
 40
0.5000000014625694
 40
0.5624905362102839
 40
0.6249810704600608
 40
0.6874716041412591
 40
0.7499621429672446
 40
0.8124526717054091
 40
0.8749432083729681
 40
0.9374337481737947
 40
0.9687168694749133
 40
1.0
 40
1.0
 40
1.0
 40
1.0
 10
-0.2505496473746774
 20
0.2151165761167712
 30
0.0
 10
-0.2517092752125819
 20
0.2151493905250633
 30
0.0
 10
-0.2540285305464693
 20
0.2152150193319719
 30
0.0
 10
-0.2586179037327911
 20
0.2159199772383641
 30
0.0
 10
-0.2641975787415531
 20
0.2175997569310026
 30
0.0
 10
-0.2703618691783601
 20
0.2208990077940798
 30
0.0
 10
-0.2757661824367605
 20
0.2253329603038675
 30
0.0
 10
-0.2802010674654848
 20
0.2307372471008655
 30
0.0
 10
-0.2834965633506342
 20
0.2369025741463104
 30
0.0
 10
-0.2855258981274097
 20
0.2435924415362998
 30
0.0
 10
-0.2862111284689843
 20
0.2505496469927548
 30
0.0
 10
-0.2855258981243657
 20
0.2575068524433078
 30
0.0
 10
-0.2834965633628105
 20
0.2641967198510035
 30
0.0
 10
-0.2802010674198231
 20
0.2703620468315263
 30
0.0
 10
-0.2757661827348035
 20
0.2757663337150486
 30
0.0
 10
-0.2703618688669993
 20
0.2802002852361529
 30
0.0
 10
-0.2641975785985498
 20
0.2834995358555717
 30
0.0
 10
-0.258617903862524
 20
0.2851793168713376
 30
0.0
 10
-0.254028530539551
 20
0.2858842746268347
 30
0.0
 10
-0.2517092752102757
 20
0.2859499034502339
 30
0.0
 10
-0.2505496473746774
 20
0.2859827178667713
 30
0.0
  0
SPLINE
  5
13C
330
133
100
AcDbEntity
  8
0
  6
Continuous
 62
     7
370
    25
100
AcDbSpline
210
0.0
220
0.0
230
1.0
 70
     8
 71
     3
 72
    25
 73
    21
 74
     0
 42
0.00000001
 43
0.00000001
 40
0.0
 40
0.0
 40
0.0
 40
0.0
 40
0.0312831343803887
 40
0.06256626807862
 40
0.1250568069238849
 40
0.1875473273297478
 40
0.2500378685282915
 40
0.3125283953885363
 40
0.3750189281141752
 40
0.4375094664464089
 40
0.4999999985374314
 40
0.5624905306284527
 40
0.6249810689606865
 40
0.6874716016863252
 40
0.7499621285465701
 40
0.812452675137854
 40
0.8749431955437165
 40
0.9374337319213799
 40
0.9687168656196113
 40
0.9999999999999999
 40
0.9999999999999999
 40
0.9999999999999999
 40
0.9999999999999999
 10
-0.2505496473746774
 20
0.2859827178667713
 30
0.0
 10
-0.24939001937958
 20
0.2859499034329149
 30
0.0
 10
-0.2470707634146718
 20
0.2858842745659176
 30
0.0
 10
-0.2424813894343643
 20
0.2851793170789057
 30
0.0
 10
-0.2369017144879899
 20
0.2834995364383666
 30
0.0
 10
-0.230737425541615
 20
0.2802002839187198
 30
0.0
 10
-0.2253331100443587
 20
0.2757663351023145
 30
0.0
 10
-0.2208982273747017
 20
0.2703620460896545
 30
0.0
 10
-0.2176027320763136
 20
0.2641967195914919
 30
0.0
 10
-0.2155733931993072
 20
0.2575068528924975
 30
0.0
 10
-0.2148881680055275
 20
0.2505496469927549
 30
0.0
 10
-0.2155733931962631
 20
0.2435924410871103
 30
0.0
 10
-0.21760273208849
 20
0.2369025744058218
 30
0.0
 10
-0.22089822732904
 20
0.2307372478427374
 30
0.0
 10
-0.2253331103424016
 20
0.2253329589166017
 30
0.0
 10
-0.2307374252302544
 20
0.2208990091115127
 30
0.0
 10
-0.2369017143449869
 20
0.2175997563482082
 30
0.0
 10
-0.2424813895640973
 20
0.215919977030796
 30
0.0
 10
-0.2470707634077534
 20
0.2152150193928891
 30
0.0
 10
-0.2493900193772738
 20
0.2151493905423823
 30
0.0
 10
-0.2505496473746774
 20
0.2151165761167712
 30
0.0
  0
SPLINE
  5
13D
330
133
100
AcDbEntity
  8
0
  6
Continuous
 62
     7
370
    25
100
AcDbSpline
210
0.0
220
0.0
230
1.0
 70
     8
 71
     3
 72
    25
 73
    21
 74
     0
 42
0.00000001
 43
0.00000001
 40
0.0
 40
0.0
 40
0.0
 40
0.0
 40
0.0312831305250868
 40
0.0625662518262054
 40
0.1250567916270318
 40
0.1875473282945913
 40
0.2500378570327553
 40
0.312528395858741
 40
0.3750189295399393
 40
0.4375094637897163
 40
0.4999999985374308
 40
0.5624905332851446
 40
0.624981067534921
 40
0.6874716012161193
 40
0.7499621400421042
 40
0.8124526741730107
 40
0.8749432108405698
 40
0.9374337481737947
 40
0.9687168694749134
 40
1.0
 40
1.0
 40
1.0
 40
1.0
 10
-0.2505496473746774
 20
-0.2859827178667714
 30
0.0
 10
-0.2517092752102758
 20
-0.2859499034502341
 30
0.0
 10
-0.254028530539551
 20
-0.2858842746268349
 30
0.0
 10
-0.2586179038625239
 20
-0.2851793168713376
 30
0.0
 10
-0.2641975785985499
 20
-0.283499535855572
 30
0.0
 10
-0.2703618688669992
 20
-0.2802002852361528
 30
0.0
 10
-0.2757661827348035
 20
-0.2757663337150488
 30
0.0
 10
-0.280201067419823
 20
-0.2703620468315265
 30
0.0
 10
-0.2834965633628107
 20
-0.2641967198510037
 30
0.0
 10
-0.2855258981243655
 20
-0.2575068524433078
 30
0.0
 10
-0.2862111284689844
 20
-0.2505496469927551
 30
0.0
 10
-0.2855258981274097
 20
-0.2435924415363
 30
0.0
 10
-0.2834965633506341
 20
-0.2369025741463105
 30
0.0
 10
-0.2802010674654849
 20
-0.2307372471008657
 30
0.0
 10
-0.2757661824367603
 20
-0.2253329603038677
 30
0.0
 10
-0.2703618691783601
 20
-0.2208990077940799
 30
0.0
 10
-0.264197578741553
 20
-0.2175997569310026
 30
0.0
 10
-0.2586179037327911
 20
-0.2159199772383642
 30
0.0
 10
-0.2540285305464694
 20
-0.215215019331972
 30
0.0
 10
-0.2517092752125819
 20
-0.2151493905250634
 30
0.0
 10
-0.2505496473746774
 20
-0.2151165761167713
 30
0.0
  0
SPLINE
  5
13E
330
133
100
AcDbEntity
  8
0
  6
Continuous
 62
     7
370
    25
100
AcDbSpline
210
0.0
220
0.0
230
1.0
 70
     8
 71
     3
 72
    25
 73
    21
 74
     0
 42
0.00000001
 43
0.00000001
 40
0.0
 40
0.0
 40
0.0
 40
0.0
 40
0.0312831343803886
 40
0.0625662680786201
 40
0.1250568044562833
 40
0.1875473248621463
 40
0.250037871453431
 40
0.3125283983136748
 40
0.3750189310393135
 40
0.437509469371548
 40
0.5000000014625686
 40
0.5624905335535906
 40
0.6249810718858247
 40
0.6874716046114636
 40
0.7499621314717085
 40
0.812452672670252
 40
0.8749431930761152
 40
0.9374337319213799
 40
0.9687168656196112
 40
0.9999999999999999
 40
0.9999999999999999
 40
0.9999999999999999
 40
0.9999999999999999
 10
-0.2505496473746774
 20
-0.2151165761167713
 30
0.0
 10
-0.2493900193772739
 20
-0.2151493905423825
 30
0.0
 10
-0.2470707634077534
 20
-0.2152150193928891
 30
0.0
 10
-0.2424813895640973
 20
-0.2159199770307961
 30
0.0
 10
-0.2369017143449868
 20
-0.2175997563482082
 30
0.0
 10
-0.2307374252302543
 20
-0.2208990091115128
 30
0.0
 10
-0.2253331103424018
 20
-0.2253329589166021
 30
0.0
 10
-0.2208982273290399
 20
-0.2307372478427374
 30
0.0
 10
-0.21760273208849
 20
-0.236902574405822
 30
0.0
 10
-0.2155733931962631
 20
-0.2435924410871105
 30
0.0
 10
-0.2148881680055275
 20
-0.2505496469927549
 30
0.0
 10
-0.2155733931993072
 20
-0.2575068528924976
 30
0.0
 10
-0.2176027320763135
 20
-0.2641967195914919
 30
0.0
 10
-0.2208982273747018
 20
-0.2703620460896546
 30
0.0
 10
-0.2253331100443587
 20
-0.2757663351023145
 30
0.0
 10
-0.2307374255416151
 20
-0.28020028391872
 30
0.0
 10
-0.2369017144879899
 20
-0.2834995364383668
 30
0.0
 10
-0.2424813894343644
 20
-0.2851793170789059
 30
0.0
 10
-0.2470707634146718
 20
-0.2858842745659177
 30
0.0
 10
-0.2493900193795799
 20
-0.2859499034329149
 30
0.0
 10
-0.2505496473746774
 20
-0.2859827178667714
 30
0.0
  0
SPLINE
  5
13F
330
133
100
AcDbEntity
  8
0
  6
Continuous
 62
     7
370
    25
100
AcDbSpline
210
0.0
220
0.0
230
1.0
 70
     8
 71
     3
 72
    25
 73
    21
 74
     0
 42
0.00000001
 43
0.00000001
 40
0.0
 40
0.0
 40
0.0
 40
0.0
 40
0.0312831343803887
 40
0.0625662680786206
 40
0.1250568069238847
 40
0.1875473273297479
 40
0.2500378685282914
 40
0.3125283953885362
 40
0.3750189281141739
 40
0.4375094664464095
 40
0.4999999985374313
 40
0.5624905306284521
 40
0.6249810689606874
 40
0.6874716016863252
 40
0.7499621285465691
 40
0.8124526751378538
 40
0.8749431955437167
 40
0.9374337319213791
 40
0.9687168656196113
 40
0.9999999999999999
 40
0.9999999999999999
 40
0.9999999999999999
 40
0.9999999999999999
 10
0.2505496473589319
 20
-0.2859827178667713
 30
0.0
 10
0.2493900193638344
 20
-0.2859499034329149
 30
0.0
 10
0.2470707633989262
 20
-0.2858842745659177
 30
0.0
 10
0.2424813894186188
 20
-0.2851793170789058
 30
0.0
 10
0.2369017144722443
 20
-0.2834995364383668
 30
0.0
 10
0.2307374255258696
 20
-0.2802002839187199
 30
0.0
 10
0.2253331100286131
 20
-0.2757663351023146
 30
0.0
 10
0.2208982273589562
 20
-0.2703620460896547
 30
0.0
 10
0.2176027320605684
 20
-0.2641967195914919
 30
0.0
 10
0.2155733931835613
 20
-0.2575068528924977
 30
0.0
 10
0.2148881679897821
 20
-0.2505496469927551
 30
0.0
 10
0.2155733931805172
 20
-0.2435924410871104
 30
0.0
 10
0.2176027320727448
 20
-0.2369025744058221
 30
0.0
 10
0.2208982273132943
 20
-0.2307372478427373
 30
0.0
 10
0.2253331103266561
 20
-0.225332958916602
 30
0.0
 10
0.2307374252145089
 20
-0.2208990091115129
 30
0.0
 10
0.2369017143292412
 20
-0.2175997563482081
 30
0.0
 10
0.2424813895483518
 20
-0.2159199770307961
 30
0.0
 10
0.2470707633920079
 20
-0.2152150193928891
 30
0.0
 10
0.2493900193615283
 20
-0.2151493905423825
 30
0.0
 10
0.2505496473589319
 20
-0.2151165761167713
 30
0.0
  0
SPLINE
  5
140
330
133
100
AcDbEntity
  8
0
  6
Continuous
 62
     7
370
    25
100
AcDbSpline
210
0.0
220
0.0
230
1.0
 70
     8
 71
     3
 72
    25
 73
    21
 74
     0
 42
0.00000001
 43
0.00000001
 40
0.0
 40
0.0
 40
0.0
 40
0.0
 40
0.0312831305250879
 40
0.0625662518262055
 40
0.1250567891594303
 40
0.1875473258269893
 40
0.2500378599578958
 40
0.3125283987838794
 40
0.3750189324650793
 40
0.437509466714856
 40
0.5000000014625693
 40
0.5624905362102837
 40
0.6249810704600606
 40
0.6874716041412605
 40
0.749962142967245
 40
0.8124526717054088
 40
0.8749432083729684
 40
0.9374337481737947
 40
0.968716869474912
 40
1.0
 40
1.0
 40
1.0
 40
1.0
 10
0.2505496473589319
 20
-0.2151165761167713
 30
0.0
 10
0.2517092751968363
 20
-0.2151493905250634
 30
0.0
 10
0.2540285305307238
 20
-0.2152150193319719
 30
0.0
 10
0.2586179037170455
 20
-0.2159199772383642
 30
0.0
 10
0.2641975787258076
 20
-0.2175997569310028
 30
0.0
 10
0.2703618691626145
 20
-0.2208990077940799
 30
0.0
 10
0.275766182421015
 20
-0.2253329603038677
 30
0.0
 10
0.2802010674497388
 20
-0.2307372471008657
 30
0.0
 10
0.283496563334889
 20
-0.2369025741463105
 30
0.0
 10
0.2855258981116645
 20
-0.2435924415363001
 30
0.0
 10
0.2862111284532385
 20
-0.2505496469927549
 30
0.0
 10
0.2855258981086204
 20
-0.257506852443308
 30
0.0
 10
0.2834965633470652
 20
-0.2641967198510036
 30
0.0
 10
0.2802010674040771
 20
-0.2703620468315263
 30
0.0
 10
0.275766182719058
 20
-0.2757663337150489
 30
0.0
 10
0.2703618688512536
 20
-0.2802002852361529
 30
0.0
 10
0.2641975785828042
 20
-0.283499535855572
 30
0.0
 10
0.2586179038467786
 20
-0.2851793168713376
 30
0.0
 10
0.2540285305238054
 20
-0.2858842746268349
 30
0.0
 10
0.2517092751945302
 20
-0.2859499034502339
 30
0.0
 10
0.2505496473589319
 20
-0.2859827178667713
 30
0.0
  0
SPLINE
  5
141
330
133
100
AcDbEntity
  8
0
  6
Continuous
 62
     7
370
    25
100
AcDbSpline
210
0.0
220
0.0
230
1.0
 70
     8
 71
     3
 72
    25
 73
    21
 74
     0
 42
0.00000001
 43
0.00000001
 40
0.0
 40
0.0
 40
0.0
 40
0.0
 40
0.0312831343803887
 40
0.0625662680786207
 40
0.1250568044562835
 40
0.187547324862146
 40
0.2500378714534299
 40
0.3125283983136748
 40
0.3750189310393125
 40
0.4375094693715474
 40
0.5000000014625686
 40
0.5624905335535907
 40
0.624981071885826
 40
0.6874716046114637
 40
0.7499621314717085
 40
0.8124526726702522
 40
0.8749431930761151
 40
0.9374337319213794
 40
0.9687168656196112
 40
0.9999999999999999
 40
0.9999999999999999
 40
0.9999999999999999
 40
0.9999999999999999
 10
0.2505496473589319
 20
0.2151165761167712
 30
0.0
 10
0.2493900193615283
 20
0.2151493905423823
 30
0.0
 10
0.2470707633920078
 20
0.215215019392889
 30
0.0
 10
0.2424813895483518
 20
0.215919977030796
 30
0.0
 10
0.2369017143292413
 20
0.2175997563482083
 30
0.0
 10
0.2307374252145088
 20
0.2208990091115126
 30
0.0
 10
0.2253331103266561
 20
0.2253329589166018
 30
0.0
 10
0.2208982273132944
 20
0.2307372478427372
 30
0.0
 10
0.2176027320727448
 20
0.2369025744058219
 30
0.0
 10
0.2155733931805171
 20
0.2435924410871102
 30
0.0
 10
0.2148881679897821
 20
0.2505496469927548
 30
0.0
 10
0.2155733931835613
 20
0.2575068528924976
 30
0.0
 10
0.2176027320605684
 20
0.2641967195914917
 30
0.0
 10
0.2208982273589561
 20
0.2703620460896546
 30
0.0
 10
0.2253331100286132
 20
0.2757663351023144
 30
0.0
 10
0.2307374255258695
 20
0.2802002839187198
 30
0.0
 10
0.2369017144722445
 20
0.2834995364383667
 30
0.0
 10
0.2424813894186187
 20
0.2851793170789056
 30
0.0
 10
0.2470707633989262
 20
0.2858842745659176
 30
0.0
 10
0.2493900193638344
 20
0.2859499034329148
 30
0.0
 10
0.2505496473589319
 20
0.2859827178667713
 30
0.0
  0
SPLINE
  5
142
330
133
100
AcDbEntity
  8
0
  6
Continuous
 62
     7
370
    25
100
AcDbSpline
210
0.0
220
0.0
230
1.0
 70
     8
 71
     3
 72
    25
 73
    21
 74
     0
 42
0.00000001
 43
0.00000001
 40
0.0
 40
0.0
 40
0.0
 40
0.0
 40
0.031283130525088
 40
0.0625662518262053
 40
0.1250567916270318
 40
0.1875473282945908
 40
0.2500378570327553
 40
0.3125283958587396
 40
0.3750189295399396
 40
0.4375094637897162
 40
0.4999999985374308
 40
0.5624905332851444
 40
0.6249810675349206
 40
0.6874716012161205
 40
0.749962140042105
 40
0.8124526741730108
 40
0.8749432108405694
 40
0.9374337481737945
 40
0.968716869474912
 40
1.0
 40
1.0
 40
1.0
 40
1.0
 10
0.2505496473589319
 20
0.2859827178667713
 30
0.0
 10
0.2517092751945302
 20
0.2859499034502339
 30
0.0
 10
0.2540285305238054
 20
0.2858842746268347
 30
0.0
 10
0.2586179038467785
 20
0.2851793168713376
 30
0.0
 10
0.2641975785828042
 20
0.2834995358555717
 30
0.0
 10
0.2703618688512538
 20
0.2802002852361529
 30
0.0
 10
0.275766182719058
 20
0.2757663337150487
 30
0.0
 10
0.2802010674040771
 20
0.270362046831526
 30
0.0
 10
0.2834965633470654
 20
0.2641967198510037
 30
0.0
 10
0.2855258981086202
 20
0.2575068524433078
 30
0.0
 10
0.2862111284532387
 20
0.2505496469927548
 30
0.0
 10
0.2855258981116643
 20
0.2435924415362999
 30
0.0
 10
0.2834965633348887
 20
0.2369025741463102
 30
0.0
 10
0.280201067449739
 20
0.2307372471008658
 30
0.0
 10
0.2757661824210149
 20
0.2253329603038673
 30
0.0
 10
0.2703618691626146
 20
0.2208990077940799
 30
0.0
 10
0.2641975787258074
 20
0.2175997569310026
 30
0.0
 10
0.2586179037170456
 20
0.2159199772383641
 30
0.0
 10
0.2540285305307238
 20
0.2152150193319719
 30
0.0
 10
0.2517092751968363
 20
0.2151493905250632
 30
0.0
 10
0.2505496473589319
 20
0.2151165761167712
 30
0.0
  0
SPLINE
  5
143
330
133
100
AcDbEntity
  8
0
  6
Continuous
 62
     7
370
    25
100
AcDbSpline
210
0.0
220
0.0
230
1.0
 70
     8
 71
     3
 72
    33
 73
    29
 74
     0
 42
0.00000001
 43
0.00000001
 40
0.0
 40
0.0
 40
0.0
 40
0.0
 40
0.0125326068921781
 40
0.0250361825345119
 40
0.0375300660551971
 40
0.0500336415545698
 40
0.0625662481614876
 40
0.0938388079231206
 40
0.1251113678840797
 40
0.1563839278987392
 40
0.1876564877172139
 40
0.25012590569325
 40
0.3125953227502234
 40
0.3750647411486716
 40
0.4375341575448561
 40
0.5000035755504129
 40
0.5624729935559697
 40
0.6249424099521541
 40
0.6874118283506021
 40
0.7498812454075756
 40
0.8123506633836116
 40
0.8436232232020865
 40
0.8748957832167459
 40
0.906168343177705
 40
0.9374409029393381
 40
0.958308881670814
 40
0.9791320208719558
 40
1.0
 40
1.0
 40
1.0
 40
1.0
 10
0.2551472710590812
 20
-0.0000000000000001
 30
0.0
 10
0.2551096448093075
 20
-0.0033450583642491
 30
0.0
 10
0.2550344794693644
 20
-0.0100274264075812
 30
0.0
 10
0.2544239338721054
 20
-0.0200291768246351
 30
0.0
 10
0.2534485860067094
 20
-0.029992206831133
 30
0.0
 10
0.2520728311217109
 20
-0.0399167517582229
 30
0.0
 10
0.2494290909215223
 20
-0.0547133447046831
 30
0.0
 10
0.244558626785143
 20
-0.0741871739323332
 30
0.0
 10
0.2361020571057173
 20
-0.0977960075512209
 30
0.0
 10
0.225385194908206
 20
-0.120472596419672
 30
0.0
 10
0.2082042943816181
 20
-0.1491258629255327
 30
0.0
 10
0.1815774419742847
 20
-0.1815854211323999
 30
0.0
 10
0.1426665062795515
 20
-0.2135131212696979
 30
0.0
 10
0.0982699068320935
 20
-0.2372453102094641
 30
0.0
 10
0.0500976683636512
 20
-0.2518576893910059
 30
0.0
 10
0.0000000000990423
 20
-0.2567920621671237
 30
0.0
 10
-0.0500976688070572
 20
-0.251857689494583
 30
0.0
 10
-0.0982699053510281
 20
-0.2372453097951557
 30
0.0
 10
-0.142666511854881
 20
-0.2135131228233548
 30
0.0
 10
-0.1815774212485059
 20
-0.1815854153320814
 30
0.0
 10
-0.2082043554656949
 20
-0.1491258800040381
 30
0.0
 10
-0.2253850890098461
 20
-0.120472566799437
 30
0.0
 10
-0.2361024613793284
 20
-0.097796120607133
 30
0.0
 10
-0.2445571156835398
 20
-0.0741867513289216
 30
0.0
 10
-0.2499746727400987
 20
-0.0525526527253354
 30
0.0
 10
-0.2531351790814979
 20
-0.0333278399743718
 30
0.0
 10
-0.2548341547672415
 20
-0.0166994536283354
 30
0.0
 10
-0.2550428241624363
 20
-0.0055704743823086
 30
0.0
 10
-0.2551472710748268
 20
-0.0000000000000001
 30
0.0
  0
SPLINE
  5
144
330
133
100
AcDbEntity
  8
0
  6
Continuous
 62
     7
370
    25
100
AcDbSpline
210
0.0
220
0.0
230
1.0
 70
     8
 71
     3
 72
    33
 73
    29
 74
     0
 42
0.00000001
 43
0.00000001
 40
0.0
 40
0.0
 40
0.0
 40
0.0
 40
0.012532606892178
 40
0.025036182534512
 40
0.037530066055197
 40
0.0500336415545698
 40
0.0625662481614877
 40
0.0938388079231207
 40
0.1251113678840798
 40
0.1563839278987391
 40
0.1876564877172141
 40
0.25012590569325
 40
0.3125953227502235
 40
0.3750647411486716
 40
0.437534157544856
 40
0.5000035755504129
 40
0.5624729935559695
 40
0.6249424099521541
 40
0.6874118283506023
 40
0.7498812454075757
 40
0.8123506633836118
 40
0.8436232232020868
 40
0.8748957832167461
 40
0.9061683431777052
 40
0.9374409029393381
 40
0.9583088816708139
 40
0.9791320208719556
 40
1.0
 40
1.0
 40
1.0
 40
1.0
 10
-0.2551472710748268
 20
-0.0000000000000001
 30
0.0
 10
-0.2551096448250531
 20
0.0033450583642489
 30
0.0
 10
-0.2550344794851099
 20
0.0100274264075811
 30
0.0
 10
-0.2544239338878511
 20
0.020029176824635
 30
0.0
 10
-0.2534485860224544
 20
0.0299922068311328
 30
0.0
 10
-0.2520728311374569
 20
0.0399167517582228
 30
0.0
 10
-0.2494290909372675
 20
0.0547133447046829
 30
0.0
 10
-0.2445586268008894
 20
0.0741871739323333
 30
0.0
 10
-0.2361020571214627
 20
0.0977960075512206
 30
0.0
 10
-0.2253851949239515
 20
0.1204725964196718
 30
0.0
 10
-0.2082042943973634
 20
0.1491258629255325
 30
0.0
 10
-0.1815774419900302
 20
0.1815854211323998
 30
0.0
 10
-0.142666506295297
 20
0.2135131212696978
 30
0.0
 10
-0.0982699068478392
 20
0.2372453102094641
 30
0.0
 10
-0.0500976683793968
 20
0.2518576893910056
 30
0.0
 10
-0.000000000114788
 20
0.2567920621671236
 30
0.0
 10
0.0500976687913116
 20
0.2518576894945827
 30
0.0
 10
0.0982699053352825
 20
0.2372453097951557
 30
0.0
 10
0.1426665118391354
 20
0.2135131228233546
 30
0.0
 10
0.1815774212327603
 20
0.1815854153320812
 30
0.0
 10
0.2082043554499496
 20
0.149125880004038
 30
0.0
 10
0.2253850889941005
 20
0.1204725667994367
 30
0.0
 10
0.2361024613635829
 20
0.0977961206071328
 30
0.0
 10
0.2445571156677944
 20
0.0741867513289216
 30
0.0
 10
0.2499746727243532
 20
0.0525526527253354
 30
0.0
 10
0.2531351790657522
 20
0.0333278399743718
 30
0.0
 10
0.2548341547514955
 20
0.0166994536283353
 30
0.0
 10
0.2550428241466907
 20
0.0055704743823085
 30
0.0
 10
0.2551472710590812
 20
-0.0000000000000001
 30
0.0
  0
SPLINE
  5
14D
330
133
100
AcDbEntity
  8
0
  6
Continuous
 62
     7
370
    25
100
AcDbSpline
210
0.0
220
0.0
230
1.0
 70
     8
 71
     3
 72
    10
 73
     6
 74
     0
 42
0.00000001
 43
0.00000001
 40
0.0
 40
0.0
 40
0.0
 40
0.0
 40
0.4999999999999999
 40
0.4999999999999999
 40
0.9999999999999999
 40
0.9999999999999999
 40
0.9999999999999999
 40
0.9999999999999999
 10
-0.0000000000078727
 20
0.0295275595093584
 30
0.0
 10
0.0078309740496038
 20
0.0295275595093583
 30
0.0
 10
0.0153418026937464
 20
0.0264164724202941
 30
0.0
 10
0.0264164724124215
 20
0.015341802701619
 30
0.0
 10
0.0295275595014856
 20
0.0078309740574764
 30
0.0
 10
0.0295275595014856
 20
-0.0000000000000001
 30
0.0
  0
SPLINE
  5
14E
330
133
100
AcDbEntity
  8
0
  6
Continuous
 62
     7
370
    25
100
AcDbSpline
210
0.0
220
0.0
230
1.0
 70
     8
 71
     3
 72
    10
 73
     6
 74
     0
 42
0.00000001
 43
0.00000001
 40
0.0
 40
0.0
 40
0.0
 40
0.0
 40
0.5
 40
0.5
 40
1.0
 40
1.0
 40
1.0
 40
1.0
 10
-0.0295275595172312
 20
-0.0000000000000001
 30
0.0
 10
-0.0295275595172312
 20
0.007830973977846
 30
0.0
 10
-0.0264164724912444
 20
0.0153418025523624
 30
0.0
 10
-0.0153418029713629
 20
0.0264164722446024
 30
0.0
 10
-0.0078309744452653
 20
0.0295275593874825
 30
0.0
 10
-0.0000000004674192
 20
0.0295275595093584
 30
0.0
  0
SPLINE
  5
14F
330
133
100
AcDbEntity
  8
0
  6
Continuous
 62
     7
370
    25
100
AcDbSpline
210
0.0
220
0.0
230
1.0
 70
     8
 71
     3
 72
    10
 73
     6
 74
     0
 42
0.00000001
 43
0.00000001
 40
0.0
 40
0.0
 40
0.0
 40
0.0
 40
0.4999999999999999
 40
0.4999999999999999
 40
1.0
 40
1.0
 40
1.0
 40
1.0
 10
0.2259433479921273
 20
-0.2505496469905343
 30
0.0
 10
0.2259433479946377
 20
-0.2440238354361387
 30
0.0
 10
0.2285359205063017
 20
-0.2377648117203359
 30
0.0
 10
0.2377648117119013
 20
-0.2285359205145008
 30
0.0
 10
0.2440238354276379
 20
-0.225943348002677
 30
0.0
 10
0.2505496469820336
 20
-0.2259433480000001
 30
0.0
  0
SPLINE
  5
150
330
133
100
AcDbEntity
  8
0
  6
Continuous
 62
     7
370
    25
100
AcDbSpline
210
0.0
220
0.0
230
1.0
 70
     8
 71
     3
 72
    10
 73
     6
 74
     0
 42
0.00000001
 43
0.00000001
 40
0.0
 40
0.0
 40
0.0
 40
0.0
 40
0.5
 40
0.5
 40
1.0
 40
1.0
 40
1.0
 40
1.0
 10
0.2505496469877083
 20
-0.2751559460000001
 30
0.0
 10
0.2440238354290398
 20
-0.2751559459988281
 30
0.0
 10
0.2377648117089926
 20
-0.2725633734850768
 30
0.0
 10
0.2285359204998364
 20
-0.2633344822707129
 30
0.0
 10
0.2259433479896168
 20
-0.2570754585492028
 30
0.0
 10
0.2259433479921273
 20
-0.2505496469905343
 30
0.0
  0
SPLINE
  5
151
330
133
100
AcDbEntity
  8
0
  6
Continuous
 62
     7
370
    25
100
AcDbSpline
210
0.0
220
0.0
230
1.0
 70
     8
 71
     3
 72
    10
 73
     6
 74
     0
 42
0.00000001
 43
0.00000001
 40
0.0
 40
0.0
 40
0.0
 40
0.0
 40
0.4999999999999999
 40
0.4999999999999999
 40
1.0
 40
1.0
 40
1.0
 40
1.0
 10
-0.0000000000078728
 20
-0.0295275595093585
 30
0.0
 10
-0.0078309739857189
 20
-0.0295275595093585
 30
0.0
 10
-0.0153418025602353
 20
-0.0264164724833717
 30
0.0
 10
-0.0264164722524752
 20
-0.0153418029634902
 30
0.0
 10
-0.0295275593953554
 20
-0.0078309744373926
 30
0.0
 10
-0.0295275595172312
 20
-0.0000000004595465
 30
0.0
  0
SPLINE
  5
152
330
133
100
AcDbEntity
  8
0
  6
Continuous
 62
     7
370
    25
100
AcDbSpline
210
0.0
220
0.0
230
1.0
 70
     8
 71
     3
 72
    10
 73
     6
 74
     0
 42
0.00000001
 43
0.00000001
 40
0.0
 40
0.0
 40
0.0
 40
0.0
 40
0.5
 40
0.5
 40
1.0
 40
1.0
 40
1.0
 40
1.0
 10
0.0295275595014856
 20
0.0000000000000001
 30
0.0
 10
0.0295275595014857
 20
-0.007830973977846
 30
0.0
 10
0.026416472475499
 20
-0.0153418025523623
 30
0.0
 10
0.0153418029556177
 20
-0.0264164722446023
 30
0.0
 10
0.0078309744295202
 20
-0.0295275593874825
 30
0.0
 10
0.0000000004516742
 20
-0.0295275595093585
 30
0.0
  0
SPLINE
  5
153
330
133
100
AcDbEntity
  8
0
  6
Continuous
 62
     7
370
    25
100
AcDbSpline
210
0.0
220
0.0
230
1.0
 70
     8
 71
     3
 72
    14
 73
    10
 74
     0
 42
0.00000001
 43
0.00000001
 40
0.0
 40
0.0
 40
0.0
 40
0.0
 40
0.25
 40
0.25
 40
0.5
 40
0.5
 40
0.75
 40
0.75
 40
1.0
 40
1.0
 40
1.0
 40
1.0
 10
0.2505496469877083
 20
0.2259433479999999
 30
0.0
 10
0.2440238354311809
 20
0.2259433480011719
 30
0.0
 10
0.237764811712982
 20
0.228535920513241
 30
0.0
 10
0.2285359205045466
 20
0.2377648117222697
 30
0.0
 10
0.2259433479928797
 20
0.2440238354406353
 30
0.0
 10
0.2259433479913747
 20
0.25707545855369
 30
0.0
 10
0.2285359205015981
 20
0.2633344822726534
 30
0.0
 10
0.2377648117079052
 20
0.2725633734838104
 30
0.0
 10
0.2440238354255062
 20
0.2751559459973231
 30
0.0
 10
0.2505496469820336
 20
0.275155946
 30
0.0
  0
SPLINE
  5
154
330
133
100
AcDbEntity
  8
0
  6
Continuous
 62
     7
370
    25
100
AcDbSpline
210
0.0
220
0.0
230
1.0
 70
     8
 71
     3
 72
    12
 73
     8
 74
     0
 42
0.00000001
 43
0.00000001
 40
0.0
 40
0.0
 40
0.0
 40
0.0
 40
0.3333333333333332
 40
0.3333333333333332
 40
0.6666666666666665
 40
0.6666666666666665
 40
0.9999999999999999
 40
0.9999999999999999
 40
0.9999999999999999
 40
0.9999999999999999
 10
-0.2505496470179664
 20
-0.2259433480000001
 30
0.0
 10
-0.2417599465385984
 20
-0.2259433479963945
 30
0.0
 10
-0.2336348172258874
 20
-0.2306343935885854
 30
0.0
 10
-0.224845116742356
 20
-0.2458586013997596
 30
0.0
 10
-0.2248451167404317
 20
-0.2552406925896964
 30
0.0
 10
-0.2336348172177181
 20
-0.2704649004044762
 30
0.0
 10
-0.2417599465285048
 20
-0.2751559460000001
 30
0.0
 10
-0.2505496470078728
 20
-0.2751559460000001
 30
0.0
  0
SPLINE
  5
155
330
133
100
AcDbEntity
  8
0
  6
Continuous
 62
     7
370
    25
100
AcDbSpline
210
0.0
220
0.0
230
1.0
 70
     8
 71
     3
 72
    14
 73
    10
 74
     0
 42
0.00000001
 43
0.00000001
 40
0.0
 40
0.0
 40
0.0
 40
0.0
 40
0.25
 40
0.25
 40
0.5
 40
0.5
 40
0.75
 40
0.75
 40
1.0
 40
1.0
 40
1.0
 40
1.0
 10
-0.2505496470122918
 20
-0.2751559460000001
 30
0.0
 10
-0.2570754585688191
 20
-0.2751559459988281
 30
0.0
 10
-0.263334482287018
 20
-0.272563373486759
 30
0.0
 10
-0.2725633734954535
 20
-0.2633344822777304
 30
0.0
 10
-0.2751559460071203
 20
-0.2570754585593648
 30
0.0
 10
-0.2751559460086253
 20
-0.2440238354463101
 30
0.0
 10
-0.2725633734984019
 20
-0.2377648117273466
 30
0.0
 10
-0.2633344822920948
 20
-0.2285359205161897
 30
0.0
 10
-0.2570754585744938
 20
-0.225943348002677
 30
0.0
 10
-0.2505496470179664
 20
-0.2259433480000001
 30
0.0
  0
SPLINE
  5
156
330
133
100
AcDbEntity
  8
0
  6
Continuous
 62
     7
370
    25
100
AcDbSpline
210
0.0
220
0.0
230
1.0
 70
     8
 71
     3
 72
    10
 73
     6
 74
     0
 42
0.00000001
 43
0.00000001
 40
0.0
 40
0.0
 40
0.0
 40
0.0
 40
0.4999999999999999
 40
0.4999999999999999
 40
1.0
 40
1.0
 40
1.0
 40
1.0
 10
-0.2751559460078729
 20
0.2505496470094657
 30
0.0
 10
-0.2751559460053624
 20
0.2570754585638614
 30
0.0
 10
-0.2725633734936984
 20
0.2633344822796642
 30
0.0
 10
-0.2633344822880987
 20
0.2725633734854993
 30
0.0
 10
-0.2570754585723621
 20
0.2751559459973231
 30
0.0
 10
-0.2505496470179664
 20
0.275155946
 30
0.0
  0
SPLINE
  5
157
330
133
100
AcDbEntity
  8
0
  6
Continuous
 62
     7
370
    25
100
AcDbSpline
210
0.0
220
0.0
230
1.0
 70
     8
 71
     3
 72
    10
 73
     6
 74
     0
 42
0.00000001
 43
0.00000001
 40
0.0
 40
0.0
 40
0.0
 40
0.0
 40
0.5
 40
0.5
 40
1.0
 40
1.0
 40
1.0
 40
1.0
 10
-0.2505496470122918
 20
0.2259433479999999
 30
0.0
 10
-0.2570754585709603
 20
0.2259433480011719
 30
0.0
 10
-0.2633344822910075
 20
0.2285359205149232
 30
0.0
 10
-0.2725633735001637
 20
0.2377648117292871
 30
0.0
 10
-0.2751559460103832
 20
0.2440238354507973
 30
0.0
 10
-0.2751559460078729
 20
0.2505496470094657
 30
0.0
  0
SPLINE
  5
158
330
133
100
AcDbEntity
  8
0
  6
Continuous
 62
     7
370
    25
100
AcDbSpline
210
0.0
220
0.0
230
1.0
 70
     8
 71
     3
 72
    10
 73
     6
 74
     0
 42
0.00000001
 43
0.00000001
 40
0.0
 40
0.0
 40
0.0
 40
0.0
 40
0.5000000000000002
 40
0.5000000000000002
 40
0.9999999999999999
 40
0.9999999999999999
 40
0.9999999999999999
 40
0.9999999999999999
 10
-0.2259433480078728
 20
0.2505496470050468
 30
0.0
 10
-0.2259433480065343
 20
0.2440238354463783
 30
0.0
 10
-0.2285359205178779
 20
0.2377648117253338
 30
0.0
 10
-0.2377648117286915
 20
0.2285359205126272
 30
0.0
 10
-0.2440238354492043
 20
0.2259433479999999
 30
0.0
 10
-0.2505496470078728
 20
0.2259433479999999
 30
0.0
  0
SPLINE
  5
159
330
133
100
AcDbEntity
  8
0
  6
Continuous
 62
     7
370
    25
100
AcDbSpline
210
0.0
220
0.0
230
1.0
 70
     8
 71
     3
 72
    10
 73
     6
 74
     0
 42
0.00000001
 43
0.00000001
 40
0.0
 40
0.0
 40
0.0
 40
0.0
 40
0.5000000000000001
 40
0.5000000000000001
 40
0.9999999999999999
 40
0.9999999999999999
 40
0.9999999999999999
 40
0.9999999999999999
 10
-0.2505496470179664
 20
0.275155946
 30
0.0
 10
-0.244023835459298
 20
0.2751559460026769
 30
0.0
 10
-0.2377648117377217
 20
0.2725633734926171
 30
0.0
 10
-0.2285359205231223
 20
0.2633344822836964
 30
0.0
 10
-0.2259433480092113
 20
0.2570754585637153
 30
0.0
 10
-0.2259433480078728
 20
0.2505496470050468
 30
0.0
  0
SPLINE
  5
15A
330
133
100
AcDbEntity
  8
0
  6
Continuous
 62
     7
370
    25
100
AcDbSpline
210
0.0
220
0.0
230
1.0
 70
     8
 71
     3
 72
    12
 73
     8
 74
     0
 42
0.00000001
 43
0.00000001
 40
0.0
 40
0.0
 40
0.0
 40
0.0
 40
0.3333333333333332
 40
0.3333333333333332
 40
0.6666666666666665
 40
0.6666666666666665
 40
0.9999999999999999
 40
0.9999999999999999
 40
0.9999999999999999
 40
0.9999999999999999
 10
0.2505496469820336
 20
0.275155946
 30
0.0
 10
0.2593393474614016
 20
0.2751559460036056
 30
0.0
 10
0.2674644767741127
 20
0.2704649004114147
 30
0.0
 10
0.2762541772576441
 20
0.2552406926002405
 30
0.0
 10
0.2762541772595684
 20
0.2458586014103036
 30
0.0
 10
0.267464476782282
 20
0.2306343935955238
 30
0.0
 10
0.2593393474714953
 20
0.2259433479999999
 30
0.0
 10
0.2505496469921272
 20
0.2259433479999999
 30
0.0
  0
SPLINE
  5
15B
330
133
100
AcDbEntity
  8
0
  6
Continuous
 62
     7
370
    25
100
AcDbSpline
210
0.0
220
0.0
230
1.0
 70
     8
 71
     3
 72
    10
 73
     6
 74
     0
 42
0.00000001
 43
0.00000001
 40
0.0
 40
0.0
 40
0.0
 40
0.0
 40
0.5000000000000002
 40
0.5000000000000002
 40
0.9999999999999999
 40
0.9999999999999999
 40
0.9999999999999999
 40
0.9999999999999999
 10
0.2751559459921272
 20
-0.2505496469949532
 30
0.0
 10
0.2751559459934657
 20
-0.2570754585536217
 30
0.0
 10
0.2725633734821221
 20
-0.2633344822746663
 30
0.0
 10
0.2633344822713085
 20
-0.2725633734873728
 30
0.0
 10
0.2570754585507957
 20
-0.2751559460000001
 30
0.0
 10
0.2505496469921272
 20
-0.2751559460000001
 30
0.0
  0
SPLINE
  5
15C
330
133
100
AcDbEntity
  8
0
  6
Continuous
 62
     7
370
    25
100
AcDbSpline
210
0.0
220
0.0
230
1.0
 70
     8
 71
     3
 72
    10
 73
     6
 74
     0
 42
0.00000001
 43
0.00000001
 40
0.0
 40
0.0
 40
0.0
 40
0.0
 40
0.5000000000000001
 40
0.5000000000000001
 40
0.9999999999999999
 40
0.9999999999999999
 40
0.9999999999999999
 40
0.9999999999999999
 10
0.2505496469820336
 20
-0.2259433480000001
 30
0.0
 10
0.257075458540702
 20
-0.2259433479973232
 30
0.0
 10
0.2633344822622783
 20
-0.228535920507383
 30
0.0
 10
0.2725633734768777
 20
-0.2377648117163037
 30
0.0
 10
0.2751559459907888
 20
-0.2440238354362848
 30
0.0
 10
0.2751559459921272
 20
-0.2505496469949532
 30
0.0
  0
SPLINE
  5
160
330
133
100
AcDbEntity
  8
0
  6
Continuous
 62
     7
370
    25
100
AcDbSpline
210
0.0
220
0.0
230
1.0
 70
     8
 71
     3
 72
     8
 73
     4
 74
     0
 42
0.00000001
 43
0.00000001
 40
0.0
 40
0.0
 40
0.0
 40
0.0
 40
1.0
 40
1.0
 40
1.0
 40
1.0
 10
-0.2411332240478058
 20
0.2278163909834386
 30
0.0
 10
-0.2441185903967716
 20
0.2265798117528992
 30
0.0
 10
-0.2473183097538444
 20
0.2259433480003725
 30
0.0
 10
-0.2505496470050361
 20
0.2259433479999999
 30
0.0
  0
SPLINE
  5
166
330
133
100
AcDbEntity
  8
0
  6
Continuous
 62
     7
370
    25
100
AcDbSpline
210
0.0
220
0.0
230
1.0
 70
     8
 71
     3
 72
     8
 73
     4
 74
     0
 42
0.00000001
 43
0.00000001
 40
0.0
 40
0.0
 40
0.0
 40
0.0
 40
1.0
 40
1.0
 40
1.0
 40
1.0
 10
0.2732829030070889
 20
-0.2411332240360708
 30
0.0
 10
0.2745194822377391
 20
-0.2441185903838699
 30
0.0
 10
0.2751559459908017
 20
-0.2473183097397502
 30
0.0
 10
0.2751559459921273
 20
-0.2505496469899064
 30
0.0
  0
SPLINE
  5
167
330
133
100
AcDbEntity
  8
0
  6
Continuous
 62
     7
370
    25
100
AcDbSpline
210
0.0
220
0.0
230
1.0
 70
     8
 71
     3
 72
    14
 73
    10
 74
     0
 42
0.00000001
 43
0.00000001
 40
0.0
 40
0.0
 40
0.0
 40
0.0
 40
0.25
 40
0.25
 40
0.5
 40
0.5
 40
0.75
 40
0.75
 40
1.0
 40
1.0
 40
1.0
 40
1.0
 10
-0.0000000000131755
 20
-0.0295275590000001
 30
0.0
 10
-0.0078309739340501
 20
-0.0295275589985937
 30
0.0
 10
-0.0153418024467622
 20
-0.0264164719630383
 30
0.0
 10
-0.0264164719718972
 20
-0.0153418024371915
 30
0.0
 10
-0.0295275590069698
 20
-0.0078309739242795
 30
0.0
 10
-0.0295275590087757
 20
0.0078309739174697
 30
0.0
 10
-0.0264164719754353
 20
0.0153418024310992
 30
0.0
 10
-0.0153418024528543
 20
0.0264164719595001
 30
0.0
 10
-0.0078309739408598
 20
0.0295275589967876
 30
0.0
 10
-0.0000000000199851
 20
0.0295275589999999
 30
0.0
  0
LINE
  5
168
330
133
100
AcDbEntity
  8
0
  6
Continuous
 62
     7
370
    25
100
AcDbLine
 10
0.964566929
 20
0.4724409444
 30
0.0
 11
0.964566929
 21
-0.4724409444
 31
0.0
  0
LINE
  5
169
330
133
100
AcDbEntity
  8
0
  6
Continuous
 62
     7
370
    25
100
AcDbLine
 10
-0.964566929
 20
-0.472440945
 30
0.0
 11
0.964566929
 21
-0.472440945
 31
0.0
  0
LINE
  5
16A
330
133
100
AcDbEntity
  8
0
  6
Continuous
 62
     7
370
    25
100
AcDbLine
 10
-0.964566929
 20
0.472440945
 30
0.0
 11
-0.964566929
 21
-0.472440945
 31
0.0
  0
LINE
  5
16B
330
133
100
AcDbEntity
  8
0
  6
Continuous
 62
     7
370
    25
100
AcDbLine
 10
0.964566929
 20
0.472440945
 30
0.0
 11
-0.964566929
 21
0.472440945
 31
0.0
  0
LINE
  5
16C
330
133
100
AcDbEntity
  8
0
  6
Continuous
 62
     7
370
    25
100
AcDbLine
 10
0.984251969
 20
0.4921259839
 30
0.0
 11
0.964566929
 21
0.4724409444
 31
0.0
  0
LINE
  5
16D
330
133
100
AcDbEntity
  8
0
  6
Continuous
 62
     7
370
    25
100
AcDbLine
 10
0.984251969
 20
-0.4921259839
 30
0.0
 11
0.984251969
 21
0.4921259839
 31
0.0
  0
LINE
  5
16E
330
133
100
AcDbEntity
  8
0
  6
Continuous
 62
     7
370
    25
100
AcDbLine
 10
0.964566929
 20
-0.4724409444
 30
0.0
 11
0.984251969
 21
-0.4921259839
 31
0.0
  0
LINE
  5
16F
330
133
100
AcDbEntity
  8
0
  6
Continuous
 62
     7
370
    25
100
AcDbLine
 10
-0.9645669284
 20
-0.472440945
 30
0.0
 11
-0.9842519679
 21
-0.492125984
 31
0.0
  0
LINE
  5
170
330
133
100
AcDbEntity
  8
0
  6
Continuous
 62
     7
370
    25
100
AcDbLine
 10
-0.984251969
 20
-0.492125984
 30
0.0
 11
-0.984251969
 21
0.492125984
 31
0.0
  0
LINE
  5
171
330
133
100
AcDbEntity
  8
0
  6
Continuous
 62
     7
370
    25
100
AcDbLine
 10
-0.9842519679
 20
0.492125984
 30
0.0
 11
-0.9645669284
 21
0.472440945
 31
0.0
  0
LINE
  5
172
330
133
100
AcDbEntity
  8
0
  6
Continuous
 62
     7
370
    25
100
AcDbLine
 10
-0.984251969
 20
0.492125984
 30
0.0
 11
0.984251969
 21
0.492125984
 31
0.0
  0
LINE
  5
173
330
133
100
AcDbEntity
  8
0
  6
Continuous
 62
     7
370
    25
100
AcDbLine
 10
0.984251969
 20
-0.492125984
 30
0.0
 11
-0.984251969
 21
-0.492125984
 31
0.0
  0
LINE
  5
174
330
133
100
AcDbEntity
  8
0
  6
Continuous
 62
     7
370
    25
100
AcDbLine
 10
-0.275155946
 20
0.250549647
 30
0.0
 11
-0.2740446783
 21
0.2561363671
 31
0.0
  0
LINE
  5
175
330
133
100
AcDbEntity
  8
0
  6
Continuous
 62
     7
370
    25
100
AcDbLine
 10
-0.2268798597
 20
0.2552578092
 30
0.0
 11
-0.225943348
 21
0.250549647
 31
0.0
  0
LINE
  5
176
330
133
100
AcDbEntity
  8
0
  6
Continuous
 62
     7
370
    25
100
AcDbLine
 10
-0.225943348
 20
0.250549647
 30
0.0
 11
-0.2270615341
 21
0.244928146
 31
0.0
  0
LINE
  5
177
330
133
100
AcDbEntity
  8
0
  6
Continuous
 62
     7
370
    25
100
AcDbLine
 10
-0.2741395099
 20
0.2454396777
 30
0.0
 11
-0.275155946
 21
0.250549647
 31
0.0
  0
LINE
  5
178
330
133
100
AcDbEntity
  8
0
  6
Continuous
 62
     7
370
    25
100
AcDbLine
 10
0.225943348
 20
-0.250549647
 30
0.0
 11
0.2272903058
 21
-0.2437780327
 31
0.0
  0
LINE
  5
179
330
133
100
AcDbEntity
  8
0
  6
Continuous
 62
     7
370
    25
100
AcDbLine
 10
0.2738089291
 20
-0.2437777356
 30
0.0
 11
0.275155946
 21
-0.250549647
 31
0.0
  0
LINE
  5
17A
330
133
100
AcDbEntity
  8
0
  6
Continuous
 62
     7
370
    25
100
AcDbLine
 10
0.275155946
 20
-0.250549647
 30
0.0
 11
0.2742194324
 21
-0.255257819
 31
0.0
  0
LINE
  5
17B
330
133
100
AcDbEntity
  8
0
  6
Continuous
 62
     7
370
    25
100
AcDbLine
 10
0.2268798729
 20
-0.2552578758
 30
0.0
 11
0.225943348
 21
-0.250549647
 31
0.0
  0
VIEWPORT
  5
2CA
330
133
100
AcDbEntity
  8
0
100
AcDbViewport
 10
0.0
 20
0.0
 30
0.0
 40
8.4
 41
6.4
 68
     1
 69
     1
 12
0.0
 22
-0.0157640079
 13
0.0
 23
0.0
 14
0.5
 24
0.5
 15
0.5
 25
0.5
 16
0.0
 26
0.0
 36
1.0
 17
0.0
 27
0.0
 37
0.0
 42
50.0
 43
0.0
 44
0.0
 45
1.7099679532
 50
0.0
 51
0.0
 72
   100
 90
   557152
  1

281
     0
 71
     1
 74
     0
110
0.0
120
0.0
130
0.0
111
1.0
121
0.0
131
0.0
112
0.0
122
1.0
132
0.0
 79
     0
146
0.0
  0
ENDBLK
  5
136
330
133
100
AcDbEntity
  8
0
100
AcDbBlockEnd
  0
BLOCK
  5
17E
330
17C
100
AcDbEntity
  8
0
100
AcDbBlockBegin
  2
*Paper_Space4
 70
     0
 10
0.0
 20
0.0
 30
0.0
  3
*Paper_Space4
  1

  0
SPLINE
  5
184
330
17C
100
AcDbEntity
  8
0
  6
Continuous
 62
     7
370
    25
100
AcDbSpline
210
0.0
220
0.0
230
1.0
 70
     8
 71
     3
 72
    10
 73
     6
 74
     0
 42
0.00000001
 43
0.00000001
 40
0.0
 40
0.0
 40
0.0
 40
0.0
 40
0.5
 40
0.5
 40
1.0
 40
1.0
 40
1.0
 40
1.0
 10
0.6679980309921272
 20
0.146125984006153
 30
0.0
 10
0.6679980309904954
 20
0.1540822535272238
 30
0.0
 10
0.6648371665542252
 20
0.1617132553125565
 30
0.0
 10
0.6535853022881696
 20
0.1729651195716888
 30
0.0
 10
0.6459543005008919
 20
0.1761259840032637
 30
0.0
 10
0.6379980309798211
 20
0.1761259839999999
 30
0.0
  0
SPLINE
  5
186
330
17C
100
AcDbEntity
  8
0
  6
Continuous
 62
     7
370
    25
100
AcDbSpline
210
0.0
220
0.0
230
1.0
 70
     8
 71
     3
 72
    17
 73
    13
 74
     0
 42
0.00000001
 43
0.00000001
 40
0.0
 40
0.0
 40
0.0
 40
0.0
 40
0.0628623978763286
 40
0.1251135571606823
 40
0.1873647167892392
 40
0.2502271156881361
 40
0.3751892635068199
 40
0.5001514122595533
 40
0.6251135691681566
 40
0.750075715975347
 40
0.8750378580844085
 40
1.0
 40
1.0
 40
1.0
 40
1.0
 10
-0.6680019686358728
 20
0.1461259843179443
 30
0.0
 10
-0.6679748753237058
 20
0.1471126524914086
 30
0.0
 10
-0.6679209521394975
 20
0.1490763950320957
 30
0.0
 10
-0.6674756944946594
 20
0.1519892776068764
 30
0.0
 10
-0.6667617858949643
 20
0.1548450817451902
 30
0.0
 10
-0.6654320564945696
 20
0.1585418021490249
 30
0.0
 10
-0.6631161562708101
 20
0.1629078854168987
 30
0.0
 10
-0.6593480408375583
 20
0.167470854908739
 30
0.0
 10
-0.6547827132252722
 20
0.1712438191074272
 30
0.0
 10
-0.6495543842264151
 20
0.1740024742053619
 30
0.0
 10
-0.6438945825136865
 20
0.1758005068538634
 30
0.0
 10
-0.639966174020797
 20
0.1760174919766233
 30
0.0
 10
-0.6380019697758729
 20
0.1761259845379194
 30
0.0
  0
SPLINE
  5
188
330
17C
100
AcDbEntity
  8
0
  6
Continuous
 62
     7
370
    25
100
AcDbSpline
210
0.0
220
0.0
230
1.0
 70
     8
 71
     3
 72
    10
 73
     6
 74
     0
 42
0.00000001
 43
0.00000001
 40
0.0
 40
0.0
 40
0.0
 40
0.0
 40
0.5000000000000003
 40
0.5000000000000003
 40
1.0
 40
1.0
 40
1.0
 40
1.0
 10
-0.6680019690078728
 20
-0.1458740159884594
 30
0.0
 10
-0.6680019690109336
 20
-0.1538302855095302
 30
0.0
 10
-0.664841104579164
 20
-0.1614612872967272
 30
0.0
 10
-0.6535892403197447
 20
-0.1727131515624958
 30
0.0
 10
-0.6459582385343313
 20
-0.1758740159985712
 30
0.0
 10
-0.6380019690132605
 20
-0.1758740160000001
 30
0.0
  0
SPLINE
  5
18A
330
17C
100
AcDbEntity
  8
0
  6
Continuous
 62
     7
370
    25
100
AcDbSpline
210
0.0
220
0.0
230
1.0
 70
     8
 71
     3
 72
    10
 73
     6
 74
     0
 42
0.00000001
 43
0.00000001
 40
0.0
 40
0.0
 40
0.0
 40
0.0
 40
0.5
 40
0.5
 40
1.0
 40
1.0
 40
1.0
 40
1.0
 10
0.6379980309921273
 20
-0.1758740160000001
 30
0.0
 10
0.645954300513198
 20
-0.1758740160000001
 30
0.0
 10
0.6535853022991792
 20
-0.172713151565295
 30
0.0
 10
0.6648371665606192
 20
-0.1614612873015471
 30
0.0
 10
0.6679980309937591
 20
-0.1538302855149177
 30
0.0
 10
0.6679980309921272
 20
-0.145874015993847
 30
0.0
  0
SPLINE
  5
190
330
17C
100
AcDbEntity
  8
0
  6
Continuous
 62
     7
370
    25
100
AcDbSpline
210
0.0
220
0.0
230
1.0
 70
     8
 71
     3
 72
    10
 73
     6
 74
     0
 42
0.00000001
 43
0.00000001
 40
0.0
 40
0.0
 40
0.0
 40
0.0
 40
0.5
 40
0.5
 40
1.0
 40
1.0
 40
1.0
 40
1.0
 10
-0.5032519690258315
 20
0.1108740159999999
 30
0.0
 10
-0.5297728674294007
 20
0.1108740159952371
 30
0.0
 10
-0.5552095400474454
 20
0.1003378012083188
 30
0.0
 10
-0.59271575424551
 20
0.0628315869890902
 30
0.0
 10
-0.6032519690180751
 20
0.0373949143651002
 30
0.0
 10
-0.6032519690078728
 20
0.010874015961531
 30
0.0
  0
SPLINE
  5
192
330
17C
100
AcDbEntity
  8
0
  6
Continuous
 62
     7
370
    25
100
AcDbSpline
210
0.0
220
0.0
230
1.0
 70
     8
 71
     3
 72
    10
 73
     6
 74
     0
 42
0.00000001
 43
0.00000001
 40
0.0
 40
0.0
 40
0.0
 40
0.0
 40
0.4999999999999999
 40
0.4999999999999999
 40
1.0
 40
1.0
 40
1.0
 40
1.0
 10
-0.6032519690078728
 20
-0.0111259840384691
 30
0.0
 10
-0.6032519689976705
 20
-0.0376468824246735
 30
0.0
 10
-0.5927157542192351
 20
-0.0630835550254689
 30
0.0
 10
-0.5552095400356244
 20
-0.1005897692100364
 30
0.0
 10
-0.5297728674350979
 20
-0.111125983989121
 30
0.0
 10
-0.5032519690488935
 20
-0.1111259840000001
 30
0.0
  0
SPLINE
  5
194
330
17C
100
AcDbEntity
  8
0
  6
Continuous
 62
     7
370
    25
100
AcDbSpline
210
0.0
220
0.0
230
1.0
 70
     8
 71
     3
 72
    10
 73
     6
 74
     0
 42
0.00000001
 43
0.00000001
 40
0.0
 40
0.0
 40
0.0
 40
0.0
 40
0.4999999999999998
 40
0.4999999999999998
 40
1.0
 40
1.0
 40
1.0
 40
1.0
 10
0.5027480309511065
 20
-0.1111259840000001
 30
0.0
 10
0.5292689293546758
 20
-0.1111259840108791
 30
0.0
 10
0.5547056019789347
 20
-0.1005897692389632
 30
0.0
 10
0.5922118161991202
 20
-0.0630835550418555
 30
0.0
 10
0.6027480309866877
 20
-0.0376468824240797
 30
0.0
 10
0.6027480309921273
 20
-0.0111259840205104
 30
0.0
  0
SPLINE
  5
196
330
17C
100
AcDbEntity
  8
0
  6
Continuous
 62
     7
370
    25
100
AcDbSpline
210
0.0
220
0.0
230
1.0
 70
     8
 71
     3
 72
    10
 73
     6
 74
     0
 42
0.00000001
 43
0.00000001
 40
0.0
 40
0.0
 40
0.0
 40
0.0
 40
0.5
 40
0.5
 40
1.0
 40
1.0
 40
1.0
 40
1.0
 10
0.6027480309921273
 20
0.0108740159794896
 30
0.0
 10
0.6027480309975668
 20
0.0373949143830588
 30
0.0
 10
0.5922118162204336
 20
0.0628315870051567
 30
0.0
 10
0.5547056020156333
 20
0.1003378012176496
 30
0.0
 10
0.5292689293956965
 20
0.1108740159999999
 30
0.0
 10
0.5027480309921273
 20
0.1108740159999999
 30
0.0
  0
SPLINE
  5
198
330
17C
100
AcDbEntity
  8
0
  6
Continuous
 62
     7
370
    25
100
AcDbSpline
210
0.0
220
0.0
230
1.0
 70
     8
 71
     3
 72
    14
 73
    10
 74
     0
 42
0.00000001
 43
0.00000001
 40
0.0
 40
0.0
 40
0.0
 40
0.0
 40
0.2500000000000001
 40
0.2500000000000001
 40
0.4999999999999999
 40
0.4999999999999999
 40
0.75
 40
0.75
 40
1.0
 40
1.0
 40
1.0
 40
1.0
 10
0.3844063819719399
 20
0.0492125979999999
 30
0.0
 10
0.3713547588588852
 20
0.0492125979946461
 30
0.0
 10
0.3588367114236832
 20
0.0440274529676209
 30
0.0
 10
0.3403789290110691
 20
0.0255696705453068
 30
0.0
 10
0.3351937839906223
 20
0.0130516231073799
 30
0.0
 10
0.3351937839936323
 20
-0.0130516231187295
 30
0.0
 10
0.3403789290169659
 20
-0.0255696705554606
 30
0.0
 10
0.3588367114338368
 20
-0.0440274529735179
 30
0.0
 10
0.3713547588702347
 20
-0.0492125979976562
 30
0.0
 10
0.3844063819832894
 20
-0.0492125980000001
 30
0.0
  0
SPLINE
  5
199
330
17C
100
AcDbEntity
  8
0
  6
Continuous
 62
     7
370
    25
100
AcDbSpline
210
0.0
220
0.0
230
1.0
 70
     8
 71
     3
 72
    28
 73
    24
 74
     0
 42
0.00000001
 43
0.00000001
 40
0.0
 40
0.0
 40
0.0
 40
0.0
 40
0.0208715797949663
 40
0.0416983131921938
 40
0.0625698951214485
 40
0.0938478479608048
 40
0.1251258010412404
 40
0.1876060028715063
 40
0.2500862002056021
 40
0.3125663990896394
 40
0.3750465950224233
 40
0.4375267925918538
 40
0.5000069890655351
 40
0.5624871869700553
 40
0.6249673831636331
 40
0.6874475803644101
 40
0.7499277792484474
 40
0.8124079765825433
 40
0.8748881777350528
 40
0.9061661311788828
 40
0.9374440841055364
 40
0.9687220432544353
 40
1.0
 40
1.0
 40
1.0
 40
1.0
 10
0.3844063813281274
 20
0.0492125986959999
 30
0.0
 10
0.3854808092642381
 20
0.0491924538210502
 30
0.0
 10
0.3876273565319822
 20
0.0491522073560905
 30
0.0
 10
0.3908346355168784
 20
0.0488244988320296
 30
0.0
 10
0.3945426608707642
 20
0.0482149537025971
 30
0.0
 10
0.3987156578007334
 20
0.0471697345600365
 30
0.0
 10
0.4047824325927333
 20
0.0449982669799957
 30
0.0
 10
0.4119249182688966
 20
0.0411823522187638
 30
0.0
 10
0.4194289301689856
 20
0.0350229336400545
 30
0.0
 10
0.425589020986392
 20
0.0275172867234549
 30
0.0
 10
0.4301659558854207
 20
0.0189542503467981
 30
0.0
 10
0.4329845177021577
 20
0.0096627900168528
 30
0.0
 10
0.4339362101454464
 20
0.0000000007507128
 30
0.0
 10
0.4329845176639446
 20
-0.0096627913873464
 30
0.0
 10
0.4301659561815805
 20
-0.0189542429754714
 30
0.0
 10
0.4255890195480351
 20
-0.0275173115146453
 30
0.0
 10
0.4194289358159135
 20
-0.035022838910947
 30
0.0
 10
0.4119248971883469
 20
-0.0411827035949574
 30
0.0
 10
0.4047824947944517
 20
-0.0449972305700157
 30
0.0
 10
0.3987155497705099
 20
-0.0471715302405982
 30
0.0
 10
0.3940225520733103
 20
-0.0483384736616137
 30
0.0
 10
0.3892379403457716
 20
-0.0490765270137419
 30
0.0
 10
0.3860169009594257
 20
-0.0491672411724091
 30
0.0
 10
0.3844063813281273
 20
-0.0492125982500001
 30
0.0
  0
LINE
  5
19A
330
17C
100
AcDbEntity
  8
0
  6
Continuous
 62
     7
370
    25
100
AcDbLine
 10
-0.962001969
 20
-0.470125984
 30
0.0
 11
0.961998031
 21
-0.470125984
 31
0.0
  0
LINE
  5
19B
330
17C
100
AcDbEntity
  8
0
  6
Continuous
 62
     7
370
    25
100
AcDbLine
 10
-0.962001969
 20
0.469622047
 30
0.0
 11
-0.962001969
 21
-0.470125984
 31
0.0
  0
LINE
  5
19C
330
17C
100
AcDbEntity
  8
0
  6
Continuous
 62
     7
370
    25
100
AcDbLine
 10
0.961998031
 20
0.469622047
 30
0.0
 11
-0.962001969
 21
0.469622047
 31
0.0
  0
LINE
  5
19D
330
17C
100
AcDbEntity
  8
0
  6
Continuous
 62
     7
370
    25
100
AcDbLine
 10
0.961998031
 20
-0.470125984
 30
0.0
 11
0.961998031
 21
0.469622047
 31
0.0
  0
LINE
  5
19E
330
17C
100
AcDbEntity
  8
0
  6
Continuous
 62
     7
370
    25
100
AcDbLine
 10
0.637998031
 20
0.176125984
 30
0.0
 11
-0.638001969
 21
0.176125984
 31
0.0
  0
LINE
  5
19F
330
17C
100
AcDbEntity
  8
0
  6
Continuous
 62
     7
370
    25
100
AcDbLine
 10
-0.668001969
 20
0.146125984
 30
0.0
 11
-0.668001969
 21
-0.145874016
 31
0.0
  0
LINE
  5
1A0
330
17C
100
AcDbEntity
  8
0
  6
Continuous
 62
     7
370
    25
100
AcDbLine
 10
-0.638001969
 20
-0.175874016
 30
0.0
 11
0.637998031
 21
-0.175874016
 31
0.0
  0
LINE
  5
1A1
330
17C
100
AcDbEntity
  8
0
  6
Continuous
 62
     7
370
    25
100
AcDbLine
 10
0.667998031
 20
-0.145874016
 30
0.0
 11
0.667998031
 21
0.146125984
 31
0.0
  0
LINE
  5
1A2
330
17C
100
AcDbEntity
  8
0
  6
Continuous
 62
     7
370
    25
100
AcDbLine
 10
0.984251969
 20
-0.492125984
 30
0.0
 11
0.984251969
 21
0.492125984
 31
0.0
  0
LINE
  5
1A3
330
17C
100
AcDbEntity
  8
0
  6
Continuous
 62
     7
370
    25
100
AcDbLine
 10
-0.984251969
 20
-0.492125984
 30
0.0
 11
0.984251969
 21
-0.492125984
 31
0.0
  0
LINE
  5
1A4
330
17C
100
AcDbEntity
  8
0
  6
Continuous
 62
     7
370
    25
100
AcDbLine
 10
-0.984251969
 20
0.492125984
 30
0.0
 11
-0.984251969
 21
-0.492125984
 31
0.0
  0
LINE
  5
1A5
330
17C
100
AcDbEntity
  8
0
  6
Continuous
 62
     7
370
    25
100
AcDbLine
 10
0.984251969
 20
0.492125984
 30
0.0
 11
-0.984251969
 21
0.492125984
 31
0.0
  0
LINE
  5
1A6
330
17C
100
AcDbEntity
  8
0
  6
Continuous
 62
     7
370
    25
100
AcDbLine
 10
-0.6032519688
 20
-0.0111259846
 30
0.0
 11
-0.6032519688
 21
0.0108740154
 31
0.0
  0
LINE
  5
1A7
330
17C
100
AcDbEntity
  8
0
  6
Continuous
 62
     7
370
    25
100
AcDbLine
 10
0.5027480307
 20
-0.1111259846
 30
0.0
 11
-0.5032519694
 21
-0.1111259846
 31
0.0
  0
LINE
  5
1A8
330
17C
100
AcDbEntity
  8
0
  6
Continuous
 62
     7
370
    25
100
AcDbLine
 10
0.6027480315
 20
0.0108740154
 30
0.0
 11
0.6027480315
 21
-0.0111259846
 31
0.0
  0
LINE
  5
1A9
330
17C
100
AcDbEntity
  8
0
  6
Continuous
 62
     7
370
    25
100
AcDbLine
 10
-0.5032519694
 20
0.1108740153
 30
0.0
 11
0.5027480307
 21
0.1108740153
 31
0.0
  0
VIEWPORT
  5
2CC
330
17C
100
AcDbEntity
  8
0
100
AcDbViewport
 10
0.0
 20
0.0
 30
0.0
 40
8.4
 41
6.4
 68
     1
 69
     1
 12
0.0
 22
-0.0157640079
 13
0.0
 23
0.0
 14
0.5
 24
0.5
 15
0.5
 25
0.5
 16
0.0
 26
0.0
 36
1.0
 17
0.0
 27
0.0
 37
0.0
 42
50.0
 43
0.0
 44
0.0
 45
1.7099679532
 50
0.0
 51
0.0
 72
   100
 90
   557152
  1

281
     0
 71
     1
 74
     0
110
0.0
120
0.0
130
0.0
111
1.0
121
0.0
131
0.0
112
0.0
122
1.0
132
0.0
 79
     0
146
0.0
  0
ENDBLK
  5
17F
330
17C
100
AcDbEntity
  8
0
100
AcDbBlockEnd
  0
BLOCK
  5
1AC
330
1AA
100
AcDbEntity
  8
0
100
AcDbBlockBegin
  2
*Paper_Space5
 70
     0
 10
0.0
 20
0.0
 30
0.0
  3
*Paper_Space5
  1

  0
SPLINE
  5
1B8
330
1AA
100
AcDbEntity
  8
0
  6
Continuous
 62
     7
370
    25
100
AcDbSpline
210
0.0
220
0.0
230
1.0
 70
     8
 71
     3
 72
    14
 73
    10
 74
     0
 42
0.00000001
 43
0.00000001
 40
0.0
 40
0.0
 40
0.0
 40
0.0
 40
0.25
 40
0.25
 40
0.5000000000000001
 40
0.5000000000000001
 40
0.75
 40
0.75
 40
1.0
 40
1.0
 40
1.0
 40
1.0
 10
0.8388068114757935
 20
-0.3193184265323128
 30
0.0
 10
0.8388068114854091
 20
-0.3463876714108677
 30
0.0
 10
0.8481195976393866
 20
-0.366974116027762
 30
0.0
 10
0.881270720641682
 20
-0.3861180733049428
 30
0.0
 10
0.9037537752615911
 20
-0.3838929438484785
 30
0.0
 10
0.9506365430070172
 20
-0.3568280981142408
 30
0.0
 10
0.9731195976247784
 20
-0.3330948452415145
 30
0.0
 10
1.006270720619429
 20
-0.2756754160577958
 30
0.0
 10
1.015583506768221
 20
-0.2443366574174716
 30
0.0
 10
1.015583506772431
 20
-0.2172674125309354
 30
0.0
  0
SPLINE
  5
1B9
330
1AA
100
AcDbEntity
  8
0
  6
Continuous
 62
     7
370
    25
100
AcDbSpline
210
0.0
220
0.0
230
1.0
 70
     8
 71
     3
 72
    12
 73
     8
 74
     0
 42
0.00000001
 43
0.00000001
 40
0.0
 40
0.0
 40
0.0
 40
0.0
 40
0.3333333333333333
 40
0.3333333333333333
 40
0.6666666666666665
 40
0.6666666666666665
 40
0.9999999999999999
 40
0.9999999999999999
 40
0.9999999999999999
 40
0.9999999999999999
 10
1.015583506772431
 20
-0.2172674125126055
 30
0.0
 10
1.015583506772431
 20
-0.1808074944360608
 30
0.0
 10
0.9987327902574732
 20
-0.1568319473335254
 30
0.0
 10
0.9440458756181362
 20
-0.1519421130987756
 30
0.0
 10
0.9103444425922121
 20
-0.1713975362722974
 30
0.0
 10
0.8556575279658267
 20
-0.2394275381917952
 30
0.0
 10
0.8388068114628418
 20
-0.2828585084632447
 30
0.0
 10
0.8388068114757935
 20
-0.3193184265323126
 30
0.0
  0
SPLINE
  5
1BA
330
1AA
100
AcDbEntity
  8
0
  6
Continuous
 62
     7
370
    25
100
AcDbSpline
210
0.0
220
0.0
230
1.0
 70
     8
 71
     3
 72
    12
 73
     8
 74
     0
 42
0.00000001
 43
0.00000001
 40
0.0
 40
0.0
 40
0.0
 40
0.0
 40
0.3333333333333333
 40
0.3333333333333333
 40
0.6666666666666665
 40
0.6666666666666665
 40
0.9999999999999999
 40
0.9999999999999999
 40
0.9999999999999999
 40
0.9999999999999999
 10
0.7843595893244292
 20
-0.3507501387956182
 30
0.0
 10
0.7843595893244292
 20
-0.3142902207190734
 30
0.0
 10
0.7675088728094718
 20
-0.290314673616538
 30
0.0
 10
0.7128219581701346
 20
-0.2854248393817883
 30
0.0
 10
0.6791205251442107
 20
-0.3048802625553101
 30
0.0
 10
0.6244336105178253
 20
-0.3729102644748079
 30
0.0
 10
0.6075828940148402
 20
-0.4163412347462575
 30
0.0
 10
0.607582894027792
 20
-0.4528011528153253
 30
0.0
  0
SPLINE
  5
1BB
330
1AA
100
AcDbEntity
  8
0
  6
Continuous
 62
     7
370
    25
100
AcDbSpline
210
0.0
220
0.0
230
1.0
 70
     8
 71
     3
 72
    14
 73
    10
 74
     0
 42
0.00000001
 43
0.00000001
 40
0.0
 40
0.0
 40
0.0
 40
0.0
 40
0.25
 40
0.25
 40
0.5000000000000001
 40
0.5000000000000001
 40
0.75
 40
0.75
 40
1.0
 40
1.0
 40
1.0
 40
1.0
 10
0.607582894027792
 20
-0.4528011528153255
 30
0.0
 10
0.6075828940374077
 20
-0.4798703976938803
 30
0.0
 10
0.6168956801913851
 20
-0.5004568423107748
 30
0.0
 10
0.6500468031936806
 20
-0.5196007995879556
 30
0.0
 10
0.6725298578135896
 20
-0.5173756701314911
 30
0.0
 10
0.7194126255590156
 20
-0.4903108243972536
 30
0.0
 10
0.7418956801767769
 20
-0.4665775715245272
 30
0.0
 10
0.7750468031714272
 20
-0.4091581423408084
 30
0.0
 10
0.7843595893202194
 20
-0.3778193837004842
 30
0.0
 10
0.7843595893244291
 20
-0.3507501388139481
 30
0.0
  0
SPLINE
  5
1C0
330
1AA
100
AcDbEntity
  8
0
  6
Continuous
 62
     7
370
    25
100
AcDbSpline
210
0.0
220
0.0
230
1.0
 70
     8
 71
     3
 72
    25
 73
    21
 74
     0
 42
0.00000001
 43
0.00000001
 40
0.0
 40
0.0
 40
0.0
 40
0.0
 40
0.0312831305250867
 40
0.0625662518262054
 40
0.1250567891594311
 40
0.1875473258269893
 40
0.2500378599578951
 40
0.3125283987838809
 40
0.3750189324650791
 40
0.4375094667148555
 40
0.5000000014625694
 40
0.5624905362102839
 40
0.6249810704600608
 40
0.6874716041412591
 40
0.7499621429672446
 40
0.8124526717054091
 40
0.8749432083729681
 40
0.9374337481737947
 40
0.9687168694749133
 40
1.0
 40
1.0
 40
1.0
 40
1.0
 10
-0.0250549649591641
 20
0.4472650496591662
 30
0.0
 10
-0.0258517423763751
 20
0.4477518094205037
 30
0.0
 10
-0.0274452969758637
 20
0.4487253287996553
 30
0.0
 10
-0.0301919933612466
 20
0.4508864962250387
 30
0.0
 10
-0.0329496357851951
 20
0.4538498350778553
 30
0.0
 10
-0.0349755246961473
 20
0.4577128910197525
 30
0.0
 10
-0.0356616733616886
 20
0.4617289110094609
 30
0.0
 10
-0.034976202797648
 20
0.4657453008555295
 30
0.0
 10
-0.0329469257233426
 20
0.4696072471480571
 30
0.0
 10
-0.029651431508598
 20
0.4731664608368415
 30
0.0
 10
-0.0252164753734327
 20
0.4762861341266394
 30
0.0
 10
-0.0198124571978841
 20
0.4788463798034568
 30
0.0
 10
-0.0136470502174704
 20
0.4807488281323186
 30
0.0
 10
-0.0069572381726511
 20
0.481920304801621
 30
0.0
 10
0.0000001067647228
 20
0.4823160187108591
 30
0.0
 10
0.0069568109363328
 20
0.4819199128652326
 30
0.0
 10
0.0136485448721807
 20
0.4807503920601513
 30
0.0
 10
0.0187817552619963
 20
0.479158439625918
 30
0.0
 10
0.0225254126694292
 20
0.4775728054364292
 30
0.0
 10
0.0242117804261297
 20
0.4766528659562212
 30
0.0
 10
0.0250549644287881
 20
0.4761928961483052
 30
0.0
  0
SPLINE
  5
1C1
330
1AA
100
AcDbEntity
  8
0
  6
Continuous
 62
     7
370
    25
100
AcDbSpline
210
0.0
220
0.0
230
1.0
 70
     8
 71
     3
 72
    25
 73
    21
 74
     0
 42
0.00000001
 43
0.00000001
 40
0.0
 40
0.0
 40
0.0
 40
0.0
 40
0.0312831343803887
 40
0.06256626807862
 40
0.1250568069238849
 40
0.1875473273297478
 40
0.2500378685282915
 40
0.3125283953885363
 40
0.3750189281141752
 40
0.4375094664464089
 40
0.4999999985374314
 40
0.5624905306284527
 40
0.6249810689606865
 40
0.6874716016863252
 40
0.7499621285465701
 40
0.812452675137854
 40
0.8749431955437165
 40
0.9374337319213799
 40
0.9687168656196113
 40
0.9999999999999999
 40
0.9999999999999999
 40
0.9999999999999999
 40
0.9999999999999999
 10
0.0250549644287881
 20
0.4761928961483052
 30
0.0
 10
0.0258517419390746
 20
0.4757061363123655
 30
0.0
 10
0.0274452969422732
 20
0.4747326166511002
 30
0.0
 10
0.0301919941856354
 20
0.4725714490728012
 30
0.0
 10
0.0329496358952023
 20
0.469608109858515
 30
0.0
 10
0.0349755225808882
 20
0.4657450538487994
 30
0.0
 10
0.0356616754411554
 20
0.4617290344528349
 30
0.0
 10
0.0349762016422927
 20
0.4577126446653049
 30
0.0
 10
0.0329469245400714
 20
0.4538506988356983
 30
0.0
 10
0.0296514337132352
 20
0.4502914837552499
 30
0.0
 10
0.0252164736245776
 20
0.4471718123858511
 30
0.0
 10
0.0198124587715762
 20
0.4446115644194276
 30
0.0
 10
0.0136470493839839
 20
0.4427091180732449
 30
0.0
 10
0.0069572381310365
 20
0.4415376412876051
 30
0.0
 10
-0.0000001070686425
 20
0.4411419258621861
 30
0.0
 10
-0.0069568107481298
 20
0.4415380328246851
 30
0.0
 10
-0.0136485453841327
 20
0.4427075522836716
 30
0.0
 10
-0.0187817549146232
 20
0.4442995056083766
 30
0.0
 10
-0.0225254126070859
 20
0.4458851400584115
 30
0.0
 10
-0.0242117808356759
 20
0.4468050797889045
 30
0.0
 10
-0.0250549649591641
 20
0.4472650496591662
 30
0.0
  0
SPLINE
  5
1C2
330
1AA
100
AcDbEntity
  8
0
  6
Continuous
 62
     7
370
    25
100
AcDbSpline
210
0.0
220
0.0
230
1.0
 70
     8
 71
     3
 72
    25
 73
    21
 74
     0
 42
0.00000001
 43
0.00000001
 40
0.0
 40
0.0
 40
0.0
 40
0.0
 40
0.0312831305250868
 40
0.0625662518262054
 40
0.1250567916270318
 40
0.1875473282945913
 40
0.2500378570327553
 40
0.312528395858741
 40
0.3750189295399393
 40
0.4375094637897163
 40
0.4999999985374308
 40
0.5624905332851446
 40
0.624981067534921
 40
0.6874716012161193
 40
0.7499621400421042
 40
0.8124526741730107
 40
0.8749432108405698
 40
0.9374337481737947
 40
0.9687168694749134
 40
1.0
 40
1.0
 40
1.0
 40
1.0
 10
-0.379385673782719
 20
0.2427142854407683
 30
0.0
 10
-0.3801824511924691
 20
0.2432010452045303
 30
0.0
 10
-0.3817760057770359
 20
0.2441745645885307
 30
0.0
 10
-0.3845227023657444
 20
0.2463357320080995
 30
0.0
 10
-0.3872803436612474
 20
0.2492990712896899
 30
0.0
 10
-0.3893062326254448
 20
0.2531621270634009
 30
0.0
 10
-0.3899923824210048
 20
0.2571781468982855
 30
0.0
 10
-0.3893069115527462
 20
0.261194536639372
 30
0.0
 10
-0.3872776345652455
 20
0.2650564829290082
 30
0.0
 10
-0.3839821403272179
 20
0.2686156966188071
 30
0.0
 10
-0.3795471841983789
 20
0.2717353699074385
 30
0.0
 10
-0.3741431660208092
 20
0.2742956155879077
 30
0.0
 10
-0.3679777590421531
 20
0.2761980639033287
 30
0.0
 10
-0.3612879469923249
 20
0.2773695406227423
 30
0.0
 10
-0.3543306018730968
 20
0.277765254356359
 30
0.0
 10
-0.3473738974332957
 20
0.2773691491630783
 30
0.0
 10
-0.3406821632061084
 20
0.2761996283887351
 30
0.0
 10
-0.3355489535590317
 20
0.2746076753030638
 30
0.0
 10
-0.3318052961415269
 20
0.2730220412309527
 30
0.0
 10
-0.3301189283932257
 20
0.2721021017421305
 30
0.0
 10
-0.3292757443947668
 20
0.2716421319299073
 30
0.0
  0
SPLINE
  5
1C3
330
1AA
100
AcDbEntity
  8
0
  6
Continuous
 62
     7
370
    25
100
AcDbSpline
210
0.0
220
0.0
230
1.0
 70
     8
 71
     3
 72
    25
 73
    21
 74
     0
 42
0.00000001
 43
0.00000001
 40
0.0
 40
0.0
 40
0.0
 40
0.0
 40
0.0312831343803886
 40
0.0625662680786201
 40
0.1250568044562833
 40
0.1875473248621463
 40
0.250037871453431
 40
0.3125283983136748
 40
0.3750189310393135
 40
0.437509469371548
 40
0.5000000014625686
 40
0.5624905335535906
 40
0.6249810718858247
 40
0.6874716046114636
 40
0.7499621314717085
 40
0.812452672670252
 40
0.8749431930761152
 40
0.9374337319213799
 40
0.9687168656196112
 40
0.9999999999999999
 40
0.9999999999999999
 40
0.9999999999999999
 40
0.9999999999999999
 10
-0.3292757443947668
 20
0.2716421319299073
 30
0.0
 10
-0.3284789668770194
 20
0.271155372096392
 30
0.0
 10
-0.3268854118588988
 20
0.2701818524399755
 30
0.0
 10
-0.3241387148188627
 20
0.2680206848558622
 30
0.0
 10
-0.3213810719808501
 20
0.2650573460703497
 30
0.0
 10
-0.3193551853484095
 20
0.2611942898924478
 30
0.0
 10
-0.318669033618161
 20
0.2571782703416596
 30
0.0
 10
-0.3193545071128055
 20
0.2531618804491477
 30
0.0
 10
-0.3213837843018313
 20
0.2492999346166495
 30
0.0
 10
-0.3246792751053851
 20
0.2457407195372156
 30
0.0
 10
-0.3291142352003684
 20
0.2426210481666501
 30
0.0
 10
-0.3345182500513491
 20
0.2400608002038784
 30
0.0
 10
-0.3406836594406986
 20
0.2381583538442551
 30
0.0
 10
-0.3473734706886373
 20
0.2369868771087264
 30
0.0
 10
-0.3543308157064621
 20
0.2365911615076862
 30
0.0
 10
-0.3612875191177581
 20
0.2369872691225308
 30
0.0
 10
-0.3679792534624221
 20
0.2381567886122551
 30
0.0
 10
-0.3731124637356512
 20
0.2397487412855226
 30
0.0
 10
-0.376856121418042
 20
0.2413343758529348
 30
0.0
 10
-0.3785424896550312
 20
0.2422543155748138
 30
0.0
 10
-0.379385673782719
 20
0.2427142854407683
 30
0.0
  0
SPLINE
  5
1C4
330
1AA
100
AcDbEntity
  8
0
  6
Continuous
 62
     7
370
    25
100
AcDbSpline
210
0.0
220
0.0
230
1.0
 70
     8
 71
     3
 72
    25
 73
    21
 74
     0
 42
0.00000001
 43
0.00000001
 40
0.0
 40
0.0
 40
0.0
 40
0.0
 40
0.0312831343803887
 40
0.0625662680786206
 40
0.1250568069238847
 40
0.1875473273297479
 40
0.2500378685282914
 40
0.3125283953885362
 40
0.3750189281141739
 40
0.4375094664464095
 40
0.4999999985374313
 40
0.5624905306284521
 40
0.6249810689606874
 40
0.6874716016863252
 40
0.7499621285465691
 40
0.8124526751378538
 40
0.8749431955437167
 40
0.9374337319213791
 40
0.9687168656196113
 40
0.9999999999999999
 40
0.9999999999999999
 40
0.9999999999999999
 40
0.9999999999999999
 10
-0.0250549644287881
 20
0.0381635209161895
 30
0.0
 10
-0.0258517419390746
 20
0.0386502807521292
 30
0.0
 10
-0.0274452969422732
 20
0.0396238004133945
 30
0.0
 10
-0.0301919941856353
 20
0.0417849679916933
 30
0.0
 10
-0.0329496358952024
 20
0.0447483072059798
 30
0.0
 10
-0.0349755225808881
 20
0.0486113632156951
 30
0.0
 10
-0.0356616754411554
 20
0.0526273826116599
 30
0.0
 10
-0.0349762016422927
 20
0.0566437723991896
 30
0.0
 10
-0.0329469245400711
 20
0.0605057182287961
 30
0.0
 10
-0.0296514337132355
 20
0.0640649333092449
 30
0.0
 10
-0.0252164736245775
 20
0.0671846046786434
 30
0.0
 10
-0.0198124587715764
 20
0.0697448526450674
 30
0.0
 10
-0.0136470493839838
 20
0.0716472989912494
 30
0.0
 10
-0.0069572381310365
 20
0.0728187757768898
 30
0.0
 10
0.0000001070686424
 20
0.0732144912023083
 30
0.0
 10
0.0069568107481297
 20
0.0728183842398096
 30
0.0
 10
0.0136485453841327
 20
0.0716488647808233
 30
0.0
 10
0.0187817549146233
 20
0.0700569114561179
 30
0.0
 10
0.0225254126070859
 20
0.0684712770060833
 30
0.0
 10
0.0242117808356759
 20
0.06755133727559
 30
0.0
 10
0.0250549649591641
 20
0.0670913674053284
 30
0.0
  0
SPLINE
  5
1C5
330
1AA
100
AcDbEntity
  8
0
  6
Continuous
 62
     7
370
    25
100
AcDbSpline
210
0.0
220
0.0
230
1.0
 70
     8
 71
     3
 72
    25
 73
    21
 74
     0
 42
0.00000001
 43
0.00000001
 40
0.0
 40
0.0
 40
0.0
 40
0.0
 40
0.0312831305250879
 40
0.0625662518262055
 40
0.1250567891594303
 40
0.1875473258269893
 40
0.2500378599578958
 40
0.3125283987838794
 40
0.3750189324650793
 40
0.437509466714856
 40
0.5000000014625693
 40
0.5624905362102837
 40
0.6249810704600606
 40
0.6874716041412605
 40
0.749962142967245
 40
0.8124526717054088
 40
0.8749432083729684
 40
0.9374337481737947
 40
0.968716869474912
 40
1.0
 40
1.0
 40
1.0
 40
1.0
 10
0.0250549649591641
 20
0.0670913674053284
 30
0.0
 10
0.0258517423763752
 20
0.0666046076439909
 30
0.0
 10
0.0274452969758638
 20
0.0656310882648394
 30
0.0
 10
0.0301919933612465
 20
0.0634699208394558
 30
0.0
 10
0.0329496357851952
 20
0.0605065819866395
 30
0.0
 10
0.0349755246961473
 20
0.0566435260447421
 30
0.0
 10
0.0356616733616886
 20
0.0526275060550339
 30
0.0
 10
0.0349762027976476
 20
0.0486111162089653
 30
0.0
 10
0.0329469257233428
 20
0.0447491699164376
 30
0.0
 10
0.0296514315085981
 20
0.0411899562276528
 30
0.0
 10
0.0252164753734326
 20
0.0380702829378553
 30
0.0
 10
0.0198124571978842
 20
0.0355100372610376
 30
0.0
 10
0.0136470502174706
 20
0.0336075889321758
 30
0.0
 10
0.0069572381726509
 20
0.0324361122628741
 30
0.0
 10
-0.0000001067647228
 20
0.0320403983536354
 30
0.0
 10
-0.0069568109363328
 20
0.0324365041992623
 30
0.0
 10
-0.0136485448721809
 20
0.033606025004343
 30
0.0
 10
-0.0187817552619961
 20
0.0351979774385766
 30
0.0
 10
-0.0225254126694292
 20
0.0367836116280655
 30
0.0
 10
-0.0242117804261295
 20
0.0377035511082735
 30
0.0
 10
-0.0250549644287881
 20
0.0381635209161895
 30
0.0
  0
SPLINE
  5
1C6
330
1AA
100
AcDbEntity
  8
0
  6
Continuous
 62
     7
370
    25
100
AcDbSpline
210
0.0
220
0.0
230
1.0
 70
     8
 71
     3
 72
    25
 73
    21
 74
     0
 42
0.00000001
 43
0.00000001
 40
0.0
 40
0.0
 40
0.0
 40
0.0
 40
0.0312831343803887
 40
0.0625662680786207
 40
0.1250568044562835
 40
0.187547324862146
 40
0.2500378714534299
 40
0.3125283983136748
 40
0.3750189310393125
 40
0.4375094693715474
 40
0.5000000014625686
 40
0.5624905335535907
 40
0.624981071885826
 40
0.6874716046114637
 40
0.7499621314717085
 40
0.8124526726702522
 40
0.8749431930761151
 40
0.9374337319213794
 40
0.9687168656196112
 40
0.9999999999999999
 40
0.9999999999999999
 40
0.9999999999999999
 40
0.9999999999999999
 10
0.3292757443947668
 20
0.2427142851345873
 30
0.0
 10
0.3284789668770194
 20
0.2432010449681027
 30
0.0
 10
0.3268854118588987
 20
0.2441745646245192
 30
0.0
 10
0.3241387148188627
 20
0.2463357322086324
 30
0.0
 10
0.3213810719808504
 20
0.2492990709941453
 30
0.0
 10
0.3193551853484095
 20
0.2531621271720467
 30
0.0
 10
0.3186690336181608
 20
0.2571781467228351
 30
0.0
 10
0.3193545071128054
 20
0.261194536615347
 30
0.0
 10
0.3213837843018316
 20
0.2650564824478451
 30
0.0
 10
0.3246792751053847
 20
0.2686156975272792
 30
0.0
 10
0.3291142352003686
 20
0.2717353688978444
 30
0.0
 10
0.3345182500513488
 20
0.2742956168606166
 30
0.0
 10
0.3406836594406988
 20
0.2761980632202393
 30
0.0
 10
0.3473734706886373
 20
0.2773695399557684
 30
0.0
 10
0.3543308157064622
 20
0.2777652555568084
 30
0.0
 10
0.3612875191177581
 20
0.2773691479419637
 30
0.0
 10
0.3679792534624222
 20
0.2761996284522397
 30
0.0
 10
0.373112463735651
 20
0.2746076757789718
 30
0.0
 10
0.376856121418042
 20
0.2730220412115599
 30
0.0
 10
0.3785424896550312
 20
0.2721021014896808
 30
0.0
 10
0.379385673782719
 20
0.2716421316237263
 30
0.0
  0
SPLINE
  5
1C7
330
1AA
100
AcDbEntity
  8
0
  6
Continuous
 62
     7
370
    25
100
AcDbSpline
210
0.0
220
0.0
230
1.0
 70
     8
 71
     3
 72
    25
 73
    21
 74
     0
 42
0.00000001
 43
0.00000001
 40
0.0
 40
0.0
 40
0.0
 40
0.0
 40
0.031283130525088
 40
0.0625662518262053
 40
0.1250567916270318
 40
0.1875473282945908
 40
0.2500378570327553
 40
0.3125283958587396
 40
0.3750189295399396
 40
0.4375094637897162
 40
0.4999999985374308
 40
0.5624905332851444
 40
0.6249810675349206
 40
0.6874716012161205
 40
0.749962140042105
 40
0.8124526741730108
 40
0.8749432108405694
 40
0.9374337481737945
 40
0.968716869474912
 40
1.0
 40
1.0
 40
1.0
 40
1.0
 10
0.379385673782719
 20
0.2716421316237263
 30
0.0
 10
0.3801824511924691
 20
0.2711553718599645
 30
0.0
 10
0.3817760057770357
 20
0.2701818524759641
 30
0.0
 10
0.3845227023657446
 20
0.2680206850563949
 30
0.0
 10
0.3872803436612472
 20
0.2650573457748046
 30
0.0
 10
0.3893062326254451
 20
0.2611942900010938
 30
0.0
 10
0.3899923824210048
 20
0.2571782701662091
 30
0.0
 10
0.3893069115527458
 20
0.2531618804251227
 30
0.0
 10
0.3872776345652458
 20
0.2492999341354866
 30
0.0
 10
0.3839821403272182
 20
0.2457407204456872
 30
0.0
 10
0.3795471841983787
 20
0.2426210471570562
 30
0.0
 10
0.3741431660208093
 20
0.2400608014765868
 30
0.0
 10
0.3679777590421531
 20
0.2381583531611657
 30
0.0
 10
0.3612879469923249
 20
0.2369868764417528
 30
0.0
 10
0.3543306018730967
 20
0.2365911627081354
 30
0.0
 10
0.3473738974332957
 20
0.2369872679014165
 30
0.0
 10
0.3406821632061084
 20
0.2381567886757595
 30
0.0
 10
0.3355489535590317
 20
0.2397487417614307
 30
0.0
 10
0.3318052961415269
 20
0.241334375833542
 30
0.0
 10
0.3301189283932257
 20
0.2422543153223642
 30
0.0
 10
0.3292757443947668
 20
0.2427142851345873
 30
0.0
  0
SPLINE
  5
1C8
330
1AA
100
AcDbEntity
  8
0
  6
Continuous
 62
     7
370
    25
100
AcDbSpline
210
0.0
220
0.0
230
1.0
 70
     8
 71
     3
 72
    33
 73
    29
 74
     0
 42
0.00000001
 43
0.00000001
 40
0.0
 40
0.0
 40
0.0
 40
0.0
 40
0.0125326068921781
 40
0.0250361825345119
 40
0.0375300660551971
 40
0.0500336415545698
 40
0.0625662481614876
 40
0.0938388079231206
 40
0.1251113678840797
 40
0.1563839278987392
 40
0.1876564877172139
 40
0.25012590569325
 40
0.3125953227502234
 40
0.3750647411486716
 40
0.4375341575448561
 40
0.5000035755504129
 40
0.5624729935559697
 40
0.6249424099521541
 40
0.6874118283506021
 40
0.7498812454075756
 40
0.8123506633836116
 40
0.8436232232020865
 40
0.8748957832167459
 40
0.906168343177705
 40
0.9374409029393381
 40
0.958308881670814
 40
0.9791320208719558
 40
1.0
 40
1.0
 40
1.0
 40
1.0
 10
0.1804163655726851
 20
0.1530260576280027
 30
0.0
 10
0.1780244463434942
 20
0.1516759504242224
 30
0.0
 10
0.1732461486640858
 20
0.1489788634824706
 30
0.0
 10
0.1657421221884062
 20
0.1451453355851361
 30
0.0
 10
0.1580075210200091
 20
0.1414765272818962
 30
0.0
 10
0.1500170023934403
 20
0.13798687651358
 30
0.0
 10
0.1376848245592925
 20
0.1330260327316584
 30
0.0
 10
0.1204708096383926
 20
0.1270648798714474
 30
0.0
 10
0.0977971455246736
 20
0.1208796642751197
 30
0.0
 10
0.0741844098287105
 20
0.1159976553404509
 30
0.0
 10
0.0417747595100291
 20
0.1113145890168124
 30
0.0
 10
-0.000005642111245
 20
0.1089336548525049
 30
0.0
 10
-0.0500961218780785
 20
0.1117842399304345
 30
0.0
 10
-0.098270450140708
 20
0.1202195361126915
 30
0.0
 10
-0.1426658790352163
 20
0.1339188067894188
 30
0.0
 10
-0.1815794084376506
 20
0.1523546471861437
 30
0.0
 10
-0.2135146814651367
 20
0.1748189497636271
 30
0.0
 10
-0.2372450838155632
 20
0.2004478847630201
 30
0.0
 10
-0.2518570349959608
 20
0.2282583345841291
 30
0.0
 10
-0.2567949044155083
 20
0.2571749453116952
 30
0.0
 10
-0.252670632618067
 20
0.2812942818295416
 30
0.0
 10
-0.2445582937424599
 20
0.300003925611213
 30
0.0
 10
-0.2361019515456322
 20
0.3136354177905019
 30
0.0
 10
-0.2253859498205674
 20
0.3267240822656842
 30
0.0
 10
-0.213919123325271
 20
0.3377666778252729
 30
0.0
 10
-0.2025599433280094
 20
0.3469044558716451
 30
0.0
 10
-0.1920032558109977
 20
0.3543857593871735
 30
0.0
 10
-0.1842814306628161
 20
0.359013833547018
 30
0.0
 10
-0.1804163655726851
 20
0.361330359436492
 30
0.0
  0
SPLINE
  5
1C9
330
1AA
100
AcDbEntity
  8
0
  6
Continuous
 62
     7
370
    25
100
AcDbSpline
210
0.0
220
0.0
230
1.0
 70
     8
 71
     3
 72
    33
 73
    29
 74
     0
 42
0.00000001
 43
0.00000001
 40
0.0
 40
0.0
 40
0.0
 40
0.0
 40
0.012532606892178
 40
0.025036182534512
 40
0.037530066055197
 40
0.0500336415545698
 40
0.0625662481614877
 40
0.0938388079231207
 40
0.1251113678840798
 40
0.1563839278987391
 40
0.1876564877172141
 40
0.25012590569325
 40
0.3125953227502235
 40
0.3750647411486716
 40
0.437534157544856
 40
0.5000035755504129
 40
0.5624729935559695
 40
0.6249424099521541
 40
0.6874118283506023
 40
0.7498812454075757
 40
0.8123506633836118
 40
0.8436232232020868
 40
0.8748957832167461
 40
0.9061683431777052
 40
0.9374409029393381
 40
0.9583088816708139
 40
0.9791320208719556
 40
1.0
 40
1.0
 40
1.0
 40
1.0
 10
-0.1804163655726851
 20
0.3613303594364919
 30
0.0
 10
-0.1780244463434942
 20
0.3626804666402721
 30
0.0
 10
-0.1732461486640858
 20
0.365377553582024
 30
0.0
 10
-0.1657421221884063
 20
0.3692110814793586
 30
0.0
 10
-0.1580075210200087
 20
0.3728798897825981
 30
0.0
 10
-0.1500170023934406
 20
0.376369540550915
 30
0.0
 10
-0.1376848245592922
 20
0.381330384332836
 30
0.0
 10
-0.1204708096383929
 20
0.3872915371930475
 30
0.0
 10
-0.0977971455246736
 20
0.3934767527893748
 30
0.0
 10
-0.0741844098287105
 20
0.3983587617240437
 30
0.0
 10
-0.041774759510029
 20
0.4030418280476821
 30
0.0
 10
0.000005642111245
 20
0.4054227622119896
 30
0.0
 10
0.0500961218780786
 20
0.4025721771340601
 30
0.0
 10
0.0982704501407081
 20
0.3941368809518033
 30
0.0
 10
0.1426658790352162
 20
0.3804376102750758
 30
0.0
 10
0.1815794084376505
 20
0.3620017698783509
 30
0.0
 10
0.2135146814651367
 20
0.3395374673008676
 30
0.0
 10
0.2372450838155633
 20
0.3139085323014746
 30
0.0
 10
0.2518570349959608
 20
0.2860980824803656
 30
0.0
 10
0.2567949044155082
 20
0.2571814717527996
 30
0.0
 10
0.2526706326180672
 20
0.2330621352349529
 30
0.0
 10
0.2445582937424598
 20
0.2143524914532816
 30
0.0
 10
0.2361019515456322
 20
0.2007209992739926
 30
0.0
 10
0.2253859498205676
 20
0.1876323347988104
 30
0.0
 10
0.2139191233252711
 20
0.1765897392392218
 30
0.0
 10
0.2025599433280095
 20
0.1674519611928496
 30
0.0
 10
0.1920032558109974
 20
0.1599706576773214
 30
0.0
 10
0.184281430662816
 20
0.1553425835174766
 30
0.0
 10
0.1804163655726851
 20
0.1530260576280027
 30
0.0
  0
SPLINE
  5
1CA
330
1AA
100
AcDbEntity
  8
0
  6
Continuous
 62
     7
370
    25
100
AcDbSpline
210
0.0
220
0.0
230
1.0
 70
     8
 71
     3
 72
    11
 73
     7
 74
     0
 42
0.00000001
 43
0.00000001
 40
0.0
 40
0.0
 40
0.0
 40
0.0
 40
0.0459813150601907
 40
0.3639875433734605
 40
0.6819937716867301
 40
1.0
 40
1.0
 40
1.0
 40
1.0
 10
0.7469949356176258
 20
-0.2892716254672117
 30
0.0
 10
0.7475323467331583
 20
-0.2897005486930702
 30
0.0
 10
0.7517864867347699
 20
-0.2930958998497672
 30
0.0
 10
0.7570757112877107
 20
-0.3032266759448627
 30
0.0
 10
0.7625341004745533
 20
-0.3191664766651013
 30
0.0
 10
0.7631650011025419
 20
-0.3321867382500019
 30
0.0
 10
0.7634804514165364
 20
-0.3386968690424523
 30
0.0
  0
SPLINE
  5
1CB
330
1AA
100
AcDbEntity
  8
0
  6
Continuous
 62
     7
370
    25
100
AcDbSpline
210
0.0
220
0.0
230
1.0
 70
     8
 71
     3
 72
    19
 73
    15
 74
     0
 42
0.00000001
 43
0.00000001
 40
0.0
 40
0.0
 40
0.0
 40
0.0
 40
0.0897409914648421
 40
0.1794819829296845
 40
0.2692229743945274
 40
0.3589639658593695
 40
0.4487049573242116
 40
0.538445948789054
 40
0.6281869402538964
 40
0.7179279317187389
 40
0.8076689231835813
 40
0.8974099146484238
 40
0.9871509061132657
 40
1.0
 40
1.0
 40
1.0
 40
1.0
 10
0.7634804514165365
 20
-0.3386968690607822
 30
0.0
 10
0.763151495189259
 20
-0.345567025337059
 30
0.0
 10
0.7624935827347038
 20
-0.3593073378896124
 30
0.0
 10
0.7572377822349953
 20
-0.3816120460317586
 30
0.0
 10
0.7490690227417796
 20
-0.4040876854043973
 30
0.0
 10
0.7379921002941235
 20
-0.4260488443510828
 30
0.0
 10
0.7245151986789822
 20
-0.4466044602682838
 30
0.0
 10
0.7091353369965019
 20
-0.4649747081304256
 30
0.0
 10
0.6924446135195165
 20
-0.4804602741316477
 30
0.0
 10
0.6751010988066473
 20
-0.4924293628207925
 30
0.0
 10
0.6577036139243537
 20
-0.5005621396524215
 30
0.0
 10
0.6411748009532919
 20
-0.5040222371268004
 30
0.0
 10
0.6297634163419509
 20
-0.5044577566011764
 30
0.0
 10
0.6247022992316502
 20
-0.5024747605280372
 30
0.0
 10
0.6240684098192459
 20
-0.5022263963451488
 30
0.0
  0
SPLINE
  5
1CC
330
1AA
100
AcDbEntity
  8
0
  6
Continuous
 62
     7
370
    25
100
AcDbSpline
210
0.0
220
0.0
230
1.0
 70
     8
 71
     3
 72
    28
 73
    24
 74
     0
 42
0.00000001
 43
0.00000001
 40
0.0
 40
0.0
 40
0.0
 40
0.0
 40
0.0208715796087612
 40
0.0416983120771539
 40
0.0625698923264251
 40
0.0938478484978713
 40
0.1251258057670327
 40
0.1876060022504955
 40
0.2500862001266994
 40
0.3125663980029031
 40
0.3750465944863658
 40
0.4375267922076511
 40
0.5000069896128299
 40
0.5624871870180086
 40
0.6249673847392938
 40
0.6874475812227566
 40
0.7499277790989605
 40
0.8124079769751642
 40
0.874888173458627
 40
0.9061661307277882
 40
0.9374440868992345
 40
0.9687220438102427
 40
1.0
 40
1.0
 40
1.0
 40
1.0
 10
0.6402935417572441
 20
-0.4098111582785532
 30
0.0
 10
0.6403077863330787
 20
-0.4089256208065397
 30
0.0
 10
0.6403362448771703
 20
-0.4071564486328851
 30
0.0
 10
0.6405679697591624
 20
-0.4044038026266617
 30
0.0
 10
0.6409989832657577
 20
-0.4011272297578172
 30
0.0
 10
0.6417380647342329
 20
-0.3972931445269046
 30
0.0
 10
0.6432735241601162
 20
-0.391452973313504
 30
0.0
 10
0.6459717836247121
 20
-0.3840631704413053
 30
0.0
 10
0.6503271497924605
 20
-0.3754215389173912
 30
0.0
 10
0.6556344440835008
 20
-0.3673277381339612
 30
0.0
 10
0.6616894250010864
 20
-0.3600950177652804
 30
0.0
 10
0.6682594795075598
 20
-0.3540007343275149
 30
0.0
 10
0.6750921034246882
 20
-0.3492792495611894
 30
0.0
 10
0.6819247294029949
 20
-0.3461119535629774
 30
0.0
 10
0.6884947777259333
 20
-0.344620616688408
 30
0.0
 10
0.694549781316479
 20
-0.344862393377819
 30
0.0
 10
0.6998569910992114
 20
-0.346828565519674
 30
0.0
 10
0.7042126726272302
 20
-0.3504414381582256
 30
0.0
 10
0.7069099510768192
 20
-0.3547163951382284
 30
0.0
 10
0.7084474128700368
 20
-0.3587827458026342
 30
0.0
 10
0.7092725663708698
 20
-0.3621384192145403
 30
0.0
 10
0.7097944489136774
 20
-0.3657439736047635
 30
0.0
 10
0.7098585934909332
 20
-0.3683370537343467
 30
0.0
 10
0.7098906657791916
 20
-0.3696335937841898
 30
0.0
  0
SPLINE
  5
1CD
330
1AA
100
AcDbEntity
  8
0
  6
Continuous
 62
     7
370
    25
100
AcDbSpline
210
0.0
220
0.0
230
1.0
 70
     8
 71
     3
 72
    28
 73
    24
 74
     0
 42
0.00000001
 43
0.00000001
 40
0.0
 40
0.0
 40
0.0
 40
0.0
 40
0.020871579608761
 40
0.0416983120771539
 40
0.0625698923264251
 40
0.0938478484978717
 40
0.1251258057670327
 40
0.1876060022504954
 40
0.250086200126699
 40
0.312566398002903
 40
0.3750465944863657
 40
0.4375267922076509
 40
0.5000069896128296
 40
0.5624871870180084
 40
0.6249673847392937
 40
0.6874475812227564
 40
0.7499277790989601
 40
0.812407976975164
 40
0.8748881734586267
 40
0.9061661307277881
 40
0.9374440868992344
 40
0.9687220438102428
 40
1.0
 40
1.0
 40
1.0
 40
1.0
 10
0.7098906657791916
 20
-0.3696335937841898
 30
0.0
 10
0.7098764212033569
 20
-0.3705191312562033
 30
0.0
 10
0.7098479626592649
 20
-0.3722883034298577
 30
0.0
 10
0.7096162377772733
 20
-0.3750409494360814
 30
0.0
 10
0.7091852242706779
 20
-0.3783175223049258
 30
0.0
 10
0.7084461428022031
 20
-0.3821516075358386
 30
0.0
 10
0.7069106833763193
 20
-0.3879917787492389
 30
0.0
 10
0.7042124239117237
 20
-0.3953815816214378
 30
0.0
 10
0.6998570577439746
 20
-0.4040232131453515
 30
0.0
 10
0.6945497634529344
 20
-0.4121170139287815
 30
0.0
 10
0.6884947825353497
 20
-0.4193497342974629
 30
0.0
 10
0.6819247280288755
 20
-0.4254440177352278
 30
0.0
 10
0.6750921041117477
 20
-0.4301655025015536
 30
0.0
 10
0.6682594781334417
 20
-0.433332798499766
 30
0.0
 10
0.6616894298105017
 20
-0.4348241353743345
 30
0.0
 10
0.6556344262199569
 20
-0.4345823586849242
 30
0.0
 10
0.650327216437224
 20
-0.4326161865430687
 30
0.0
 10
0.6459715349092051
 20
-0.4290033139045171
 30
0.0
 10
0.6432742564596167
 20
-0.4247283569245146
 30
0.0
 10
0.6417367946663988
 20
-0.4206620062601089
 30
0.0
 10
0.6409116411655661
 20
-0.4173063328482028
 30
0.0
 10
0.6403897586227582
 20
-0.4137007784579794
 30
0.0
 10
0.640325614045502
 20
-0.4111076983283961
 30
0.0
 10
0.6402935417572441
 20
-0.4098111582785532
 30
0.0
  0
SPLINE
  5
1D3
330
1AA
100
AcDbEntity
  8
0
  6
Continuous
 62
     7
370
    25
100
AcDbSpline
210
0.0
220
0.0
230
1.0
 70
     8
 71
     3
 72
    11
 73
     7
 74
     0
 42
0.00000001
 43
0.00000001
 40
0.0
 40
0.0
 40
0.0
 40
0.0
 40
0.0459813150601901
 40
0.3639875433734598
 40
0.68199377168673
 40
1.0
 40
1.0
 40
1.0
 40
1.0
 10
0.9782188530656274
 20
-0.155788899184199
 30
0.0
 10
0.9787562641811598
 20
-0.1562178224100575
 30
0.0
 10
0.9830104041827722
 20
-0.159613173566755
 30
0.0
 10
0.9882996287357123
 20
-0.16974394966185
 30
0.0
 10
0.9937580179225546
 20
-0.1856837503820885
 30
0.0
 10
0.9943889185505436
 20
-0.1987040119669892
 30
0.0
 10
0.9947043688645378
 20
-0.2052141427594396
 30
0.0
  0
SPLINE
  5
1D4
330
1AA
100
AcDbEntity
  8
0
  6
Continuous
 62
     7
370
    25
100
AcDbSpline
210
0.0
220
0.0
230
1.0
 70
     8
 71
     3
 72
    11
 73
     7
 74
     0
 42
0.00000001
 43
0.00000001
 40
0.0
 40
0.0
 40
0.0
 40
0.0
 40
0.2920092391525232
 40
0.5840184783050447
 40
0.8760277174575669
 40
1.0
 40
1.0
 40
1.0
 40
1.0
 10
0.0173992808756659
 20
0.0538313341650369
 30
0.0
 10
0.0194248357854307
 20
0.0523621148379145
 30
0.0
 10
0.0234759456049604
 20
0.0494236761836696
 30
0.0
 10
0.0250964727859272
 20
0.0438115313740492
 30
0.0
 10
0.0240292545011385
 20
0.0391566601132234
 30
0.0
 10
0.0212862123662793
 20
0.0370286577393732
 30
0.0
 10
0.0204687212595038
 20
0.03639446295479
 30
0.0
  0
SPLINE
  5
1D5
330
1AA
100
AcDbEntity
  8
0
  6
Continuous
 62
     7
370
    25
100
AcDbSpline
210
0.0
220
0.0
230
1.0
 70
     8
 71
     3
 72
    19
 73
    15
 74
     0
 42
0.00000001
 43
0.00000001
 40
0.0
 40
0.0
 40
0.0
 40
0.0
 40
0.089740991464842
 40
0.1794819829296845
 40
0.2692229743945274
 40
0.3589639658593694
 40
0.4487049573242115
 40
0.5384459487890539
 40
0.6281869402538963
 40
0.7179279317187388
 40
0.8076689231835812
 40
0.8974099146484237
 40
0.9871509061132658
 40
1.0
 40
1.0
 40
1.0
 40
1.0
 10
0.9947043688645381
 20
-0.2052141427777696
 30
0.0
 10
0.9943754126372604
 20
-0.2120842990540463
 30
0.0
 10
0.9937175001827053
 20
-0.2258246116065997
 30
0.0
 10
0.9884616996829968
 20
-0.248129319748746
 30
0.0
 10
0.9802929401897811
 20
-0.2706049591213847
 30
0.0
 10
0.9692160177421248
 20
-0.29256611806807
 30
0.0
 10
0.9557391161269838
 20
-0.313121733985271
 30
0.0
 10
0.9403592544445033
 20
-0.331491981847413
 30
0.0
 10
0.9236685309675179
 20
-0.346977547848635
 30
0.0
 10
0.9063250162546488
 20
-0.3589466365377796
 30
0.0
 10
0.8889275313723551
 20
-0.3670794133694086
 30
0.0
 10
0.8723987184012935
 20
-0.3705395108437877
 30
0.0
 10
0.8609873337899526
 20
-0.3709750303181636
 30
0.0
 10
0.8559262166796515
 20
-0.3689920342450244
 30
0.0
 10
0.8552923272672474
 20
-0.3687436700621359
 30
0.0
  0
SPLINE
  5
1D6
330
1AA
100
AcDbEntity
  8
0
  6
Continuous
 62
     7
370
    25
100
AcDbSpline
210
0.0
220
0.0
230
1.0
 70
     8
 71
     3
 72
    28
 73
    24
 74
     0
 42
0.00000001
 43
0.00000001
 40
0.0
 40
0.0
 40
0.0
 40
0.0
 40
0.020871579608761
 40
0.0416983120771539
 40
0.0625698923264251
 40
0.0938478484978717
 40
0.1251258057670328
 40
0.1876060022504955
 40
0.2500862001266989
 40
0.3125663980029029
 40
0.3750465944863655
 40
0.4375267922076509
 40
0.5000069896128296
 40
0.5624871870180084
 40
0.6249673847392938
 40
0.6874475812227568
 40
0.7499277790989599
 40
0.812407976975164
 40
0.8748881734586269
 40
0.9061661307277881
 40
0.9374440868992344
 40
0.968722043810243
 40
1.0
 40
1.0
 40
1.0
 40
1.0
 10
0.8715174592052457
 20
-0.2763284319955406
 30
0.0
 10
0.87153170378108
 20
-0.2754428945235269
 30
0.0
 10
0.8715601623251715
 20
-0.2736737223498724
 30
0.0
 10
0.8717918872071642
 20
-0.270921076343649
 30
0.0
 10
0.8722229007137592
 20
-0.2676445034748047
 30
0.0
 10
0.8729619821822341
 20
-0.2638104182438916
 30
0.0
 10
0.8744974416081179
 20
-0.2579702470304915
 30
0.0
 10
0.8771957010727137
 20
-0.2505804441582925
 30
0.0
 10
0.8815510672404616
 20
-0.2419388126343783
 30
0.0
 10
0.8868583615315025
 20
-0.2338450118509488
 30
0.0
 10
0.8929133424490877
 20
-0.2266122914822675
 30
0.0
 10
0.8994833969555612
 20
-0.2205180080445024
 30
0.0
 10
0.9063160208726897
 20
-0.2157965232781767
 30
0.0
 10
0.9131486468509965
 20
-0.2126292272799647
 30
0.0
 10
0.9197186951739349
 20
-0.2111378904053954
 30
0.0
 10
0.925773698764481
 20
-0.2113796670948062
 30
0.0
 10
0.9310809085472126
 20
-0.2133458392366613
 30
0.0
 10
0.9354365900752317
 20
-0.2169587118752131
 30
0.0
 10
0.9381338685248206
 20
-0.2212336688552156
 30
0.0
 10
0.9396713303180385
 20
-0.2253000195196215
 30
0.0
 10
0.9404964838188712
 20
-0.2286556929315275
 30
0.0
 10
0.9410183663616789
 20
-0.2322612473217507
 30
0.0
 10
0.9410825109389347
 20
-0.2348543274513341
 30
0.0
 10
0.9411145832271929
 20
-0.236150867501177
 30
0.0
  0
SPLINE
  5
1D7
330
1AA
100
AcDbEntity
  8
0
  6
Continuous
 62
     7
370
    25
100
AcDbSpline
210
0.0
220
0.0
230
1.0
 70
     8
 71
     3
 72
    28
 73
    24
 74
     0
 42
0.00000001
 43
0.00000001
 40
0.0
 40
0.0
 40
0.0
 40
0.0
 40
0.0208715796087612
 40
0.0416983120771539
 40
0.0625698923264251
 40
0.0938478484978713
 40
0.1251258057670326
 40
0.1876060022504955
 40
0.2500862001266996
 40
0.312566398002903
 40
0.3750465944863656
 40
0.4375267922076511
 40
0.5000069896128299
 40
0.5624871870180086
 40
0.624967384739294
 40
0.6874475812227567
 40
0.7499277790989605
 40
0.8124079769751641
 40
0.874888173458627
 40
0.9061661307277882
 40
0.9374440868992345
 40
0.9687220438102427
 40
1.0
 40
1.0
 40
1.0
 40
1.0
 10
0.9411145832271929
 20
-0.236150867501177
 30
0.0
 10
0.9411003386513582
 20
-0.2370364049731905
 30
0.0
 10
0.9410718801072667
 20
-0.2388055771468452
 30
0.0
 10
0.9408401552252744
 20
-0.2415582231530685
 30
0.0
 10
0.9404091417186795
 20
-0.2448347960219131
 30
0.0
 10
0.939670060250205
 20
-0.2486688812528261
 30
0.0
 10
0.93813460082432
 20
-0.2545090524662259
 30
0.0
 10
0.9354363413597258
 20
-0.2618988553384253
 30
0.0
 10
0.9310809751919759
 20
-0.2705404868623389
 30
0.0
 10
0.9257736809009355
 20
-0.2786342876457686
 30
0.0
 10
0.9197186999833514
 20
-0.2858670080144504
 30
0.0
 10
0.913148645476877
 20
-0.2919612914522152
 30
0.0
 10
0.9063160215597491
 20
-0.2966827762185409
 30
0.0
 10
0.899483395581443
 20
-0.2998500722167531
 30
0.0
 10
0.8929133472585031
 20
-0.3013414090913218
 30
0.0
 10
0.8868583436679583
 20
-0.3010996324019113
 30
0.0
 10
0.8815511338852258
 20
-0.2991334602600563
 30
0.0
 10
0.8771954523572063
 20
-0.2955205876215043
 30
0.0
 10
0.8744981739076183
 20
-0.2912456306415019
 30
0.0
 10
0.8729607121144003
 20
-0.287179279977096
 30
0.0
 10
0.8721355586135675
 20
-0.2838236065651901
 30
0.0
 10
0.8716136760707596
 20
-0.2802180521749667
 30
0.0
 10
0.8715495314935036
 20
-0.2776249720453834
 30
0.0
 10
0.8715174592052457
 20
-0.2763284319955406
 30
0.0
  0
SPLINE
  5
1D8
330
1AA
100
AcDbEntity
  8
0
  6
Continuous
 62
     7
370
    25
100
AcDbSpline
210
0.0
220
0.0
230
1.0
 70
     8
 71
     3
 72
    11
 73
     7
 74
     0
 42
0.00000001
 43
0.00000001
 40
0.0
 40
0.0
 40
0.0
 40
0.0
 40
0.1428210343742153
 40
0.428547356249477
 40
0.7142736781247395
 40
1.0
 40
1.0
 40
1.0
 40
1.0
 10
-0.0200670548765449
 20
0.0360474343995541
 30
0.0
 10
-0.0210378436905729
 20
0.036791737885144
 30
0.0
 10
-0.0239507828213611
 20
0.0390250874221671
 30
0.0
 10
-0.0251117952061852
 20
0.0438071361080129
 30
0.0
 10
-0.0234721150001469
 20
0.0494247749997404
 30
0.0
 10
-0.0194235589174563
 20
0.0523624811097672
 30
0.0
 10
-0.0173992808761111
 20
0.0538313341647806
 30
0.0
  0
SPLINE
  5
1DA
330
1AA
100
AcDbEntity
  8
0
  6
Continuous
 62
     7
370
    25
100
AcDbSpline
210
0.0
220
0.0
230
1.0
 70
     8
 71
     3
 72
    10
 73
     6
 74
     0
 42
0.00000001
 43
0.00000001
 40
0.0
 40
0.0
 40
0.0
 40
0.0
 40
0.4999999999999999
 40
0.4999999999999999
 40
1.0
 40
1.0
 40
1.0
 40
1.0
 10
-0.017399280876111
 20
0.0538313341647806
 30
0.0
 10
-0.0127848352714772
 20
0.0564951969083733
 30
0.0
 10
-0.0065258115547101
 20
0.0579918571607038
 30
0.0
 10
0.0065258115540811
 20
0.0579918571607996
 30
0.0
 10
0.0127848352709143
 20
0.0564951969085611
 30
0.0
 10
0.0173992808756659
 20
0.0538313341650361
 30
0.0
  0
SPLINE
  5
1DB
330
1AA
100
AcDbEntity
  8
0
  6
Continuous
 62
     7
370
    25
100
AcDbSpline
210
0.0
220
0.0
230
1.0
 70
     8
 71
     3
 72
    11
 73
     7
 74
     0
 42
0.00000001
 43
0.00000001
 40
0.0
 40
0.0
 40
0.0
 40
0.0
 40
0.2087241224267511
 40
0.5000000001534106
 40
0.7912758778800699
 40
1.0
 40
1.0
 40
1.0
 40
1.0
 10
-0.0193332647725439
 20
0.0521604260055631
 30
0.0
 10
-0.0169891212239352
 20
0.0532084653317958
 30
0.0
 10
-0.0113737100245169
 20
0.0557190503910816
 30
0.0
 10
0.0000000000083316
 20
0.0567329820246959
 30
0.0
 10
0.0113737100363671
 20
0.0557190503883769
 30
0.0
 10
0.0169891212302184
 20
0.0532084653291509
 30
0.0
 10
0.0193332647744958
 20
0.0521604260038407
 30
0.0
  0
SPLINE
  5
1DC
330
1AA
100
AcDbEntity
  8
0
  6
Continuous
 62
     7
370
    25
100
AcDbSpline
210
0.0
220
0.0
230
1.0
 70
     8
 71
     3
 72
    12
 73
     8
 74
     0
 42
0.00000001
 43
0.00000001
 40
0.0
 40
0.0
 40
0.0
 40
0.0
 40
0.2011717465171781
 40
0.4023434930343548
 40
0.6035152395515314
 40
0.8046869860687085
 40
0.9999999999999999
 40
0.9999999999999999
 40
0.9999999999999999
 40
0.9999999999999999
 10
-0.0173992808796797
 20
0.0426909420663792
 30
0.0
 10
-0.0148615030044201
 20
0.0438543434543156
 30
0.0
 10
-0.0097859472539008
 20
0.0461811462301883
 30
0.0
 10
0.0000445321549889
 20
0.047205555212858
 30
0.0
 10
0.0096078186386866
 20
0.0461054233048435
 30
0.0
 10
0.0179410417657796
 20
0.0430240400799888
 30
0.0
 10
0.0210475917311619
 20
0.0398033141774225
 30
0.0
 10
0.0225779144502006
 20
0.0382167470610338
 30
0.0
  0
SPLINE
  5
1DD
330
1AA
100
AcDbEntity
  8
0
  6
Continuous
 62
     7
370
    25
100
AcDbSpline
210
0.0
220
0.0
230
1.0
 70
     8
 71
     3
 72
    11
 73
     7
 74
     0
 42
0.00000001
 43
0.00000001
 40
0.0
 40
0.0
 40
0.0
 40
0.0
 40
0.2087241224438189
 40
0.500000000150335
 40
0.791275877856851
 40
1.0
 40
1.0
 40
1.0
 40
1.0
 10
-0.0193332647736466
 20
0.0410200339087966
 30
0.0
 10
-0.0169891212246923
 20
0.0420680732351957
 30
0.0
 10
-0.0113737100249395
 20
0.0445786582946594
 30
0.0
 10
0.0000000000083335
 20
0.0455925899283803
 30
0.0
 10
0.0113737100368716
 20
0.0445786582919398
 30
0.0
 10
0.0169891212311231
 20
0.0420680732325005
 30
0.0
 10
0.0193332647758138
 20
0.0410200339069911
 30
0.0
  0
SPLINE
  5
1DE
330
1AA
100
AcDbEntity
  8
0
  6
Continuous
 62
     7
370
    25
100
AcDbSpline
210
0.0
220
0.0
230
1.0
 70
     8
 71
     3
 72
    11
 73
     7
 74
     0
 42
0.00000001
 43
0.00000001
 40
0.0
 40
0.0
 40
0.0
 40
0.0
 40
0.1280831863654136
 40
0.5000000000590368
 40
0.8719168137526601
 40
1.0
 40
1.0
 40
1.0
 40
1.0
 10
-0.0121656126718058
 20
0.0335693405172984
 30
0.0
 10
-0.011270294351447
 20
0.0339491456173012
 30
0.0
 10
-0.0077752285825873
 20
0.0354317957247244
 30
0.0
 10
0.0000000000007632
 20
0.0359188101969818
 30
0.0
 10
0.0077752285831876
 20
0.0354317957246248
 30
0.0
 10
0.011270294351109
 20
0.0339491456174923
 30
0.0
 10
0.0121656126706135
 20
0.0335693405178245
 30
0.0
  0
SPLINE
  5
1DF
330
1AA
100
AcDbEntity
  8
0
  6
Continuous
 62
     7
370
    25
100
AcDbSpline
210
0.0
220
0.0
230
1.0
 70
     8
 71
     3
 72
    11
 73
     7
 74
     0
 42
0.00000001
 43
0.00000001
 40
0.0
 40
0.0
 40
0.0
 40
0.0
 40
0.2920092492542858
 40
0.5840184985085699
 40
0.8760277477628547
 40
1.0
 40
1.0
 40
1.0
 40
1.0
 10
-0.336931427959525
 20
0.2583820983901535
 30
0.0
 10
-0.3349058730476342
 20
0.2569128790624213
 30
0.0
 10
-0.3308547632238525
 20
0.2539744404069567
 30
0.0
 10
-0.3292342360747752
 20
0.2483622956064838
 30
0.0
 10
-0.3303014542094823
 20
0.2437074245450124
 30
0.0
 10
-0.333044496076853
 20
0.2415794223368382
 30
0.0
 10
-0.3338619869437776
 20
0.2409452277258589
 30
0.0
  0
SPLINE
  5
1E0
330
1AA
100
AcDbEntity
  8
0
  6
Continuous
 62
     7
370
    25
100
AcDbSpline
210
0.0
220
0.0
230
1.0
 70
     8
 71
     3
 72
    11
 73
     7
 74
     0
 42
0.00000001
 43
0.00000001
 40
0.0
 40
0.0
 40
0.0
 40
0.0
 40
0.2920092441526861
 40
0.5840184883053718
 40
0.8760277324580582
 40
1.0
 40
1.0
 40
1.0
 40
1.0
 10
0.371729989710858
 20
0.2583820983901529
 30
0.0
 10
0.3737555446216752
 20
0.2569128790627286
 30
0.0
 10
0.3778066544433096
 20
0.25397444040788
 30
0.0
 10
0.3794271816084917
 20
0.2483622956027873
 30
0.0
 10
0.3783599633979904
 20
0.243707424440638
 30
0.0
 10
0.3756169213955323
 20
0.2415794221487939
 30
0.0
 10
0.3747994304074783
 20
0.240945227450141
 30
0.0
  0
SPLINE
  5
1E3
330
1AA
100
AcDbEntity
  8
0
  6
Continuous
 62
     7
370
    25
100
AcDbSpline
210
0.0
220
0.0
230
1.0
 70
     8
 71
     3
 72
    15
 73
    11
 74
     0
 42
0.00000001
 43
0.00000001
 40
0.0
 40
0.0
 40
0.0
 40
0.0
 40
0.0666483186004197
 40
0.199984273086074
 40
0.3333202275717282
 40
0.4666561820573827
 40
0.5999921365430373
 40
0.7333280910286916
 40
0.8666640455143462
 40
1.0
 40
1.0
 40
1.0
 40
1.0
 10
0.3342636539583895
 20
0.2405981986245809
 30
0.0
 10
0.3332937751742749
 20
0.2413419678415675
 30
0.0
 10
0.3303835666694574
 20
0.2435737142580768
 30
0.0
 10
0.3291861364659705
 20
0.2483771434378037
 30
0.0
 10
0.330978775690312
 20
0.2539049817863771
 30
0.0
 10
0.3364834776798635
 20
0.2586450850096108
 30
0.0
 10
0.3446758812925227
 20
0.2618072684844257
 30
0.0
 10
0.3542987123806805
 20
0.2628938611718015
 30
0.0
 10
0.3641135221571112
 20
0.2618730151435752
 30
0.0
 10
0.3691911671929424
 20
0.2595457373079603
 30
0.0
 10
0.371729989710858
 20
0.2583820983901529
 30
0.0
  0
SPLINE
  5
1E4
330
1AA
100
AcDbEntity
  8
0
  6
Continuous
 62
     7
370
    25
100
AcDbSpline
210
0.0
220
0.0
230
1.0
 70
     8
 71
     3
 72
    15
 73
    11
 74
     0
 42
0.00000001
 43
0.00000001
 40
0.0
 40
0.0
 40
0.0
 40
0.0
 40
0.0666483186004208
 40
0.1999842730860751
 40
0.3333202275717289
 40
0.4666561820573834
 40
0.599992136543038
 40
0.7333280910286918
 40
0.8666640455143458
 40
1.0
 40
1.0
 40
1.0
 40
1.0
 10
-0.3743977637119936
 20
0.2405981986245816
 30
0.0
 10
-0.375367642496108
 20
0.2413419678415682
 30
0.0
 10
-0.3782778510009256
 20
0.2435737142580775
 30
0.0
 10
-0.3794752812044124
 20
0.2483771434378045
 30
0.0
 10
-0.3776826419800711
 20
0.2539049817863776
 30
0.0
 10
-0.3721779399905196
 20
0.2586450850096116
 30
0.0
 10
-0.3639855363778603
 20
0.2618072684844263
 30
0.0
 10
-0.3543627052897024
 20
0.2628938611718022
 30
0.0
 10
-0.3445478955132719
 20
0.2618730151435759
 30
0.0
 10
-0.3394702504774406
 20
0.2595457373079609
 30
0.0
 10
-0.336931427959525
 20
0.2583820983901535
 30
0.0
  0
SPLINE
  5
1E5
330
1AA
100
AcDbEntity
  8
0
  6
Continuous
 62
     7
370
    25
100
AcDbSpline
210
0.0
220
0.0
230
1.0
 70
     8
 71
     3
 72
    11
 73
     7
 74
     0
 42
0.00000001
 43
0.00000001
 40
0.0
 40
0.0
 40
0.0
 40
0.0
 40
0.2087241224337853
 40
0.5000000002066695
 40
0.7912758779795531
 40
1.0
 40
1.0
 40
1.0
 40
1.0
 10
-0.3736639736107469
 20
0.2567111902289889
 30
0.0
 10
-0.3713198300619662
 20
0.2577592295556441
 30
0.0
 10
-0.3657044188617268
 20
0.260269814616125
 30
0.0
 10
-0.3543307088254525
 20
0.2612837462500106
 30
0.0
 10
-0.3429569987954992
 20
0.2602698146130897
 30
0.0
 10
-0.3373415876023567
 20
0.2577592295529897
 30
0.0
 10
-0.3349974440592427
 20
0.2567111902277025
 30
0.0
  0
SPLINE
  5
1E6
330
1AA
100
AcDbEntity
  8
0
  6
Continuous
 62
     7
370
    25
100
AcDbSpline
210
0.0
220
0.0
230
1.0
 70
     8
 71
     3
 72
    11
 73
     7
 74
     0
 42
0.00000001
 43
0.00000001
 40
0.0
 40
0.0
 40
0.0
 40
0.0
 40
0.192807522828959
 40
0.4618716818859736
 40
0.7309358409429875
 40
1.0
 40
1.0
 40
1.0
 40
1.0
 10
0.3349974440596052
 20
0.2567111902289614
 30
0.0
 10
0.3373404982055027
 20
0.2577579333290844
 30
0.0
 10
0.3429532997354283
 20
0.2602654132710636
 30
0.0
 10
0.3543525596780274
 20
0.2613097455212586
 30
0.0
 10
0.3668099697151451
 20
0.2600676096381206
 30
0.0
 10
0.3733057627957935
 20
0.2570869018450019
 30
0.0
 10
0.3765536593361178
 20
0.2555965479484427
 30
0.0
  0
SPLINE
  5
1E7
330
1AA
100
AcDbEntity
  8
0
  6
Continuous
 62
     7
370
    25
100
AcDbSpline
210
0.0
220
0.0
230
1.0
 70
     8
 71
     3
 72
    12
 73
     8
 74
     0
 42
0.00000001
 43
0.00000001
 40
0.0
 40
0.0
 40
0.0
 40
0.0
 40
0.195313013778451
 40
0.3964847603338386
 40
0.5976565068892257
 40
0.7988282534446132
 40
1.0
 40
1.0
 40
1.0
 40
1.0
 10
-0.3769086232845911
 20
0.2427675112847325
 30
0.0
 10
-0.3753783005675795
 20
0.2443540784004066
 30
0.0
 10
-0.37227175060478
 20
0.2475748043031112
 30
0.0
 10
-0.363938527478464
 20
0.2506561875290551
 30
0.0
 10
-0.3543752409920183
 20
0.2517563194382143
 30
0.0
 10
-0.3445447615797517
 20
0.2507319104552507
 30
0.0
 10
-0.3394692058281757
 20
0.2484051076782116
 30
0.0
 10
-0.3369314279523877
 20
0.247241706289692
 30
0.0
  0
SPLINE
  5
1E8
330
1AA
100
AcDbEntity
  8
0
  6
Continuous
 62
     7
370
    25
100
AcDbSpline
210
0.0
220
0.0
230
1.0
 70
     8
 71
     3
 72
    12
 73
     8
 74
     0
 42
0.00000001
 43
0.00000001
 40
0.0
 40
0.0
 40
0.0
 40
0.0
 40
0.1953130138574693
 40
0.3964847603931023
 40
0.597656506928735
 40
0.7988282534643679
 40
1.0
 40
1.0
 40
1.0
 40
1.0
 10
0.3317527943851976
 20
0.2427675112852454
 30
0.0
 10
0.3332831171029271
 20
0.2443540784010716
 30
0.0
 10
0.336389667066392
 20
0.2475748043032635
 30
0.0
 10
0.344722890191169
 20
0.25065618752866
 30
0.0
 10
0.3542861766743749
 20
0.2517563194379736
 30
0.0
 10
0.3641166560836875
 20
0.2507319104566056
 30
0.0
 10
0.3691922118351345
 20
0.2484051076814096
 30
0.0
 10
0.371729989710858
 20
0.2472417062938116
 30
0.0
  0
SPLINE
  5
1E9
330
1AA
100
AcDbEntity
  8
0
  6
Continuous
 62
     7
370
    25
100
AcDbSpline
210
0.0
220
0.0
230
1.0
 70
     8
 71
     3
 72
    11
 73
     7
 74
     0
 42
0.00000001
 43
0.00000001
 40
0.0
 40
0.0
 40
0.0
 40
0.0
 40
0.2087241224160198
 40
0.500000000172693
 40
0.7912758779293657
 40
1.0
 40
1.0
 40
1.0
 40
1.0
 10
-0.3736639736105316
 20
0.2455707981327307
 30
0.0
 10
-0.3713198300618195
 20
0.2466188374593521
 30
0.0
 10
-0.3657044188616481
 20
0.2491294225197953
 30
0.0
 10
-0.3543307088254313
 20
0.25014335415369
 30
0.0
 10
-0.3429569987946741
 20
0.2491294225165948
 30
0.0
 10
-0.3373415876008726
 20
0.246618837456142
 30
0.0
 10
-0.3349974440570793
 20
0.2455707981305267
 30
0.0
  0
SPLINE
  5
1EA
330
1AA
100
AcDbEntity
  8
0
  6
Continuous
 62
     7
370
    25
100
AcDbSpline
210
0.0
220
0.0
230
1.0
 70
     8
 71
     3
 72
    11
 73
     7
 74
     0
 42
0.00000001
 43
0.00000001
 40
0.0
 40
0.0
 40
0.0
 40
0.0
 40
0.1928075228289578
 40
0.4618716818859727
 40
0.730935840942987
 40
1.0
 40
1.0
 40
1.0
 40
1.0
 10
0.3349974440596052
 20
0.2455707981326202
 30
0.0
 10
0.3373404982055026
 20
0.2466175412327432
 30
0.0
 10
0.3429532997354283
 20
0.2491250211747224
 30
0.0
 10
0.3543525596780274
 20
0.2501693534249174
 30
0.0
 10
0.3668099697151451
 20
0.2489272175417795
 30
0.0
 10
0.3733057627957936
 20
0.2459465097486608
 30
0.0
 10
0.3765536593361178
 20
0.2444561558521015
 30
0.0
  0
SPLINE
  5
1EB
330
1AA
100
AcDbEntity
  8
0
  6
Continuous
 62
     7
370
    25
100
AcDbSpline
210
0.0
220
0.0
230
1.0
 70
     8
 71
     3
 72
    11
 73
     7
 74
     0
 42
0.00000001
 43
0.00000001
 40
0.0
 40
0.0
 40
0.0
 40
0.0
 40
0.1280831492101286
 40
0.4999999999409134
 40
0.8719168506716991
 40
1.0
 40
1.0
 40
1.0
 40
1.0
 10
-0.3664963204418911
 20
0.2381201051533855
 30
0.0
 10
-0.3656010024642391
 20
0.2384999100986529
 30
0.0
 10
-0.3621059370201606
 20
0.2399825600317807
 30
0.0
 10
-0.3543307088377132
 20
0.2404695743815271
 30
0.0
 10
-0.3465554806542201
 20
0.2399825600325124
 30
0.0
 10
-0.3430604152088409
 20
0.2384999100993773
 30
0.0
 10
-0.3421650972302413
 20
0.2381201051538475
 30
0.0
  0
SPLINE
  5
1EC
330
1AA
100
AcDbEntity
  8
0
  6
Continuous
 62
     7
370
    25
100
AcDbSpline
210
0.0
220
0.0
230
1.0
 70
     8
 71
     3
 72
    11
 73
     7
 74
     0
 42
0.00000001
 43
0.00000001
 40
0.0
 40
0.0
 40
0.0
 40
0.0
 40
0.1280831678322872
 40
0.4999999998004108
 40
0.8719168317685349
 40
1.0
 40
1.0
 40
1.0
 40
1.0
 10
0.3421650966901049
 20
0.2381201049458921
 30
0.0
 10
0.3430604148397648
 20
0.2384999099689293
 30
0.0
 10
0.3465554804461797
 20
0.2399825599896675
 30
0.0
 10
0.3543307088287624
 20
0.2404695744020036
 30
0.0
 10
0.3621059372147348
 20
0.239982559991388
 30
0.0
 10
0.3656010028251139
 20
0.2384999099702882
 30
0.0
 10
0.3664963209778648
 20
0.2381201049462779
 30
0.0
  0
SPLINE
  5
1ED
330
1AA
100
AcDbEntity
  8
0
  6
Continuous
 62
     7
370
    25
100
AcDbSpline
210
0.0
220
0.0
230
1.0
 70
     8
 71
     3
 72
    11
 73
     7
 74
     0
 42
0.00000001
 43
0.00000001
 40
0.0
 40
0.0
 40
0.0
 40
0.0
 40
0.292009249254285
 40
0.5840184985085696
 40
0.8760277477628549
 40
1.0
 40
1.0
 40
1.0
 40
1.0
 10
0.0173992808756671
 20
0.4629328626152694
 30
0.0
 10
0.019424835787558
 20
0.4614636432875373
 30
0.0
 10
0.0234759456113396
 20
0.4585252046320726
 30
0.0
 10
0.025096472760417
 20
0.4529130598315999
 30
0.0
 10
0.0240292546257098
 20
0.4482581887701282
 30
0.0
 10
0.021286212758339
 20
0.4461301865619541
 30
0.0
 10
0.0204687218914147
 20
0.4454959919509748
 30
0.0
  0
SPLINE
  5
1EE
330
1AA
100
AcDbEntity
  8
0
  6
Continuous
 62
     7
370
    25
100
AcDbSpline
210
0.0
220
0.0
230
1.0
 70
     8
 71
     3
 72
    11
 73
     7
 74
     0
 42
0.00000001
 43
0.00000001
 40
0.0
 40
0.0
 40
0.0
 40
0.0
 40
0.1428210343742152
 40
0.4285473562494768
 40
0.7142736781247391
 40
1.0
 40
1.0
 40
1.0
 40
1.0
 10
-0.0200670548765437
 20
0.4451489628497867
 30
0.0
 10
-0.0210378436905718
 20
0.4458932663353765
 30
0.0
 10
-0.0239507828213599
 20
0.4481266158723995
 30
0.0
 10
-0.025111795206184
 20
0.4529086645582456
 30
0.0
 10
-0.0234721150001457
 20
0.458526303449973
 30
0.0
 10
-0.0194235589174551
 20
0.4614640095599997
 30
0.0
 10
-0.0173992808761098
 20
0.4629328626150131
 30
0.0
  0
SPLINE
  5
1F0
330
1AA
100
AcDbEntity
  8
0
  6
Continuous
 62
     7
370
    25
100
AcDbSpline
210
0.0
220
0.0
230
1.0
 70
     8
 71
     3
 72
    10
 73
     6
 74
     0
 42
0.00000001
 43
0.00000001
 40
0.0
 40
0.0
 40
0.0
 40
0.0
 40
0.4999999999999999
 40
0.4999999999999999
 40
1.0
 40
1.0
 40
1.0
 40
1.0
 10
-0.0173992808761098
 20
0.4629328626150132
 30
0.0
 10
-0.012784835271476
 20
0.4655967253586059
 30
0.0
 10
-0.0065258115547089
 20
0.4670933856109363
 30
0.0
 10
0.0065258115540824
 20
0.4670933856110321
 30
0.0
 10
0.0127848352709156
 20
0.4655967253587936
 30
0.0
 10
0.0173992808756671
 20
0.4629328626152687
 30
0.0
  0
SPLINE
  5
1F1
330
1AA
100
AcDbEntity
  8
0
  6
Continuous
 62
     7
370
    25
100
AcDbSpline
210
0.0
220
0.0
230
1.0
 70
     8
 71
     3
 72
    11
 73
     7
 74
     0
 42
0.00000001
 43
0.00000001
 40
0.0
 40
0.0
 40
0.0
 40
0.0
 40
0.2690641591077038
 40
0.538128318215408
 40
0.8071924773231126
 40
1.0
 40
1.0
 40
1.0
 40
1.0
 10
-0.0222229505049166
 20
0.4601473121712554
 30
0.0
 10
-0.0189750539639034
 20
0.4616376660685687
 30
0.0
 10
-0.012479260881877
 20
0.4646183738631953
 30
0.0
 10
-0.0000218508406576
 20
0.4658605097465738
 30
0.0
 10
0.0113774091029096
 20
0.4648161774957872
 30
0.0
 10
0.0169902106312547
 20
0.4623086975532583
 30
0.0
 10
0.0193332647751585
 20
0.4612619544535016
 30
0.0
  0
SPLINE
  5
1F2
330
1AA
100
AcDbEntity
  8
0
  6
Continuous
 62
     7
370
    25
100
AcDbSpline
210
0.0
220
0.0
230
1.0
 70
     8
 71
     3
 72
    12
 73
     8
 74
     0
 42
0.00000001
 43
0.00000001
 40
0.0
 40
0.0
 40
0.0
 40
0.0
 40
0.2011717465200799
 40
0.4023434930401595
 40
0.6035152395602397
 40
0.804686986080319
 40
1.0
 40
1.0
 40
1.0
 40
1.0
 10
-0.0173992808899404
 20
0.4517924705106877
 30
0.0
 10
-0.0148615030149774
 20
0.4529558718998091
 30
0.0
 10
-0.0097859472650513
 20
0.4552826746780519
 30
0.0
 10
0.0000445321464612
 20
0.4563070836633306
 30
0.0
 10
0.009607818633789
 20
0.4552069517564848
 30
0.0
 10
0.0179410417643698
 20
0.4521255685314288
 30
0.0
 10
0.0210475917306646
 20
0.4489048426279522
 30
0.0
 10
0.0225779144500957
 20
0.4473182755111745
 30
0.0
  0
SPLINE
  5
1F3
330
1AA
100
AcDbEntity
  8
0
  6
Continuous
 62
     7
370
    25
100
AcDbSpline
210
0.0
220
0.0
230
1.0
 70
     8
 71
     3
 72
    11
 73
     7
 74
     0
 42
0.00000001
 43
0.00000001
 40
0.0
 40
0.0
 40
0.0
 40
0.0
 40
0.269064159103529
 40
0.5381283182070584
 40
0.8071924773105883
 40
1.0
 40
1.0
 40
1.0
 40
1.0
 10
-0.0222229505049166
 20
0.4490069200749142
 30
0.0
 10
-0.0189750539639039
 20
0.4504972739722269
 30
0.0
 10
-0.0124792608818783
 20
0.4534779817668524
 30
0.0
 10
-0.0000218508406523
 20
0.4547201176502385
 30
0.0
 10
0.0113774091031342
 20
0.4536757853994037
 30
0.0
 10
0.0169902106316581
 20
0.4511683054567792
 30
0.0
 10
0.0193332647757465
 20
0.4501215623569337
 30
0.0
  0
SPLINE
  5
1F4
330
1AA
100
AcDbEntity
  8
0
  6
Continuous
 62
     7
370
    25
100
AcDbSpline
210
0.0
220
0.0
230
1.0
 70
     8
 71
     3
 72
    11
 73
     7
 74
     0
 42
0.00000001
 43
0.00000001
 40
0.0
 40
0.0
 40
0.0
 40
0.0
 40
0.1280831490302521
 40
0.4999999997610367
 40
0.8719168504918222
 40
1.0
 40
1.0
 40
1.0
 40
1.0
 10
-0.012165611607124
 20
0.4426708693785502
 30
0.0
 10
-0.011270293630844
 20
0.4430506743233627
 30
0.0
 10
-0.0077752281884705
 20
0.4445333242562636
 30
0.0
 10
-0.0000000000075238
 20
0.4450203386066429
 30
0.0
 10
0.00777522817747
 20
0.4445333242582611
 30
0.0
 10
0.0112702936245542
 20
0.4430506743248993
 30
0.0
 10
0.0121656116045258
 20
0.4426708693789146
 30
0.0
  0
LINE
  5
1F5
330
1AA
100
AcDbEntity
  8
0
  6
Continuous
 62
     7
370
    25
100
AcDbLine
 10
1.0161180119
 20
0.0562903856
 30
0.0
 11
0.3479856209
 21
-0.3294142338
 31
0.0
  0
LINE
  5
1F6
330
1AA
100
AcDbEntity
  8
0
  6
Continuous
 62
     7
370
    25
100
AcDbLine
 10
1.0439568621
 20
0.0402167477
 30
0.0
 11
1.0161180119
 21
0.0562903856
 31
0.0
  0
LINE
  5
1F7
330
1AA
100
AcDbEntity
  8
0
  6
Continuous
 62
     7
370
    25
100
AcDbLine
 10
0.3479856212
 20
-0.3615588976
 30
0.0
 11
1.0439568621
 21
0.0402167477
 31
0.0
  0
LINE
  5
1F8
330
1AA
100
AcDbEntity
  8
0
  6
Continuous
 62
     7
370
    25
100
AcDbLine
 10
0.3479856212
 20
-0.859841677
 30
0.0
 11
0.3479856209
 21
-0.3294142338
 31
0.0
  0
LINE
  5
1F9
330
1AA
100
AcDbEntity
  8
0
  6
Continuous
 62
     7
370
    25
100
AcDbLine
 10
-1.0161180119
 20
0.458066031
 30
0.0
 11
-1.0439568614
 21
0.4419923934
 31
0.0
  0
LINE
  5
1FA
330
1AA
100
AcDbEntity
  8
0
  6
Continuous
 62
     7
370
    25
100
AcDbLine
 10
-1.0161180123
 20
0.4580660312
 30
0.0
 11
0.3479856205
 21
-0.329414234
 31
0.0
  0
LINE
  5
1FB
330
1AA
100
AcDbEntity
  8
0
  6
Continuous
 62
     7
370
    25
100
AcDbLine
 10
0.3479856212
 20
-0.3615588977
 30
0.0
 11
-1.0439568622
 21
0.4419923939
 31
0.0
  0
LINE
  5
1FC
330
1AA
100
AcDbEntity
  8
0
  6
Continuous
 62
     7
370
    25
100
AcDbLine
 10
1.0439568622
 20
0.0402167477
 30
0.0
 11
1.0439568622
 21
-0.4580660316
 31
0.0
  0
LINE
  5
1FD
330
1AA
100
AcDbEntity
  8
0
  6
Continuous
 62
     7
370
    25
100
AcDbLine
 10
1.0439568622
 20
-0.4580660316
 30
0.0
 11
0.3479856212
 21
-0.859841677
 31
0.0
  0
LINE
  5
1FE
330
1AA
100
AcDbEntity
  8
0
  6
Continuous
 62
     7
370
    25
100
AcDbLine
 10
0.3479856212
 20
-0.859841677
 30
0.0
 11
-1.0439568622
 21
-0.0562903854
 31
0.0
  0
LINE
  5
1FF
330
1AA
100
AcDbEntity
  8
0
  6
Continuous
 62
     7
370
    25
100
AcDbLine
 10
-1.0439568622
 20
-0.0562903854
 30
0.0
 11
-1.0439568622
 21
0.4419923939
 31
0.0
  0
LINE
  5
200
330
1AA
100
AcDbEntity
  8
0
  6
Continuous
 62
     7
370
    25
100
AcDbLine
 10
-0.3479856205
 20
0.8437706511
 30
0.0
 11
-1.0161180123
 21
0.4580660312
 31
0.0
  0
LINE
  5
201
330
1AA
100
AcDbEntity
  8
0
  6
Continuous
 62
     7
370
    25
100
AcDbLine
 10
1.0161180123
 20
0.0562903858
 30
0.0
 11
-0.3479856205
 21
0.8437706511
 31
0.0
  0
LINE
  5
202
330
1AA
100
AcDbEntity
  8
0
  6
Continuous
 62
     7
370
    25
100
AcDbLine
 10
1.0126646025
 20
-0.4761306686
 30
0.0
 11
1.0126646025
 21
-0.4898074648
 31
0.0
  0
LINE
  5
203
330
1AA
100
AcDbEntity
  8
0
  6
Continuous
 62
     7
370
    25
100
AcDbLine
 10
1.0126646025
 20
-0.4898074648
 30
0.0
 11
0.3481623972
 21
-0.8734164226
 31
0.0
  0
LINE
  5
204
330
1AA
100
AcDbEntity
  8
0
  6
Continuous
 62
     7
370
    25
100
AcDbLine
 10
0.3481623972
 20
-0.859720226
 30
0.0
 11
0.3481623972
 21
-0.8734164226
 31
0.0
  0
LINE
  5
205
330
1AA
100
AcDbEntity
  8
0
  6
Continuous
 62
     7
370
    25
100
AcDbLine
 10
0.3481623972
 20
-0.8734164226
 30
0.0
 11
-1.0123110498
 21
-0.088031819
 31
0.0
  0
LINE
  5
206
330
1AA
100
AcDbEntity
  8
0
  6
Continuous
 62
     7
370
    25
100
AcDbLine
 10
-1.0123110498
 20
-0.088031819
 30
0.0
 11
-1.0123110498
 21
-0.074559124
 31
0.0
  0
LINE
  5
207
330
1AA
100
AcDbEntity
  8
0
  6
Continuous
 62
     7
370
    25
100
AcDbLine
 10
-0.0225779144
 20
0.0382167471
 30
0.0
 11
-0.0173992809
 21
0.0426909421
 31
0.0
  0
LINE
  5
208
330
1AA
100
AcDbEntity
  8
0
  6
Continuous
 62
     7
370
    25
100
AcDbLine
 10
0.3717299897
 20
0.2472417063
 30
0.0
 11
0.3769086233
 21
0.2427675113
 31
0.0
  0
LINE
  5
209
330
1AA
100
AcDbEntity
  8
0
  6
Continuous
 62
     7
370
    25
100
AcDbLine
 10
-0.3369314279
 20
0.2472417063
 30
0.0
 11
-0.3317527944
 21
0.2427675113
 31
0.0
  0
LINE
  5
20A
330
1AA
100
AcDbEntity
  8
0
  6
Continuous
 62
     7
370
    25
100
AcDbLine
 10
-0.0225779144
 20
0.4473182755
 30
0.0
 11
-0.0173992809
 21
0.4517924705
 31
0.0
  0
VIEWPORT
  5
2CE
330
1AA
100
AcDbEntity
  8
0
100
AcDbViewport
 10
0.0
 20
0.0
 30
0.0
 40
8.4
 41
6.4
 68
     1
 69
     1
 12
0.0
 22
-0.0157640079
 13
0.0
 23
0.0
 14
0.5
 24
0.5
 15
0.5
 25
0.5
 16
0.0
 26
0.0
 36
1.0
 17
0.0
 27
0.0
 37
0.0
 42
50.0
 43
0.0
 44
0.0
 45
1.7099679532
 50
0.0
 51
0.0
 72
   100
 90
   557152
  1

281
     0
 71
     1
 74
     0
110
0.0
120
0.0
130
0.0
111
1.0
121
0.0
131
0.0
112
0.0
122
1.0
132
0.0
 79
     0
146
0.0
  0
ENDBLK
  5
1AD
330
1AA
100
AcDbEntity
  8
0
100
AcDbBlockEnd
  0
BLOCK
  5
20D
330
20B
100
AcDbEntity
  8
0
100
AcDbBlockBegin
  2
*Paper_Space6
 70
     0
 10
0.0
 20
0.0
 30
0.0
  3
*Paper_Space6
  1

  0
SPLINE
  5
219
330
20B
100
AcDbEntity
  8
0
  6
Continuous
 62
     7
370
    25
100
AcDbSpline
210
0.0
220
0.0
230
1.0
 70
     8
 71
     3
 72
    14
 73
    10
 74
     0
 42
0.00000001
 43
0.00000001
 40
0.0
 40
0.0
 40
0.0
 40
0.0
 40
0.25
 40
0.25
 40
0.5000000000000001
 40
0.5000000000000001
 40
0.75
 40
0.75
 40
1.0
 40
1.0
 40
1.0
 40
1.0
 10
0.9647627462441563
 20
-0.144567785792585
 30
0.0
 10
0.9647627462505027
 20
-0.172983844398046
 30
0.0
 10
0.9709092498222262
 20
-0.1942390234801812
 30
0.0
 10
0.9927892213550447
 20
-0.2130698759698479
 30
0.0
 10
1.007628193628181
 20
-0.2098757075918307
 30
0.0
 10
1.0385711461061
 20
-0.1796744373667692
 30
0.0
 10
1.05341011837782
 20
-0.1539020220432727
 30
0.0
 10
1.075290089905592
 20
-0.0923601235941317
 30
0.0
 10
1.081436593473893
 20
-0.0591065926811739
 30
0.0
 10
1.081436593476672
 20
-0.0306905340668066
 30
0.0
  0
SPLINE
  5
21A
330
20B
100
AcDbEntity
  8
0
  6
Continuous
 62
     7
370
    25
100
AcDbSpline
210
0.0
220
0.0
230
1.0
 70
     8
 71
     3
 72
    12
 73
     8
 74
     0
 42
0.00000001
 43
0.00000001
 40
0.0
 40
0.0
 40
0.0
 40
0.0
 40
0.3333333333333333
 40
0.3333333333333333
 40
0.6666666666666665
 40
0.6666666666666665
 40
0.9999999999999999
 40
0.9999999999999999
 40
0.9999999999999999
 40
0.9999999999999999
 10
1.081436593476672
 20
-0.0306905340475648
 30
0.0
 10
1.081436593476672
 20
0.0075834249592333
 30
0.0
 10
1.070315003489227
 20
0.0321085558977188
 30
0.0
 10
1.034221259834042
 20
0.035153914583129
 30
0.0
 10
1.011978079861787
 20
0.013443889025625
 30
0.0
 10
0.9758843362151505
 20
-0.0600586703032822
 30
0.0
 10
0.964762746235608
 20
-0.1062938267941301
 30
0.0
 10
0.9647627462441563
 20
-0.1445677857925849
 30
0.0
  0
SPLINE
  5
21B
330
20B
100
AcDbEntity
  8
0
  6
Continuous
 62
     7
370
    25
100
AcDbSpline
210
0.0
220
0.0
230
1.0
 70
     8
 71
     3
 72
    12
 73
     8
 74
     0
 42
0.00000001
 43
0.00000001
 40
0.0
 40
0.0
 40
0.0
 40
0.0
 40
0.3333333333333333
 40
0.3333333333333333
 40
0.6666666666666665
 40
0.6666666666666665
 40
0.9999999999999999
 40
0.9999999999999999
 40
0.9999999999999999
 40
0.9999999999999999
 10
0.9288272012965413
 20
-0.1796419792725621
 30
0.0
 10
0.9288272012965413
 20
-0.141368020265764
 30
0.0
 10
0.917705611309097
 20
-0.1168428893272785
 30
0.0
 10
0.8816118676539119
 20
-0.1137975306418684
 30
0.0
 10
0.8593686876816572
 20
-0.1355075561993724
 30
0.0
 10
0.8232749440350201
 20
-0.2090101155282796
 30
0.0
 10
0.8121533540554776
 20
-0.2552452720191275
 30
0.0
 10
0.8121533540640259
 20
-0.2935192310175823
 30
0.0
  0
SPLINE
  5
21C
330
20B
100
AcDbEntity
  8
0
  6
Continuous
 62
     7
370
    25
100
AcDbSpline
210
0.0
220
0.0
230
1.0
 70
     8
 71
     3
 72
    14
 73
    10
 74
     0
 42
0.00000001
 43
0.00000001
 40
0.0
 40
0.0
 40
0.0
 40
0.0
 40
0.25
 40
0.25
 40
0.5000000000000001
 40
0.5000000000000001
 40
0.75
 40
0.75
 40
1.0
 40
1.0
 40
1.0
 40
1.0
 10
0.8121533540640259
 20
-0.2935192310175824
 30
0.0
 10
0.8121533540703724
 20
-0.3219352896230434
 30
0.0
 10
0.8182998576420958
 20
-0.3431904687051786
 30
0.0
 10
0.8401798291749143
 20
-0.3620213211948453
 30
0.0
 10
0.8550188014480512
 20
-0.358827152816828
 30
0.0
 10
0.8859617539259699
 20
-0.3286258825917666
 30
0.0
 10
0.9008007261976891
 20
-0.3028534672682701
 30
0.0
 10
0.9226806977254617
 20
-0.2413115688191289
 30
0.0
 10
0.928827201293763
 20
-0.2080580379061711
 30
0.0
 10
0.9288272012965413
 20
-0.1796419792918039
 30
0.0
  0
SPLINE
  5
221
330
20B
100
AcDbEntity
  8
0
  6
Continuous
 62
     7
370
    25
100
AcDbSpline
210
0.0
220
0.0
230
1.0
 70
     8
 71
     3
 72
    25
 73
    21
 74
     0
 42
0.00000001
 43
0.00000001
 40
0.0
 40
0.0
 40
0.0
 40
0.0
 40
0.0312831305250867
 40
0.0625662518262054
 40
0.1250567891594311
 40
0.1875473258269893
 40
0.2500378599578951
 40
0.3125283987838809
 40
0.3750189324650791
 40
0.4375094667148555
 40
0.5000000014625694
 40
0.5624905362102839
 40
0.6249810704600608
 40
0.6874716041412591
 40
0.7499621429672446
 40
0.8124526717054091
 40
0.8749432083729681
 40
0.9374337481737947
 40
0.9687168694749133
 40
1.0
 40
1.0
 40
1.0
 40
1.0
 10
-0.1211967343549697
 20
0.4281850811306929
 30
0.0
 10
-0.1222070158961736
 20
0.4284787633719813
 30
0.0
 10
-0.1242275786806954
 20
0.4290661277679642
 30
0.0
 10
-0.1279575028895159
 20
0.4304903712357124
 30
0.0
 10
-0.1321083231433629
 20
0.4325966895906828
 30
0.0
 10
-0.1360203881482361
 20
0.4355812132604558
 30
0.0
 10
-0.1387307555381343
 20
0.4388999311559142
 30
0.0
 10
-0.1401308924964793
 20
0.4424276275750499
 30
0.0
 10
-0.1401681590738638
 20
0.4460281143910051
 30
0.0
 10
-0.1388408092619327
 20
0.4495631921107042
 30
0.0
 10
-0.1361999436871778
 20
0.4528969678624245
 30
0.0
 10
-0.1323470178492618
 20
0.4559013316024903
 30
0.0
 10
-0.1274301071394673
 20
0.4584608435954477
 30
0.0
 10
-0.1216381811345188
 20
0.4604770807342058
 30
0.0
 10
-0.1151937329825426
 20
0.4618727870598697
 30
0.0
 10
-0.1083447551329852
 20
0.4625934791754787
 30
0.0
 10
-0.1013532000612813
 20
0.4626146324028612
 30
0.0
 10
-0.0956344885572042
 20
0.4620386242750313
 30
0.0
 10
-0.0912465630893429
 20
0.4612566100572619
 30
0.0
 10
-0.0891647429780736
 20
0.4607290346952045
 30
0.0
 10
-0.0881238327689805
 20
0.4604652469752863
 30
0.0
  0
SPLINE
  5
222
330
20B
100
AcDbEntity
  8
0
  6
Continuous
 62
     7
370
    25
100
AcDbSpline
210
0.0
220
0.0
230
1.0
 70
     8
 71
     3
 72
    25
 73
    21
 74
     0
 42
0.00000001
 43
0.00000001
 40
0.0
 40
0.0
 40
0.0
 40
0.0
 40
0.0312831343803887
 40
0.06256626807862
 40
0.1250568069238849
 40
0.1875473273297478
 40
0.2500378685282915
 40
0.3125283953885363
 40
0.3750189281141752
 40
0.4375094664464089
 40
0.4999999985374314
 40
0.5624905306284527
 40
0.6249810689606865
 40
0.6874716016863252
 40
0.7499621285465701
 40
0.812452675137854
 40
0.8749431955437165
 40
0.9374337319213799
 40
0.9687168656196113
 40
0.9999999999999999
 40
0.9999999999999999
 40
0.9999999999999999
 40
0.9999999999999999
 10
-0.0881238327689805
 20
0.4604652469752863
 30
0.0
 10
-0.087113551100683
 20
0.4601715646845695
 30
0.0
 10
-0.0850929877861182
 20
0.4595842001095396
 30
0.0
 10
-0.0813630626793595
 20
0.4581599566419758
 30
0.0
 10
-0.0772122429230701
 20
0.4560536378702242
 30
0.0
 10
-0.0733001800094754
 20
0.4530691138041176
 30
0.0
 10
-0.070589808915808
 20
0.4497503970528838
 30
0.0
 10
-0.0691896750779041
 20
0.4462227001915334
 30
0.0
 10
-0.0691524087640477
 20
0.4426222137659075
 30
0.0
 10
-0.0704797546271761
 20
0.4390871353754072
 30
0.0
 10
-0.0731206249616144
 20
0.4357533606591198
 30
0.0
 10
-0.0769735464537322
 20
0.432748995472938
 30
0.0
 10
-0.0818904604777566
 20
0.4301894848037381
 30
0.0
 10
-0.0876823856666403
 20
0.4281732476862851
 30
0.0
 10
-0.0941268332934499
 20
0.4267775400283828
 30
0.0
 10
-0.1009758112443004
 20
0.4260568489396191
 30
0.0
 10
-0.1079673662961777
 20
0.4260356944583631
 30
0.0
 10
-0.1136860774348897
 20
0.4266117034759253
 30
0.0
 10
-0.1180740033083737
 20
0.4273937178724128
 30
0.0
 10
-0.1201558239985384
 20
0.4279212933760154
 30
0.0
 10
-0.1211967343549697
 20
0.4281850811306929
 30
0.0
  0
SPLINE
  5
223
330
20B
100
AcDbEntity
  8
0
  6
Continuous
 62
     7
370
    25
100
AcDbSpline
210
0.0
220
0.0
230
1.0
 70
     8
 71
     3
 72
    25
 73
    21
 74
     0
 42
0.00000001
 43
0.00000001
 40
0.0
 40
0.0
 40
0.0
 40
0.0
 40
0.0312831305250868
 40
0.0625662518262054
 40
0.1250567916270318
 40
0.1875473282945913
 40
0.2500378570327553
 40
0.312528395858741
 40
0.3750189295399393
 40
0.4375094637897163
 40
0.4999999985374308
 40
0.5624905332851446
 40
0.624981067534921
 40
0.6874716012161193
 40
0.7499621400421042
 40
0.8124526741730107
 40
0.8749432108405698
 40
0.9374337481737947
 40
0.9687168694749134
 40
1.0
 40
1.0
 40
1.0
 40
1.0
 10
-0.3550574642531987
 20
0.199929839417927
 30
0.0
 10
-0.3560677457885151
 20
0.2002235216624168
 30
0.0
 10
-0.3580883085612617
 20
0.2008108860648028
 30
0.0
 10
-0.3618182329613608
 20
0.202235129496663
 30
0.0
 10
-0.3659690523564978
 20
0.2043414483887734
 30
0.0
 10
-0.3698811173261866
 20
0.2073259719070907
 30
0.0
 10
-0.3725914857164666
 20
0.2106446894986745
 30
0.0
 10
-0.3739916223304524
 20
0.2141723858746079
 30
0.0
 10
-0.374028888989289
 20
0.217772872674893
 30
0.0
 10
-0.3727015391556329
 20
0.2213079503989988
 30
0.0
 10
-0.3700606735863251
 20
0.2246417261487624
 30
0.0
 10
-0.3662077477483465
 20
0.2276460898922482
 30
0.0
 10
-0.3612908370333542
 20
0.2302056018734819
 30
0.0
 10
-0.35549891104926
 20
0.232221839055715
 30
0.0
 10
-0.3490544626336855
 20
0.2336175452593511
 30
0.0
 10
-0.3422054848616821
 20
0.2343382379717945
 30
0.0
 10
-0.3352139295273653
 20
0.2343593912696981
 30
0.0
 10
-0.329495218399573
 20
0.2337833824736154
 30
0.0
 10
-0.3251072929821466
 20
0.2330013683574263
 30
0.0
 10
-0.3230254728744941
 20
0.2324737929867487
 30
0.0
 10
-0.3219845626672095
 20
0.2322100052625203
 30
0.0
  0
SPLINE
  5
224
330
20B
100
AcDbEntity
  8
0
  6
Continuous
 62
     7
370
    25
100
AcDbSpline
210
0.0
220
0.0
230
1.0
 70
     8
 71
     3
 72
    25
 73
    21
 74
     0
 42
0.00000001
 43
0.00000001
 40
0.0
 40
0.0
 40
0.0
 40
0.0
 40
0.0312831343803886
 40
0.0625662680786201
 40
0.1250568044562833
 40
0.1875473248621463
 40
0.250037871453431
 40
0.3125283983136748
 40
0.3750189310393135
 40
0.437509469371548
 40
0.5000000014625686
 40
0.5624905335535906
 40
0.6249810718858247
 40
0.6874716046114636
 40
0.7499621314717085
 40
0.812452672670252
 40
0.8749431930761152
 40
0.9374337319213799
 40
0.9687168656196112
 40
0.9999999999999999
 40
0.9999999999999999
 40
0.9999999999999999
 40
0.9999999999999999
 10
-0.3219845626672095
 20
0.2322100052625203
 30
0.0
 10
-0.3209742809930244
 20
0.231916322975005
 30
0.0
 10
-0.3189537176666842
 20
0.2313289584063782
 30
0.0
 10
-0.3152237927512047
 20
0.2299047149029265
 30
0.0
 10
-0.3110729721362052
 20
0.2277983966683148
 30
0.0
 10
-0.3071609091874259
 20
0.2248138724507524
 30
0.0
 10
-0.3044505390941405
 20
0.2214951553956441
 30
0.0
 10
-0.3030504049118771
 20
0.2179674584910916
 30
0.0
 10
-0.3030131386794727
 20
0.2143669720497955
 30
0.0
 10
-0.3043404845208766
 20
0.2108318936637018
 30
0.0
 10
-0.3069813548607614
 20
0.2074981189454576
 30
0.0
 10
-0.3108342763528171
 20
0.204493753762696
 30
0.0
 10
-0.3157511903716433
 20
0.2019342430817724
 30
0.0
 10
-0.3215431155813816
 20
0.1999180060077941
 30
0.0
 10
-0.3279875629445931
 20
0.1985222982278645
 30
0.0
 10
-0.334836540972997
 20
0.1978016077359348
 30
0.0
 10
-0.3418280957622619
 20
0.1977804533251997
 30
0.0
 10
-0.3475468072772585
 20
0.1983564616745093
 30
0.0
 10
-0.3519347332011774
 20
0.1991384761725771
 30
0.0
 10
-0.3540165538949589
 20
0.1996660516675595
 30
0.0
 10
-0.3550574642531987
 20
0.199929839417927
 30
0.0
  0
SPLINE
  5
225
330
20B
100
AcDbEntity
  8
0
  6
Continuous
 62
     7
370
    25
100
AcDbSpline
210
0.0
220
0.0
230
1.0
 70
     8
 71
     3
 72
    25
 73
    21
 74
     0
 42
0.00000001
 43
0.00000001
 40
0.0
 40
0.0
 40
0.0
 40
0.0
 40
0.0312831343803887
 40
0.0625662680786206
 40
0.1250568069238847
 40
0.1875473273297479
 40
0.2500378685282914
 40
0.3125283953885362
 40
0.3750189281141739
 40
0.4375094664464095
 40
0.4999999985374313
 40
0.5624905306284521
 40
0.6249810689606874
 40
0.6874716016863252
 40
0.7499621285465691
 40
0.8124526751378538
 40
0.8749431955437167
 40
0.9374337319213791
 40
0.9687168656196113
 40
0.9999999999999999
 40
0.9999999999999999
 40
0.9999999999999999
 40
0.9999999999999999
 10
0.0881238327689805
 20
0.079482659113801
 30
0.0
 10
0.087113551100683
 20
0.0797763414045179
 30
0.0
 10
0.0850929877861181
 20
0.0803637059795477
 30
0.0
 10
0.0813630626793596
 20
0.0817879494471113
 30
0.0
 10
0.07721224292307
 20
0.0838942682188632
 30
0.0
 10
0.0733001800094755
 20
0.0868787922849695
 30
0.0
 10
0.070589808915808
 20
0.0901975090362036
 30
0.0
 10
0.069189675077904
 20
0.0937252058975538
 30
0.0
 10
0.069152408764048
 20
0.0973256923231796
 30
0.0
 10
0.0704797546271758
 20
0.1008607707136802
 30
0.0
 10
0.0731206249616145
 20
0.1041945454299675
 30
0.0
 10
0.0769735464537318
 20
0.1071989106161496
 30
0.0
 10
0.0818904604777569
 20
0.1097584212853489
 30
0.0
 10
0.0876823856666402
 20
0.1117746584028024
 30
0.0
 10
0.09412683329345
 20
0.1131703660607043
 30
0.0
 10
0.1009758112443004
 20
0.1138910571494683
 30
0.0
 10
0.1079673662961776
 20
0.1139122116307243
 30
0.0
 10
0.1136860774348898
 20
0.1133362026131619
 30
0.0
 10
0.1180740033083737
 20
0.1125541882166746
 30
0.0
 10
0.1201558239985384
 20
0.1120266127130717
 30
0.0
 10
0.1211967343549697
 20
0.1117628249583943
 30
0.0
  0
SPLINE
  5
226
330
20B
100
AcDbEntity
  8
0
  6
Continuous
 62
     7
370
    25
100
AcDbSpline
210
0.0
220
0.0
230
1.0
 70
     8
 71
     3
 72
    25
 73
    21
 74
     0
 42
0.00000001
 43
0.00000001
 40
0.0
 40
0.0
 40
0.0
 40
0.0
 40
0.0312831305250879
 40
0.0625662518262055
 40
0.1250567891594303
 40
0.1875473258269893
 40
0.2500378599578958
 40
0.3125283987838794
 40
0.3750189324650793
 40
0.437509466714856
 40
0.5000000014625693
 40
0.5624905362102837
 40
0.6249810704600606
 40
0.6874716041412605
 40
0.749962142967245
 40
0.8124526717054088
 40
0.8749432083729684
 40
0.9374337481737947
 40
0.968716869474912
 40
1.0
 40
1.0
 40
1.0
 40
1.0
 10
0.1211967343549697
 20
0.1117628249583943
 30
0.0
 10
0.1222070158961737
 20
0.111469142717106
 30
0.0
 10
0.1242275786806956
 20
0.1108817783211232
 30
0.0
 10
0.1279575028895159
 20
0.1094575348533748
 30
0.0
 10
0.1321083231433629
 20
0.1073512164984046
 30
0.0
 10
0.1360203881482361
 20
0.1043666928286315
 30
0.0
 10
0.1387307555381343
 20
0.1010479749331732
 30
0.0
 10
0.1401308924964789
 20
0.0975202785140374
 30
0.0
 10
0.1401681590738642
 20
0.0939197916980824
 30
0.0
 10
0.1388408092619329
 20
0.0903847139783829
 30
0.0
 10
0.1361999436871777
 20
0.0870509382266628
 30
0.0
 10
0.1323470178492619
 20
0.0840465744865969
 30
0.0
 10
0.1274301071394676
 20
0.0814870624936395
 30
0.0
 10
0.1216381811345184
 20
0.0794708253548817
 30
0.0
 10
0.1151937329825426
 20
0.0780751190292175
 30
0.0
 10
0.1083447551329852
 20
0.0773544269136087
 30
0.0
 10
0.1013532000612812
 20
0.0773332736862258
 30
0.0
 10
0.0956344885572043
 20
0.0779092818140559
 30
0.0
 10
0.0912465630893429
 20
0.0786912960318255
 30
0.0
 10
0.0891647429780737
 20
0.0792188713938828
 30
0.0
 10
0.0881238327689805
 20
0.079482659113801
 30
0.0
  0
SPLINE
  5
227
330
20B
100
AcDbEntity
  8
0
  6
Continuous
 62
     7
370
    25
100
AcDbSpline
210
0.0
220
0.0
230
1.0
 70
     8
 71
     3
 72
    25
 73
    21
 74
     0
 42
0.00000001
 43
0.00000001
 40
0.0
 40
0.0
 40
0.0
 40
0.0
 40
0.0312831343803887
 40
0.0625662680786207
 40
0.1250568044562835
 40
0.187547324862146
 40
0.2500378714534299
 40
0.3125283983136748
 40
0.3750189310393125
 40
0.4375094693715474
 40
0.5000000014625686
 40
0.5624905335535907
 40
0.624981071885826
 40
0.6874716046114637
 40
0.7499621314717085
 40
0.8124526726702522
 40
0.8749431930761151
 40
0.9374337319213794
 40
0.9687168656196112
 40
0.9999999999999999
 40
0.9999999999999999
 40
0.9999999999999999
 40
0.9999999999999999
 10
0.3219845626672095
 20
0.307737900826567
 30
0.0
 10
0.3209742809930244
 20
0.3080315831140824
 30
0.0
 10
0.3189537176666842
 20
0.3086189476827091
 30
0.0
 10
0.3152237927512047
 20
0.3100431911861606
 30
0.0
 10
0.3110729721362053
 20
0.3121495094207729
 30
0.0
 10
0.3071609091874258
 20
0.3151340336383347
 30
0.0
 10
0.3044505390941404
 20
0.3184527506934434
 30
0.0
 10
0.3030504049118771
 20
0.3219804475979958
 30
0.0
 10
0.303013138679473
 20
0.3255809340392917
 30
0.0
 10
0.3043404845208761
 20
0.3291160124253856
 30
0.0
 10
0.3069813548607616
 20
0.3324497871436295
 30
0.0
 10
0.3108342763528169
 20
0.3354541523263916
 30
0.0
 10
0.3157511903716437
 20
0.3380136630073146
 30
0.0
 10
0.3215431155813815
 20
0.3400299000812932
 30
0.0
 10
0.3279875629445931
 20
0.3414256078612229
 30
0.0
 10
0.334836540972997
 20
0.3421462983531523
 30
0.0
 10
0.341828095762262
 20
0.3421674527638878
 30
0.0
 10
0.3475468072772583
 20
0.3415914444145777
 30
0.0
 10
0.3519347332011774
 20
0.3408094299165104
 30
0.0
 10
0.3540165538949589
 20
0.3402818544215276
 30
0.0
 10
0.3550574642531987
 20
0.3400180666711603
 30
0.0
  0
SPLINE
  5
228
330
20B
100
AcDbEntity
  8
0
  6
Continuous
 62
     7
370
    25
100
AcDbSpline
210
0.0
220
0.0
230
1.0
 70
     8
 71
     3
 72
    25
 73
    21
 74
     0
 42
0.00000001
 43
0.00000001
 40
0.0
 40
0.0
 40
0.0
 40
0.0
 40
0.031283130525088
 40
0.0625662518262053
 40
0.1250567916270318
 40
0.1875473282945908
 40
0.2500378570327553
 40
0.3125283958587396
 40
0.3750189295399396
 40
0.4375094637897162
 40
0.4999999985374308
 40
0.5624905332851444
 40
0.6249810675349206
 40
0.6874716012161205
 40
0.749962140042105
 40
0.8124526741730108
 40
0.8749432108405694
 40
0.9374337481737945
 40
0.968716869474912
 40
1.0
 40
1.0
 40
1.0
 40
1.0
 10
0.3550574642531987
 20
0.3400180666711603
 30
0.0
 10
0.356067745788515
 20
0.3397243844266706
 30
0.0
 10
0.3580883085612616
 20
0.3391370200242846
 30
0.0
 10
0.361818232961361
 20
0.3377127765924241
 30
0.0
 10
0.3659690523564976
 20
0.3356064577003139
 30
0.0
 10
0.3698811173261868
 20
0.3326219341819968
 30
0.0
 10
0.3725914857164666
 20
0.3293032165904128
 30
0.0
 10
0.373991622330452
 20
0.3257755202144794
 30
0.0
 10
0.3740288889892894
 20
0.3221750334141945
 30
0.0
 10
0.3727015391556332
 20
0.3186399556900882
 30
0.0
 10
0.3700606735863249
 20
0.3153061799403249
 30
0.0
 10
0.3662077477483467
 20
0.3123018161968388
 30
0.0
 10
0.3612908370333544
 20
0.3097423042156053
 30
0.0
 10
0.3554989110492599
 20
0.3077260670333727
 30
0.0
 10
0.3490544626336855
 20
0.3063303608297359
 30
0.0
 10
0.3422054848616821
 20
0.305609668117293
 30
0.0
 10
0.3352139295273653
 20
0.3055885148193891
 30
0.0
 10
0.329495218399573
 20
0.3061645236154719
 30
0.0
 10
0.3251072929821466
 20
0.306946537731661
 30
0.0
 10
0.3230254728744941
 20
0.3074741131023386
 30
0.0
 10
0.3219845626672095
 20
0.307737900826567
 30
0.0
  0
SPLINE
  5
229
330
20B
100
AcDbEntity
  8
0
  6
Continuous
 62
     7
370
    25
100
AcDbSpline
210
0.0
220
0.0
230
1.0
 70
     8
 71
     3
 72
    33
 73
    29
 74
     0
 42
0.00000001
 43
0.00000001
 40
0.0
 40
0.0
 40
0.0
 40
0.0
 40
0.0125326068921781
 40
0.0250361825345119
 40
0.0375300660551971
 40
0.0500336415545698
 40
0.0625662481614876
 40
0.0938388079231206
 40
0.1251113678840797
 40
0.1563839278987392
 40
0.1876564877172139
 40
0.25012590569325
 40
0.3125953227502234
 40
0.3750647411486716
 40
0.4375341575448561
 40
0.5000035755504129
 40
0.5624729935559697
 40
0.6249424099521541
 40
0.6874118283506021
 40
0.7498812454075756
 40
0.8123506633836116
 40
0.8436232232020865
 40
0.8748957832167459
 40
0.906168343177705
 40
0.9374409029393381
 40
0.958308881670814
 40
0.9791320208719558
 40
1.0
 40
1.0
 40
1.0
 40
1.0
 10
0.2256568702281553
 20
0.2086452509583742
 30
0.0
 10
0.2240624695767077
 20
0.2071305908123633
 30
0.0
 10
0.2208773616349833
 20
0.2041047791660291
 30
0.0
 10
0.2156696132437887
 20
0.1996956461059832
 30
0.0
 10
0.2101572977528886
 20
0.195391836565256
 30
0.0
 10
0.2043088158469077
 20
0.1912018015163315
 30
0.0
 10
0.1950651424048657
 20
0.1850972851377324
 30
0.0
 10
0.1816692693563162
 20
0.1773974739972363
 30
0.0
 10
0.1631719920966523
 20
0.1686761085806414
 30
0.0
 10
0.1431107455000847
 20
0.1609226862777736
 30
0.0
 10
0.1145432983715637
 20
0.1520005678365396
 30
0.0
 10
0.0758453014374361
 20
0.1436151339179293
 30
0.0
 10
0.0265312543443707
 20
0.1384246408100973
 30
0.0
 10
-0.0238096058952209
 20
0.1382858433439648
 30
0.0
 10
-0.0732335365438006
 20
0.1432087362143278
 30
0.0
 10
-0.1198436712326809
 20
0.1530028558258771
 30
0.0
 10
-0.1618481084934934
 20
0.167292278029342
 30
0.0
 10
-0.1976329772276946
 20
0.185527311329092
 30
0.0
 10
-0.2258224383317183
 20
0.207008966289139
 30
0.0
 10
-0.2453354378651032
 20
0.23090518016739
 30
0.0
 10
-0.2537360655470875
 20
0.2520909977317997
 30
0.0
 10
-0.2555586484870898
 20
0.2692725023609454
 30
0.0
 10
-0.2544542939521559
 20
0.2821779186421035
 30
0.0
 10
-0.2509133596536301
 20
0.294964409539372
 30
0.0
 10
-0.2456082112277203
 20
0.3061211322562983
 30
0.0
 10
-0.2394312888458114
 20
0.3156378855528923
 30
0.0
 10
-0.2331735024975297
 20
0.3236206411128832
 30
0.0
 10
-0.2281642101944603
 20
0.3287401484018553
 30
0.0
 10
-0.2256568702281553
 20
0.3313026551307131
 30
0.0
  0
SPLINE
  5
22A
330
20B
100
AcDbEntity
  8
0
  6
Continuous
 62
     7
370
    25
100
AcDbSpline
210
0.0
220
0.0
230
1.0
 70
     8
 71
     3
 72
    33
 73
    29
 74
     0
 42
0.00000001
 43
0.00000001
 40
0.0
 40
0.0
 40
0.0
 40
0.0
 40
0.012532606892178
 40
0.025036182534512
 40
0.037530066055197
 40
0.0500336415545698
 40
0.0625662481614877
 40
0.0938388079231207
 40
0.1251113678840798
 40
0.1563839278987391
 40
0.1876564877172141
 40
0.25012590569325
 40
0.3125953227502235
 40
0.3750647411486716
 40
0.437534157544856
 40
0.5000035755504129
 40
0.5624729935559695
 40
0.6249424099521541
 40
0.6874118283506023
 40
0.7498812454075757
 40
0.8123506633836118
 40
0.8436232232020868
 40
0.8748957832167461
 40
0.9061683431777052
 40
0.9374409029393381
 40
0.9583088816708139
 40
0.9791320208719556
 40
1.0
 40
1.0
 40
1.0
 40
1.0
 10
-0.2256568702281553
 20
0.331302655130713
 30
0.0
 10
-0.2240624695767077
 20
0.3328173152767239
 30
0.0
 10
-0.2208773616349833
 20
0.3358431269230582
 30
0.0
 10
-0.2156696132437888
 20
0.3402522599831043
 30
0.0
 10
-0.2101572977528882
 20
0.344556069523831
 30
0.0
 10
-0.2043088158469081
 20
0.348746104572756
 30
0.0
 10
-0.1950651424048654
 20
0.3548506209513547
 30
0.0
 10
-0.1816692693563167
 20
0.3625504320918513
 30
0.0
 10
-0.1631719920966522
 20
0.3712717975084457
 30
0.0
 10
-0.1431107455000847
 20
0.3790252198113137
 30
0.0
 10
-0.1145432983715637
 20
0.3879473382525476
 30
0.0
 10
-0.0758453014374361
 20
0.3963327721711579
 30
0.0
 10
-0.0265312543443706
 20
0.4015232652789901
 30
0.0
 10
0.0238096058952209
 20
0.4016620627451226
 30
0.0
 10
0.0732335365438006
 20
0.3967391698747595
 30
0.0
 10
0.1198436712326808
 20
0.3869450502632101
 30
0.0
 10
0.1618481084934934
 20
0.3726556280597454
 30
0.0
 10
0.1976329772276947
 20
0.3544205947599953
 30
0.0
 10
0.2258224383317182
 20
0.3329389397999483
 30
0.0
 10
0.2453354378651031
 20
0.3090427259216975
 30
0.0
 10
0.2537360655470877
 20
0.2878569083572875
 30
0.0
 10
0.2555586484870897
 20
0.270675403728142
 30
0.0
 10
0.2544542939521559
 20
0.2577699874469837
 30
0.0
 10
0.2509133596536303
 20
0.2449834965497155
 30
0.0
 10
0.2456082112277203
 20
0.233826773832789
 30
0.0
 10
0.2394312888458115
 20
0.2243100205361951
 30
0.0
 10
0.2331735024975294
 20
0.2163272649762043
 30
0.0
 10
0.2281642101944603
 20
0.211207757687232
 30
0.0
 10
0.2256568702281553
 20
0.2086452509583742
 30
0.0
  0
SPLINE
  5
230
330
20B
100
AcDbEntity
  8
0
  6
Continuous
 62
     7
370
    25
100
AcDbSpline
210
0.0
220
0.0
230
1.0
 70
     8
 71
     3
 72
    11
 73
     7
 74
     0
 42
0.00000001
 43
0.00000001
 40
0.0
 40
0.0
 40
0.0
 40
0.0
 40
0.1575158953748401
 40
0.4383439302498934
 40
0.7191719651249466
 40
1.0
 40
1.0
 40
1.0
 40
1.0
 10
0.88881166333994
 20
-0.1174780830440761
 30
0.0
 10
0.8902216547820831
 20
-0.1190670093474852
 30
0.0
 10
0.8941454568142336
 20
-0.1234887611907284
 30
0.0
 10
0.8985413902622812
 20
-0.1354254947714028
 30
0.0
 10
0.9020738761693852
 20
-0.1521107211334223
 30
0.0
 10
0.9024996201522107
 20
-0.1657332809746933
 30
0.0
 10
0.9027124921436238
 20
-0.1725445608953289
 30
0.0
  0
SPLINE
  5
231
330
20B
100
AcDbEntity
  8
0
  6
Continuous
 62
     7
370
    25
100
AcDbSpline
210
0.0
220
0.0
230
1.0
 70
     8
 71
     3
 72
    17
 73
    13
 74
     0
 42
0.00000001
 43
0.00000001
 40
0.0
 40
0.0
 40
0.0
 40
0.0
 40
0.1037969077723597
 40
0.2075938155447199
 40
0.3113907233170805
 40
0.4151876310894402
 40
0.5189845388618
 40
0.6227814466341601
 40
0.7265783544065203
 40
0.8303752621788805
 40
0.9341721699512405
 40
0.9999999999999999
 40
0.9999999999999999
 40
0.9999999999999999
 40
0.9999999999999999
 10
0.902712492143624
 20
-0.1725445609145709
 30
0.0
 10
0.9024953783889458
 20
-0.1797690991068276
 30
0.0
 10
0.9020611508795888
 20
-0.1942181754913411
 30
0.0
 10
0.8985922914134713
 20
-0.2178332445079579
 30
0.0
 10
0.8932008329289509
 20
-0.2417391743908203
 30
0.0
 10
0.8858900635943013
 20
-0.2652152332289188
 30
0.0
 10
0.8769949295457906
 20
-0.2873104906923027
 30
0.0
 10
0.8668451788708936
 20
-0.3071729130793528
 30
0.0
 10
0.8558252111268178
 20
-0.3240996585867901
 30
0.0
 10
0.8443932030953193
 20
-0.3372013274272383
 30
0.0
 10
0.8342622382441384
 20
-0.3456907343478733
 30
0.0
 10
0.8283489910291205
 20
-0.3477763318469999
 30
0.0
 10
0.8260541828678426
 20
-0.3485857088251821
 30
0.0
  0
SPLINE
  5
232
330
20B
100
AcDbEntity
  8
0
  6
Continuous
 62
     7
370
    25
100
AcDbSpline
210
0.0
220
0.0
230
1.0
 70
     8
 71
     3
 72
    28
 73
    24
 74
     0
 42
0.00000001
 43
0.00000001
 40
0.0
 40
0.0
 40
0.0
 40
0.0
 40
0.0208715796087612
 40
0.0416983120771539
 40
0.0625698923264251
 40
0.0938478484978713
 40
0.1251258057670327
 40
0.1876060022504955
 40
0.2500862001266994
 40
0.3125663980029031
 40
0.3750465944863658
 40
0.4375267922076511
 40
0.5000069896128299
 40
0.5624871870180086
 40
0.6249673847392938
 40
0.6874475812227566
 40
0.7499277790989605
 40
0.8124079769751642
 40
0.874888173458627
 40
0.9061661307277882
 40
0.9374440868992345
 40
0.9687220438102427
 40
1.0
 40
1.0
 40
1.0
 40
1.0
 10
0.8214082758015541
 20
-0.2518999685411626
 30
0.0
 10
0.8214176773205837
 20
-0.2509698278827128
 30
0.0
 10
0.8214364601574289
 20
-0.2491115451758588
 30
0.0
 10
0.8215894001896891
 20
-0.2462130964580276
 30
0.0
 10
0.8218738720989488
 20
-0.2427570450336551
 30
0.0
 10
0.8223616710036663
 20
-0.2387039815405279
 30
0.0
 10
0.8233750848939225
 20
-0.2325146173963502
 30
0.0
 10
0.8251559548894709
 20
-0.2246541287425176
 30
0.0
 10
0.8280305268235418
 20
-0.2154162645924392
 30
0.0
 10
0.8315333779334787
 20
-0.2067171466862755
 30
0.0
 10
0.835529707412253
 20
-0.1988934075118678
 30
0.0
 10
0.8398659890386926
 20
-0.1922450836888024
 30
0.0
 10
0.8443755683006342
 20
-0.1870278372604748
 30
0.0
 10
0.8488851489229678
 20
-0.1834421072334107
 30
0.0
 10
0.8532214264682315
 20
-0.1816257470013596
 30
0.0
 10
0.8572177709113168
 20
-0.1816483930502623
 30
0.0
 10
0.8607205662451834
 20
-0.1835097790972963
 30
0.0
 10
0.863595346319224
 20
-0.1871361224317777
 30
0.0
 10
0.8653755688380512
 20
-0.191520804076024
 30
0.0
 10
0.8663903043046618
 20
-0.1957307783044888
 30
0.0
 10
0.8669349113488086
 20
-0.1992219095525576
 30
0.0
 10
0.867279357453374
 20
-0.2029869323404287
 30
0.0
 10
0.8673216933200727
 20
-0.2057065807576374
 30
0.0
 10
0.8673428612531783
 20
-0.2070664049505635
 30
0.0
  0
SPLINE
  5
233
330
20B
100
AcDbEntity
  8
0
  6
Continuous
 62
     7
370
    25
100
AcDbSpline
210
0.0
220
0.0
230
1.0
 70
     8
 71
     3
 72
    28
 73
    24
 74
     0
 42
0.00000001
 43
0.00000001
 40
0.0
 40
0.0
 40
0.0
 40
0.0
 40
0.020871579608761
 40
0.0416983120771539
 40
0.0625698923264251
 40
0.0938478484978717
 40
0.1251258057670327
 40
0.1876060022504954
 40
0.250086200126699
 40
0.312566398002903
 40
0.3750465944863657
 40
0.4375267922076509
 40
0.5000069896128296
 40
0.5624871870180084
 40
0.6249673847392937
 40
0.6874475812227564
 40
0.7499277790989601
 40
0.812407976975164
 40
0.8748881734586267
 40
0.9061661307277881
 40
0.9374440868992344
 40
0.9687220438102428
 40
1.0
 40
1.0
 40
1.0
 40
1.0
 10
0.8673428612531783
 20
-0.2070664049505635
 30
0.0
 10
0.8673334597341488
 20
-0.2079965456090133
 30
0.0
 10
0.8673146768973031
 20
-0.2098548283158672
 30
0.0
 10
0.8671617368650435
 20
-0.2127532770336986
 30
0.0
 10
0.8668772649557837
 20
-0.216209328458071
 30
0.0
 10
0.8663894660510663
 20
-0.2202623919511983
 30
0.0
 10
0.8653760521608098
 20
-0.226451756095376
 30
0.0
 10
0.8635951821652618
 20
-0.2343122447492086
 30
0.0
 10
0.86072061023119
 20
-0.2435501088992867
 30
0.0
 10
0.8572177591212532
 20
-0.2522492268054505
 30
0.0
 10
0.8532214296424799
 20
-0.2600729659798585
 30
0.0
 10
0.8488851480160394
 20
-0.2667212898029236
 30
0.0
 10
0.8443755687540984
 20
-0.2719385362312514
 30
0.0
 10
0.8398659881317655
 20
-0.2755242662583156
 30
0.0
 10
0.8355297105865
 20
-0.2773406264903663
 30
0.0
 10
0.8315333661434159
 20
-0.277317980441464
 30
0.0
 10
0.8280305708095487
 20
-0.2754565943944297
 30
0.0
 10
0.8251557907355079
 20
-0.2718302510599483
 30
0.0
 10
0.8233755682166812
 20
-0.2674455694157022
 30
0.0
 10
0.8223608327500707
 20
-0.2632355951872373
 30
0.0
 10
0.8218162257059238
 20
-0.2597444639391686
 30
0.0
 10
0.8214717796013582
 20
-0.2559794411512973
 30
0.0
 10
0.8214294437346591
 20
-0.2532597927340885
 30
0.0
 10
0.8214082758015541
 20
-0.2518999685411626
 30
0.0
  0
SPLINE
  5
234
330
20B
100
AcDbEntity
  8
0
  6
Continuous
 62
     7
370
    25
100
AcDbSpline
210
0.0
220
0.0
230
1.0
 70
     8
 71
     3
 72
    10
 73
     6
 74
     0
 42
0.00000001
 43
0.00000001
 40
0.0
 40
0.0
 40
0.0
 40
0.0
 40
0.5000000000000001
 40
0.5000000000000001
 40
0.9999999999999999
 40
0.9999999999999999
 40
0.9999999999999999
 40
0.9999999999999999
 10
0.1161439295067336
 20
0.0975507780110044
 30
0.0
 10
0.1219154755091212
 20
0.0959821954783857
 30
0.0
 10
0.1262411278765804
 20
0.0932967995125757
 30
0.0
 10
0.1300962455376211
 20
0.0868746457503574
 30
0.0
 10
0.1294681061413678
 20
0.0834004380602651
 30
0.0
 10
0.1264225399790945
 20
0.0804278721182623
 30
0.0
  0
SPLINE
  5
235
330
20B
100
AcDbEntity
  8
0
  6
Continuous
 62
     7
370
    25
100
AcDbSpline
210
0.0
220
0.0
230
1.0
 70
     8
 71
     3
 72
    10
 73
     6
 74
     0
 42
0.00000001
 43
0.00000001
 40
0.0
 40
0.0
 40
0.0
 40
0.0
 40
0.4999999999999999
 40
0.4999999999999999
 40
1.0
 40
1.0
 40
1.0
 40
1.0
 10
0.0828980264951308
 20
0.0922569022682661
 30
0.0
 10
0.085943592658814
 20
0.0952294682073973
 30
0.0
 10
0.0911575682772615
 20
0.0974573438724479
 30
0.0
 10
0.1036268478731836
 20
0.0994428762479477
 30
0.0
 10
0.1103723835081249
 20
0.0991193605425954
 30
0.0
 10
0.1161439295067336
 20
0.0975507780110036
 30
0.0
  0
SPLINE
  5
236
330
20B
100
AcDbEntity
  8
0
  6
Continuous
 62
     7
370
    25
100
AcDbSpline
210
0.0
220
0.0
230
1.0
 70
     8
 71
     3
 72
    10
 73
     6
 74
     0
 42
0.00000001
 43
0.00000001
 40
0.0
 40
0.0
 40
0.0
 40
0.0
 40
0.0396632116039506
 40
0.519831605801977
 40
1.0
 40
1.0
 40
1.0
 40
1.0
 10
0.0815294437519565
 20
0.0822398554726597
 30
0.0
 10
0.0814004462895509
 20
0.0823588576855792
 30
0.0
 10
0.0797097874821831
 20
0.083918517353426
 30
0.0
 10
0.0795729441680927
 20
0.087642371023839
 30
0.0
 10
0.0817896657194514
 20
0.0907187251867903
 30
0.0
 10
0.0828980264951308
 20
0.092256902268266
 30
0.0
  0
SPLINE
  5
237
330
20B
100
AcDbEntity
  8
0
  6
Continuous
 62
     7
370
    25
100
AcDbSpline
210
0.0
220
0.0
230
1.0
 70
     8
 71
     3
 72
    12
 73
     8
 74
     0
 42
0.00000001
 43
0.00000001
 40
0.0
 40
0.0
 40
0.0
 40
0.0
 40
0.0787907821875877
 40
0.3260251163302277
 40
0.5732594504728675
 40
0.8204937846155077
 40
1.0
 40
1.0
 40
1.0
 40
1.0
 10
0.0821304697935659
 20
0.0913899864181072
 30
0.0
 10
0.0829130422997381
 20
0.0919308313721157
 30
0.0
 10
0.0861512166810279
 20
0.0941687713208201
 30
0.0
 10
0.0953175300324251
 20
0.096300819667581
 30
0.0
 10
0.1075355544174516
 20
0.0970110801184885
 30
0.0
 10
0.1188487575272993
 20
0.0954803256398458
 30
0.0
 10
0.1240514474023104
 20
0.0929746477684421
 30
0.0
 10
0.126239932115838
 20
0.0919206472705594
 30
0.0
  0
SPLINE
  5
238
330
20B
100
AcDbEntity
  8
0
  6
Continuous
 62
     7
370
    25
100
AcDbSpline
210
0.0
220
0.0
230
1.0
 70
     8
 71
     3
 72
    13
 73
     9
 74
     0
 42
0.00000001
 43
0.00000001
 40
0.0
 40
0.0
 40
0.0
 40
0.0
 40
0.1855480668098989
 40
0.3710961336197967
 40
0.5566442004296943
 40
0.7421922672395922
 40
0.9277403340494903
 40
1.0
 40
1.0
 40
1.0
 40
1.0
 10
0.0828980264927754
 20
0.080562226772735
 30
0.0
 10
0.0847289042289488
 20
0.0819405299538634
 30
0.0
 10
0.0883906597012956
 20
0.0846971363161202
 30
0.0
 10
0.0972344196510984
 20
0.0870568874963982
 30
0.0
 10
0.1070249101519786
 20
0.0876079211010899
 30
0.0
 10
0.1163163430495429
 20
0.0861092370739035
 30
0.0
 10
0.1228928373540292
 20
0.083705866482818
 30
0.0
 10
0.1248338670696426
 20
0.0816283549714267
 30
0.0
 10
0.1253779087760277
 20
0.0810460594513735
 30
0.0
  0
SPLINE
  5
239
330
20B
100
AcDbEntity
  8
0
  6
Continuous
 62
     7
370
    25
100
AcDbSpline
210
0.0
220
0.0
230
1.0
 70
     8
 71
     3
 72
    12
 73
     8
 74
     0
 42
0.00000001
 43
0.00000001
 40
0.0
 40
0.0
 40
0.0
 40
0.0
 40
0.0268961249957284
 40
0.2997620247930117
 40
0.5726279245902948
 40
0.8454938243875784
 40
0.9999999999999999
 40
0.9999999999999999
 40
0.9999999999999999
 40
0.9999999999999999
 10
0.0838317171635972
 20
0.0807746377841392
 30
0.0
 10
0.0840811294972278
 20
0.0809380835215673
 30
0.0
 10
0.0868608736480799
 20
0.0827597148979463
 30
0.0
 10
0.0953926257603597
 20
0.0845744152963561
 30
0.0
 10
0.1074969091959918
 20
0.0853107276309963
 30
0.0
 10
0.1182478965404993
 20
0.0839211396868891
 30
0.0
 10
0.1230002591995439
 20
0.081674410408389
 30
0.0
 10
0.1247183625147134
 20
0.0808621590507759
 30
0.0
  0
SPLINE
  5
23A
330
20B
100
AcDbEntity
  8
0
  6
Continuous
 62
     7
370
    25
100
AcDbSpline
210
0.0
220
0.0
230
1.0
 70
     8
 71
     3
 72
    11
 73
     7
 74
     0
 42
0.00000001
 43
0.00000001
 40
0.0
 40
0.0
 40
0.0
 40
0.0
 40
0.1575158953748396
 40
0.4383439302498928
 40
0.7191719651249465
 40
1.0
 40
1.0
 40
1.0
 40
1.0
 10
1.04142105552007
 20
0.0314733621809212
 30
0.0
 10
1.042831046962214
 20
0.0298844358775121
 30
0.0
 10
1.046754848994364
 20
0.025462684034269
 30
0.0
 10
1.051150782442412
 20
0.0135259504535945
 30
0.0
 10
1.054683268349515
 20
-0.003159275908425
 30
0.0
 10
1.055109012332341
 20
-0.016781835749696
 30
0.0
 10
1.055321884323754
 20
-0.0235931156703316
 30
0.0
  0
SPLINE
  5
23B
330
20B
100
AcDbEntity
  8
0
  6
Continuous
 62
     7
370
    25
100
AcDbSpline
210
0.0
220
0.0
230
1.0
 70
     8
 71
     3
 72
    17
 73
    13
 74
     0
 42
0.00000001
 43
0.00000001
 40
0.0
 40
0.0
 40
0.0
 40
0.0
 40
0.1037969077723597
 40
0.2075938155447199
 40
0.3113907233170806
 40
0.4151876310894402
 40
0.5189845388618
 40
0.62278144663416
 40
0.7265783544065201
 40
0.8303752621788804
 40
0.9341721699512404
 40
1.0
 40
1.0
 40
1.0
 40
1.0
 10
1.055321884323754
 20
-0.0235931156895735
 30
0.0
 10
1.055104770569076
 20
-0.0308176538818302
 30
0.0
 10
1.054670543059719
 20
-0.0452667302663437
 30
0.0
 10
1.051201683593602
 20
-0.0688817992829606
 30
0.0
 10
1.045810225109081
 20
-0.092787729165823
 30
0.0
 10
1.038499455774432
 20
-0.1162637880039216
 30
0.0
 10
1.029604321725921
 20
-0.1383590454673053
 30
0.0
 10
1.019454571051024
 20
-0.1582214678543555
 30
0.0
 10
1.008434603306948
 20
-0.1751482133617927
 30
0.0
 10
0.9970025952754498
 20
-0.188249882202241
 30
0.0
 10
0.9868716304242687
 20
-0.196739289122876
 30
0.0
 10
0.9809583832092506
 20
-0.1988248866220025
 30
0.0
 10
0.978663575047973
 20
-0.1996342636001848
 30
0.0
  0
SPLINE
  5
23C
330
20B
100
AcDbEntity
  8
0
  6
Continuous
 62
     7
370
    25
100
AcDbSpline
210
0.0
220
0.0
230
1.0
 70
     8
 71
     3
 72
    28
 73
    24
 74
     0
 42
0.00000001
 43
0.00000001
 40
0.0
 40
0.0
 40
0.0
 40
0.0
 40
0.020871579608761
 40
0.0416983120771539
 40
0.0625698923264251
 40
0.0938478484978717
 40
0.1251258057670328
 40
0.1876060022504955
 40
0.2500862001266989
 40
0.3125663980029029
 40
0.3750465944863655
 40
0.4375267922076509
 40
0.5000069896128296
 40
0.5624871870180084
 40
0.6249673847392938
 40
0.6874475812227568
 40
0.7499277790989599
 40
0.812407976975164
 40
0.8748881734586269
 40
0.9061661307277881
 40
0.9374440868992344
 40
0.968722043810243
 40
1.0
 40
1.0
 40
1.0
 40
1.0
 10
0.9740176679816845
 20
-0.1029485233161653
 30
0.0
 10
0.9740270695007137
 20
-0.1020183826577155
 30
0.0
 10
0.9740458523375591
 20
-0.1001600999508614
 30
0.0
 10
0.9741987923698195
 20
-0.0972616512330302
 30
0.0
 10
0.9744832642790792
 20
-0.0938055998086578
 30
0.0
 10
0.9749710631837963
 20
-0.0897525363155304
 30
0.0
 10
0.975984477074053
 20
-0.0835631721713529
 30
0.0
 10
0.9777653470696012
 20
-0.0757026835175202
 30
0.0
 10
0.9806399190036715
 20
-0.0664648193674418
 30
0.0
 10
0.9841427701136095
 20
-0.0577657014612783
 30
0.0
 10
0.988139099592383
 20
-0.0499419622868704
 30
0.0
 10
0.992475381218823
 20
-0.0432936384638051
 30
0.0
 10
0.9969849604807647
 20
-0.0380763920354773
 30
0.0
 10
1.001494541103098
 20
-0.0344906620084133
 30
0.0
 10
1.005830818648362
 20
-0.0326743017763623
 30
0.0
 10
1.009827163091448
 20
-0.0326969478252648
 30
0.0
 10
1.013329958425313
 20
-0.0345583338722991
 30
0.0
 10
1.016204738499355
 20
-0.0381846772067804
 30
0.0
 10
1.017984961018182
 20
-0.0425693588510265
 30
0.0
 10
1.018999696484792
 20
-0.0467793330794914
 30
0.0
 10
1.019544303528939
 20
-0.0502704643275602
 30
0.0
 10
1.019888749633504
 20
-0.0540354871154313
 30
0.0
 10
1.019931085500203
 20
-0.0567551355326402
 30
0.0
 10
1.019952253433309
 20
-0.0581149597255661
 30
0.0
  0
SPLINE
  5
23D
330
20B
100
AcDbEntity
  8
0
  6
Continuous
 62
     7
370
    25
100
AcDbSpline
210
0.0
220
0.0
230
1.0
 70
     8
 71
     3
 72
    28
 73
    24
 74
     0
 42
0.00000001
 43
0.00000001
 40
0.0
 40
0.0
 40
0.0
 40
0.0
 40
0.0208715796087612
 40
0.0416983120771539
 40
0.0625698923264251
 40
0.0938478484978713
 40
0.1251258057670326
 40
0.1876060022504955
 40
0.2500862001266996
 40
0.312566398002903
 40
0.3750465944863656
 40
0.4375267922076511
 40
0.5000069896128299
 40
0.5624871870180086
 40
0.624967384739294
 40
0.6874475812227567
 40
0.7499277790989605
 40
0.8124079769751641
 40
0.874888173458627
 40
0.9061661307277882
 40
0.9374440868992345
 40
0.9687220438102427
 40
1.0
 40
1.0
 40
1.0
 40
1.0
 10
1.019952253433309
 20
-0.0581149597255661
 30
0.0
 10
1.019942851914279
 20
-0.0590451003840159
 30
0.0
 10
1.019924069077434
 20
-0.06090338309087
 30
0.0
 10
1.019771129045173
 20
-0.0638018318087011
 30
0.0
 10
1.019486657135914
 20
-0.0672578832330737
 30
0.0
 10
1.018998858231197
 20
-0.071310946726201
 30
0.0
 10
1.017985444340939
 20
-0.0775003108703784
 30
0.0
 10
1.016204574345393
 20
-0.0853607995242112
 30
0.0
 10
1.01333000241132
 20
-0.0945986636742894
 30
0.0
 10
1.009827151301383
 20
-0.103297781580453
 30
0.0
 10
1.005830821822611
 20
-0.1111215207548611
 30
0.0
 10
1.00149454019617
 20
-0.1177698445779262
 30
0.0
 10
0.9969849609342287
 20
-0.122987091006254
 30
0.0
 10
0.9924753803118954
 20
-0.1265728210333182
 30
0.0
 10
0.9881391027666303
 20
-0.128389181265369
 30
0.0
 10
0.9841427583235463
 20
-0.1283665352164665
 30
0.0
 10
0.9806399629896794
 20
-0.1265051491694325
 30
0.0
 10
0.977765182915638
 20
-0.1228788058349509
 30
0.0
 10
0.9759849603968117
 20
-0.1184941241907048
 30
0.0
 10
0.9749702249302008
 20
-0.1142841499622399
 30
0.0
 10
0.9744256178860542
 20
-0.1107930187141713
 30
0.0
 10
0.9740811717814886
 20
-0.1070279959263
 30
0.0
 10
0.9740388359147896
 20
-0.1043083475090913
 30
0.0
 10
0.9740176679816845
 20
-0.1029485233161653
 30
0.0
  0
SPLINE
  5
23E
330
20B
100
AcDbEntity
  8
0
  6
Continuous
 62
     7
370
    25
100
AcDbSpline
210
0.0
220
0.0
230
1.0
 70
     8
 71
     3
 72
    11
 73
     7
 74
     0
 42
0.00000001
 43
0.00000001
 40
0.0
 40
0.0
 40
0.0
 40
0.0
 40
0.2651630641921648
 40
0.5303261283843281
 40
0.7954891925764921
 40
1.0
 40
1.0
 40
1.0
 40
1.0
 10
-0.3270373668666284
 20
0.2179979581387958
 30
0.0
 10
-0.3243558553965103
 20
0.2170542510690522
 30
0.0
 10
-0.318992832456274
 20
0.2151668369295651
 30
0.0
 10
-0.3144920169904953
 20
0.2106229937129605
 30
0.0
 10
-0.3132197670404379
 20
0.2059262651802248
 30
0.0
 10
-0.3152489129866967
 20
0.2031625496071582
 30
0.0
 10
-0.3161324670886569
 20
0.2019591407366743
 30
0.0
  0
SPLINE
  5
240
330
20B
100
AcDbEntity
  8
0
  6
Continuous
 62
     7
370
    25
100
AcDbSpline
210
0.0
220
0.0
230
1.0
 70
     8
 71
     3
 72
     9
 73
     5
 74
     0
 42
0.00000001
 43
0.00000001
 40
0.0
 40
0.0
 40
0.0
 40
0.0
 40
0.7197149592438652
 40
0.9999999999999999
 40
0.9999999999999999
 40
0.9999999999999999
 40
0.9999999999999999
 10
-0.3270373668537932
 20
0.2063032826420752
 30
0.0
 10
-0.3242068969891465
 20
0.2054121945003249
 30
0.0
 10
-0.3202741319016728
 20
0.2041740819249149
 30
0.0
 10
-0.3183442930660578
 20
0.2020801405189395
 30
0.0
 10
-0.3178033881093648
 20
0.2014932400666247
 30
0.0
  0
SPLINE
  5
241
330
20B
100
AcDbEntity
  8
0
  6
Continuous
 62
     7
370
    25
100
AcDbSpline
210
0.0
220
0.0
230
1.0
 70
     8
 71
     3
 72
    14
 73
    10
 74
     0
 42
0.00000001
 43
0.00000001
 40
0.0
 40
0.0
 40
0.0
 40
0.0
 40
0.0135801588744929
 40
0.1779834657287437
 40
0.3423867725829953
 40
0.506790079437247
 40
0.6711933862914977
 40
0.8355966931457488
 40
1.0
 40
1.0
 40
1.0
 40
1.0
 10
-0.3616518526235386
 20
0.2026870356013429
 30
0.0
 10
-0.3617810369032932
 20
0.2028060787033394
 30
0.0
 10
-0.3634741441814101
 20
0.2043662742842786
 30
0.0
 10
-0.3634305028995556
 20
0.2080506239813429
 30
0.0
 10
-0.3609125274160695
 20
0.2128418125429699
 30
0.0
 10
-0.3546190067400043
 20
0.2168066201894968
 30
0.0
 10
-0.346004138948536
 20
0.2191904999444807
 30
0.0
 10
-0.3360989672899504
 20
0.2198151211549013
 30
0.0
 10
-0.330057900341069
 20
0.2186036791441642
 30
0.0
 10
-0.3270373668666284
 20
0.2179979581387958
 30
0.0
  0
SPLINE
  5
243
330
20B
100
AcDbEntity
  8
0
  6
Continuous
 62
     7
370
    25
100
AcDbSpline
210
0.0
220
0.0
230
1.0
 70
     8
 71
     3
 72
    11
 73
     7
 74
     0
 42
0.00000001
 43
0.00000001
 40
0.0
 40
0.0
 40
0.0
 40
0.0
 40
0.080941371129283
 40
0.387294247419521
 40
0.6936471237097583
 40
1.0
 40
1.0
 40
1.0
 40
1.0
 10
-0.3606297720336313
 20
0.2121042972929827
 30
0.0
 10
-0.359976351154017
 20
0.2125508715820916
 30
0.0
 10
-0.3568498146957429
 20
0.2146876732053444
 30
0.0
 10
-0.3478982185169759
 20
0.2167019901679063
 30
0.0
 10
-0.3354726182197585
 20
0.2175986909601227
 30
0.0
 10
-0.3277266803254733
 20
0.2160382077543382
 30
0.0
 10
-0.3238537113783305
 20
0.215257966151446
 30
0.0
  0
SPLINE
  5
244
330
20B
100
AcDbEntity
  8
0
  6
Continuous
 62
     7
370
    25
100
AcDbSpline
210
0.0
220
0.0
230
1.0
 70
     8
 71
     3
 72
    11
 73
     7
 74
     0
 42
0.00000001
 43
0.00000001
 40
0.0
 40
0.0
 40
0.0
 40
0.0
 40
0.2159819529522003
 40
0.4773213019681334
 40
0.7386606509840672
 40
1.0
 40
1.0
 40
1.0
 40
1.0
 10
-0.3592330468524101
 20
0.2016757026675087
 30
0.0
 10
-0.357705489671583
 20
0.2028086848351258
 30
0.0
 10
-0.3543295799142316
 20
0.205312581646696
 30
0.0
 10
-0.3459440086831657
 20
0.2074777755459215
 30
0.0
 10
-0.3361139998480433
 20
0.2081249578881047
 30
0.0
 10
-0.3300629111878154
 20
0.2069105077247931
 30
0.0
 10
-0.3270373668577014
 20
0.2063032826431374
 30
0.0
  0
SPLINE
  5
245
330
20B
100
AcDbEntity
  8
0
  6
Continuous
 62
     7
370
    25
100
AcDbSpline
210
0.0
220
0.0
230
1.0
 70
     8
 71
     3
 72
    11
 73
     7
 74
     0
 42
0.00000001
 43
0.00000001
 40
0.0
 40
0.0
 40
0.0
 40
0.0
 40
0.0121129461090471
 40
0.3414086307393636
 40
0.6707043153696794
 40
1.0
 40
1.0
 40
1.0
 40
1.0
 10
-0.3588720620270809
 20
0.2015247703988547
 30
0.0
 10
-0.3587779574507098
 20
0.2015852503750628
 30
0.0
 10
-0.35612557922035
 20
0.2032899046910708
 30
0.0
 10
-0.3478196110628263
 20
0.2049648042183564
 30
0.0
 10
-0.335492270083296
 20
0.20591464308097
 30
0.0
 10
-0.3277332309466523
 20
0.2043470747991325
 30
0.0
 10
-0.3238537113783305
 20
0.2035632906582138
 30
0.0
  0
SPLINE
  5
248
330
20B
100
AcDbEntity
  8
0
  6
Continuous
 62
     7
370
    25
100
AcDbSpline
210
0.0
220
0.0
230
1.0
 70
     8
 71
     3
 72
    11
 73
     7
 74
     0
 42
0.00000001
 43
0.00000001
 40
0.0
 40
0.0
 40
0.0
 40
0.0
 40
0.2651630585637874
 40
0.5303261171275745
 40
0.7954891756913622
 40
0.9999999999999999
 40
0.9999999999999999
 40
0.9999999999999999
 40
0.9999999999999999
 10
0.3500046594126431
 20
0.3258060197312669
 30
0.0
 10
0.3526861708817774
 20
0.3248623126616059
 30
0.0
 10
0.3580491938200459
 20
0.3229748985222837
 30
0.0
 10
0.362550009300583
 20
0.3184310553044421
 30
0.0
 10
0.3638222592355835
 20
0.3137343266403814
 30
0.0
 10
0.3617931131749652
 20
0.3109706109443121
 30
0.0
 10
0.3609095589714362
 20
0.3097672019497537
 30
0.0
  0
SPLINE
  5
24A
330
20B
100
AcDbEntity
  8
0
  6
Continuous
 62
     7
370
    25
100
AcDbSpline
210
0.0
220
0.0
230
1.0
 70
     8
 71
     3
 72
     9
 73
     5
 74
     0
 42
0.00000001
 43
0.00000001
 40
0.0
 40
0.0
 40
0.0
 40
0.0
 40
0.7197149293821197
 40
1.0
 40
1.0
 40
1.0
 40
1.0
 10
0.3500046594126431
 20
0.3141113442380347
 30
0.0
 10
0.3528351292648692
 20
0.3132202560906771
 30
0.0
 10
0.3567678944982596
 20
0.3119821434561059
 30
0.0
 10
0.3586977333962017
 20
0.3098882019544425
 30
0.0
 10
0.3592386384279924
 20
0.3093013014127791
 30
0.0
  0
SPLINE
  5
24B
330
20B
100
AcDbEntity
  8
0
  6
Continuous
 62
     7
370
    25
100
AcDbSpline
210
0.0
220
0.0
230
1.0
 70
     8
 71
     3
 72
    14
 73
    10
 74
     0
 42
0.00000001
 43
0.00000001
 40
0.0
 40
0.0
 40
0.0
 40
0.0
 40
0.0135801588744929
 40
0.177983465728744
 40
0.3423867725829954
 40
0.5067900794372469
 40
0.6711933862914979
 40
0.8355966931457492
 40
1.0
 40
1.0
 40
1.0
 40
1.0
 10
0.315390173655733
 20
0.3104950971938141
 30
0.0
 10
0.3152609893759785
 20
0.3106141402958106
 30
0.0
 10
0.3135678820978611
 20
0.3121743358767496
 30
0.0
 10
0.313611523379716
 20
0.3158586855738141
 30
0.0
 10
0.3161294988632021
 20
0.320649874135441
 30
0.0
 10
0.3224230195392671
 20
0.324614681781968
 30
0.0
 10
0.3310378873307356
 20
0.3269985615369519
 30
0.0
 10
0.340943058989321
 20
0.3276231827473725
 30
0.0
 10
0.3469841259382024
 20
0.3264117407366354
 30
0.0
 10
0.3500046594126431
 20
0.3258060197312669
 30
0.0
  0
SPLINE
  5
24D
330
20B
100
AcDbEntity
  8
0
  6
Continuous
 62
     7
370
    25
100
AcDbSpline
210
0.0
220
0.0
230
1.0
 70
     8
 71
     3
 72
    11
 73
     7
 74
     0
 42
0.00000001
 43
0.00000001
 40
0.0
 40
0.0
 40
0.0
 40
0.0
 40
0.0809413709549912
 40
0.3872942473033285
 40
0.6936471236516649
 40
1.0
 40
1.0
 40
1.0
 40
1.0
 10
0.3164122542462539
 20
0.3199123588865162
 30
0.0
 10
0.3170656751240564
 20
0.3203589331744582
 30
0.0
 10
0.3201922115794555
 20
0.3224957347960868
 30
0.0
 10
0.3291438077521186
 20
0.3245100517584331
 30
0.0
 10
0.3415694080443387
 20
0.3254067525530123
 30
0.0
 10
0.3493153459378111
 20
0.3238462693499192
 30
0.0
 10
0.3531883148845473
 20
0.3230660277483727
 30
0.0
  0
SPLINE
  5
24E
330
20B
100
AcDbEntity
  8
0
  6
Continuous
 62
     7
370
    25
100
AcDbSpline
210
0.0
220
0.0
230
1.0
 70
     8
 71
     3
 72
    11
 73
     7
 74
     0
 42
0.00000001
 43
0.00000001
 40
0.0
 40
0.0
 40
0.0
 40
0.0
 40
0.2159819529872744
 40
0.4773213019915164
 40
0.7386606509957587
 40
1.0
 40
1.0
 40
1.0
 40
1.0
 10
0.317808979426562
 20
0.309483764260105
 30
0.0
 10
0.3193365366073093
 20
0.3106167464275607
 30
0.0
 10
0.3227124463641016
 20
0.31312064323849
 30
0.0
 10
0.33109801759234
 20
0.3152858371376024
 30
0.0
 10
0.34092802642392
 20
0.3159330194806696
 30
0.0
 10
0.3469791150830688
 20
0.3147185693189131
 30
0.0
 10
0.3500046594126431
 20
0.3141113442380347
 30
0.0
  0
SPLINE
  5
24F
330
20B
100
AcDbEntity
  8
0
  6
Continuous
 62
     7
370
    25
100
AcDbSpline
210
0.0
220
0.0
230
1.0
 70
     8
 71
     3
 72
    11
 73
     7
 74
     0
 42
0.00000001
 43
0.00000001
 40
0.0
 40
0.0
 40
0.0
 40
0.0
 40
0.0121129459371686
 40
0.3414086306247801
 40
0.6707043153123909
 40
1.0
 40
1.0
 40
1.0
 40
1.0
 10
0.3181699642512216
 20
0.3093328319917311
 30
0.0
 10
0.3182640688262028
 20
0.3093933119670537
 30
0.0
 10
0.3209164470541347
 20
0.3110979662817225
 30
0.0
 10
0.3292224152062921
 20
0.3127728658088867
 30
0.0
 10
0.3415497561807955
 20
0.3137227046738588
 30
0.0
 10
0.34930879531663
 20
0.3121551363947132
 30
0.0
 10
0.3531883148845473
 20
0.3113713522551404
 30
0.0
  0
SPLINE
  5
250
330
20B
100
AcDbEntity
  8
0
  6
Continuous
 62
     7
370
    25
100
AcDbSpline
210
0.0
220
0.0
230
1.0
 70
     8
 71
     3
 72
    10
 73
     6
 74
     0
 42
0.00000001
 43
0.00000001
 40
0.0
 40
0.0
 40
0.0
 40
0.0
 40
0.5000000000000001
 40
0.5000000000000001
 40
0.9999999999999999
 40
0.9999999999999999
 40
0.9999999999999999
 40
0.9999999999999999
 10
-0.0931766369607188
 20
0.4462531998590583
 30
0.0
 10
-0.0874050909583311
 20
0.4446846173264397
 30
0.0
 10
-0.0830794385908719
 20
0.4419992213606296
 30
0.0
 10
-0.0792243209298312
 20
0.4355770675984112
 30
0.0
 10
-0.0798524603260845
 20
0.432102859908319
 30
0.0
 10
-0.0828980264883578
 20
0.4291302939663161
 30
0.0
  0
SPLINE
  5
251
330
20B
100
AcDbEntity
  8
0
  6
Continuous
 62
     7
370
    25
100
AcDbSpline
210
0.0
220
0.0
230
1.0
 70
     8
 71
     3
 72
    10
 73
     6
 74
     0
 42
0.00000001
 43
0.00000001
 40
0.0
 40
0.0
 40
0.0
 40
0.0
 40
0.4999999999999999
 40
0.4999999999999999
 40
1.0
 40
1.0
 40
1.0
 40
1.0
 10
-0.1264225399723216
 20
0.4409593241163199
 30
0.0
 10
-0.1233769738086384
 20
0.4439318900554511
 30
0.0
 10
-0.1181629981901909
 20
0.4461597657205018
 30
0.0
 10
-0.1056937185942687
 20
0.4481452980960016
 30
0.0
 10
-0.0989481829593275
 20
0.4478217823906493
 30
0.0
 10
-0.0931766369607188
 20
0.4462531998590574
 30
0.0
  0
SPLINE
  5
252
330
20B
100
AcDbEntity
  8
0
  6
Continuous
 62
     7
370
    25
100
AcDbSpline
210
0.0
220
0.0
230
1.0
 70
     8
 71
     3
 72
    10
 73
     6
 74
     0
 42
0.00000001
 43
0.00000001
 40
0.0
 40
0.0
 40
0.0
 40
0.0
 40
0.0396632116039501
 40
0.5198316058019762
 40
1.0
 40
1.0
 40
1.0
 40
1.0
 10
-0.1277911227154959
 20
0.4309422773207135
 30
0.0
 10
-0.1279201201779016
 20
0.4310612795336331
 30
0.0
 10
-0.1296107789852693
 20
0.4326209392014804
 30
0.0
 10
-0.1297476222993597
 20
0.4363447928718925
 30
0.0
 10
-0.1275309007480009
 20
0.4394211470348441
 30
0.0
 10
-0.1264225399723216
 20
0.4409593241163199
 30
0.0
  0
SPLINE
  5
253
330
20B
100
AcDbEntity
  8
0
  6
Continuous
 62
     7
370
    25
100
AcDbSpline
210
0.0
220
0.0
230
1.0
 70
     8
 71
     3
 72
    12
 73
     8
 74
     0
 42
0.00000001
 43
0.00000001
 40
0.0
 40
0.0
 40
0.0
 40
0.0
 40
0.0787907821025576
 40
0.3260251162876109
 40
0.5732594504726645
 40
0.8204937846577174
 40
1.0
 40
1.0
 40
1.0
 40
1.0
 10
-0.1271900966774233
 20
0.4400924082642358
 30
0.0
 10
-0.1264075241723252
 20
0.4406332532178668
 30
0.0
 10
-0.1231693497924085
 20
0.4428711931671317
 30
0.0
 10
-0.114003036439841
 20
0.4450032415150503
 30
0.0
 10
-0.1017850120512411
 20
0.4457135019668413
 30
0.0
 10
-0.0904718089386155
 20
0.4441827474878249
 30
0.0
 10
-0.0852691190636184
 20
0.4416770696156282
 30
0.0
 10
-0.0830806343506124
 20
0.4406230691176601
 30
0.0
  0
SPLINE
  5
254
330
20B
100
AcDbEntity
  8
0
  6
Continuous
 62
     7
370
    25
100
AcDbSpline
210
0.0
220
0.0
230
1.0
 70
     8
 71
     3
 72
    13
 73
     9
 74
     0
 42
0.00000001
 43
0.00000001
 40
0.0
 40
0.0
 40
0.0
 40
0.0
 40
0.1855480706759001
 40
0.3710961413518
 40
0.5566442120277003
 40
0.7421922827035999
 40
0.9277403533795001
 40
1.0
 40
1.0
 40
1.0
 40
1.0
 10
-0.1264225399814499
 20
0.4292646486141781
 30
0.0
 10
-0.1245916622460258
 20
0.4306429517963222
 30
0.0
 10
-0.1209299067751777
 20
0.4333995581606102
 30
0.0
 10
-0.112086146826309
 20
0.4357593093427512
 30
0.0
 10
-0.1022956563145599
 20
0.436310342951879
 30
0.0
 10
-0.0930042234431845
 20
0.4348116589142319
 30
0.0
 10
-0.0864277293571725
 20
0.4324082884672186
 30
0.0
 10
-0.0844866997632717
 20
0.43033077713559
 30
0.0
 10
-0.0839426582039031
 20
0.4297484817867623
 30
0.0
  0
SPLINE
  5
255
330
20B
100
AcDbEntity
  8
0
  6
Continuous
 62
     7
370
    25
100
AcDbSpline
210
0.0
220
0.0
230
1.0
 70
     8
 71
     3
 72
    12
 73
     8
 74
     0
 42
0.00000001
 43
0.00000001
 40
0.0
 40
0.0
 40
0.0
 40
0.0
 40
0.0268961504588855
 40
0.2997620504158186
 40
0.5726279503727523
 40
0.8454938503296849
 40
1.0
 40
1.0
 40
1.0
 40
1.0
 10
-0.1254888500314474
 20
0.4294770591716702
 30
0.0
 10
-0.1252394374657217
 20
0.42964050506582
 30
0.0
 10
-0.1224596931221698
 20
0.4314621366200184
 30
0.0
 10
-0.1139279407444614
 20
0.4332768371654769
 30
0.0
 10
-0.1018236572760465
 20
0.4340131494640472
 30
0.0
 10
-0.091072670285299
 20
0.4326235616180191
 30
0.0
 10
-0.0863203078918305
 20
0.4303768324919223
 30
0.0
 10
-0.0846022048574995
 20
0.4295645812767852
 30
0.0
  0
LINE
  5
256
330
20B
100
AcDbEntity
  8
0
  6
Continuous
 62
     7
370
    25
100
AcDbLine
 10
1.0735664819
 20
0.2533260655
 30
0.0
 11
0.6325944613
 21
-0.1770761452
 31
0.0
  0
LINE
  5
257
330
20B
100
AcDbEntity
  8
0
  6
Continuous
 62
     7
370
    25
100
AcDbLine
 10
1.1001632052
 20
0.2406877943
 30
0.0
 11
1.0735664819
 21
0.2533260655
 31
0.0
  0
LINE
  5
258
330
20B
100
AcDbEntity
  8
0
  6
Continuous
 62
     7
370
    25
100
AcDbLine
 10
0.6408173502
 20
-0.207647842
 30
0.0
 11
1.1001632052
 21
0.2406877943
 31
0.0
  0
LINE
  5
259
330
20B
100
AcDbEntity
  8
0
  6
Continuous
 62
     7
370
    25
100
AcDbLine
 10
0.6325944613
 20
-0.1770761452
 30
0.0
 11
0.6408173502
 21
-0.207647842
 31
0.0
  0
LINE
  5
25A
330
20B
100
AcDbEntity
  8
0
  6
Continuous
 62
     7
370
    25
100
AcDbLine
 10
-1.0735664816
 20
0.2866218401
 30
0.0
 11
-1.1001632042
 21
0.265513368
 31
0.0
  0
LINE
  5
25B
330
20B
100
AcDbEntity
  8
0
  6
Continuous
 62
     7
370
    25
100
AcDbLine
 10
-1.0735664822
 20
0.2866218403
 30
0.0
 11
0.632594461
 21
-0.1770761455
 31
0.0
  0
LINE
  5
25C
330
20B
100
AcDbEntity
  8
0
  6
Continuous
 62
     7
370
    25
100
AcDbLine
 10
0.6408173502
 20
-0.207647842
 30
0.0
 11
-1.1001632052
 21
0.2655133682
 31
0.0
  0
LINE
  5
25D
330
20B
100
AcDbEntity
  8
0
  6
Continuous
 62
     7
370
    25
100
AcDbLine
 10
1.1001632052
 20
0.2406877944
 30
0.0
 11
1.1001632052
 21
-0.28238674
 31
0.0
  0
LINE
  5
25E
330
20B
100
AcDbEntity
  8
0
  6
Continuous
 62
     7
370
    25
100
AcDbLine
 10
1.1001632052
 20
-0.28238674
 30
0.0
 11
0.6408173502
 21
-0.7307223764
 31
0.0
  0
LINE
  5
25F
330
20B
100
AcDbEntity
  8
0
  6
Continuous
 62
     7
370
    25
100
AcDbLine
 10
0.6408173502
 20
-0.7307223764
 30
0.0
 11
0.6408173502
 21
-0.207647842
 31
0.0
  0
LINE
  5
260
330
20B
100
AcDbEntity
  8
0
  6
Continuous
 62
     7
370
    25
100
AcDbLine
 10
0.6408173502
 20
-0.7307223764
 30
0.0
 11
-1.1001632052
 21
-0.2575611661
 31
0.0
  0
LINE
  5
261
330
20B
100
AcDbEntity
  8
0
  6
Continuous
 62
     7
370
    25
100
AcDbLine
 10
-1.1001632052
 20
-0.2575611661
 30
0.0
 11
-1.1001632052
 21
0.2655133682
 31
0.0
  0
LINE
  5
262
330
20B
100
AcDbEntity
  8
0
  6
Continuous
 62
     7
370
    25
100
AcDbLine
 10
-0.632594461
 20
0.7170240515
 30
0.0
 11
-1.0735664822
 21
0.2866218403
 31
0.0
  0
LINE
  5
263
330
20B
100
AcDbEntity
  8
0
  6
Continuous
 62
     7
370
    25
100
AcDbLine
 10
1.0735664822
 20
0.2533260658
 30
0.0
 11
-0.632594461
 21
0.7170240515
 31
0.0
  0
LINE
  5
264
330
20B
100
AcDbEntity
  8
0
  6
Continuous
 62
     7
370
    25
100
AcDbLine
 10
1.0702141206
 20
-0.3116179647
 30
0.0
 11
1.0702141206
 21
-0.3204883751
 31
0.0
  0
LINE
  5
265
330
20B
100
AcDbEntity
  8
0
  6
Continuous
 62
     7
370
    25
100
AcDbLine
 10
1.0702141206
 20
-0.3204883751
 30
0.0
 11
0.6316380478
 21
-0.7485520674
 31
0.0
  0
LINE
  5
266
330
20B
100
AcDbEntity
  8
0
  6
Continuous
 62
     7
370
    25
100
AcDbLine
 10
0.6316380478
 20
-0.7282276387
 30
0.0
 11
0.6316380478
 21
-0.7485520674
 31
0.0
  0
LINE
  5
267
330
20B
100
AcDbEntity
  8
0
  6
Continuous
 62
     7
370
    25
100
AcDbLine
 10
0.6316380478
 20
-0.7485520674
 30
0.0
 11
-1.0699824183
 21
-0.286088086
 31
0.0
  0
LINE
  5
268
330
20B
100
AcDbEntity
  8
0
  6
Continuous
 62
     7
370
    25
100
AcDbLine
 10
-1.0699824183
 20
-0.286088086
 30
0.0
 11
-1.0699824183
 21
-0.2657636573
 31
0.0
  0
LINE
  5
269
330
20B
100
AcDbEntity
  8
0
  6
Continuous
 62
     7
370
    25
100
AcDbLine
 10
-0.3238537114
 20
0.2152579662
 30
0.0
 11
-0.3169413643
 21
0.2123678274
 31
0.0
  0
LINE
  5
26A
330
20B
100
AcDbEntity
  8
0
  6
Continuous
 62
     7
370
    25
100
AcDbLine
 10
-0.3238537114
 20
0.2035632907
 30
0.0
 11
-0.3184629348
 21
0.2013093396
 31
0.0
  0
LINE
  5
26B
330
20B
100
AcDbEntity
  8
0
  6
Continuous
 62
     7
370
    25
100
AcDbLine
 10
-1.1001632052
 20
0.2655133682
 30
0.0
 11
-0.6408173502
 21
0.7138490046
 31
0.0
  0
LINE
  5
26C
330
20B
100
AcDbEntity
  8
0
  6
Continuous
 62
     7
370
    25
100
AcDbLine
 10
-0.6408173492
 20
0.7138490044
 30
0.0
 11
-0.6325944605
 21
0.7170240514
 31
0.0
  0
LINE
  5
26D
330
20B
100
AcDbEntity
  8
0
  6
Continuous
 62
     7
370
    25
100
AcDbLine
 10
0.3531883149
 20
0.3230660277
 30
0.0
 11
0.360100662
 21
0.320175889
 31
0.0
  0
LINE
  5
26E
330
20B
100
AcDbEntity
  8
0
  6
Continuous
 62
     7
370
    25
100
AcDbLine
 10
0.3531883149
 20
0.3113713523
 30
0.0
 11
0.358579092
 21
0.309117401
 31
0.0
  0
VIEWPORT
  5
2D0
330
20B
100
AcDbEntity
  8
0
100
AcDbViewport
 10
0.0
 20
0.0
 30
0.0
 40
8.4
 41
6.4
 68
     1
 69
     1
 12
0.0
 22
-0.0157640079
 13
0.0
 23
0.0
 14
0.5
 24
0.5
 15
0.5
 25
0.5
 16
0.0
 26
0.0
 36
1.0
 17
0.0
 27
0.0
 37
0.0
 42
50.0
 43
0.0
 44
0.0
 45
1.7099679532
 50
0.0
 51
0.0
 72
   100
 90
   557152
  1

281
     0
 71
     1
 74
     0
110
0.0
120
0.0
130
0.0
111
1.0
121
0.0
131
0.0
112
0.0
122
1.0
132
0.0
 79
     0
146
0.0
  0
ENDBLK
  5
20E
330
20B
100
AcDbEntity
  8
0
100
AcDbBlockEnd
  0
BLOCK
  5
271
330
26F
100
AcDbEntity
  8
0
100
AcDbBlockBegin
  2
*Paper_Space7
 70
     0
 10
0.0
 20
0.0
 30
0.0
  3
*Paper_Space7
  1

  0
SPLINE
  5
27D
330
26F
100
AcDbEntity
  8
0
  6
Continuous
 62
     7
370
    25
100
AcDbSpline
210
0.0
220
0.0
230
1.0
 70
     8
 71
     3
 72
    14
 73
    10
 74
     0
 42
0.00000001
 43
0.00000001
 40
0.0
 40
0.0
 40
0.0
 40
0.0
 40
0.25
 40
0.25
 40
0.5000000000000001
 40
0.5000000000000001
 40
0.75
 40
0.75
 40
1.0
 40
1.0
 40
1.0
 40
1.0
 10
0.9921011974775423
 20
-0.05301064094238
 30
0.0
 10
0.9921011974823502
 20
-0.08426581943602
 30
0.0
 10
0.9967575905582706
 20
-0.1101366728950158
 30
0.0
 10
1.013333152055616
 20
-0.1397198990213969
 30
0.0
 10
1.024574679362991
 20
-0.1422228520071229
 30
0.0
 10
1.048016063230327
 20
-0.1215494946326898
 30
0.0
 10
1.059257590536628
 20
-0.0992183512326118
 30
0.0
 10
1.075833152030151
 20
-0.0403985827232108
 30
0.0
 10
1.080489545103479
 20
-0.0063146238731396
 30
0.0
 10
1.080489545105584
 20
0.0249405546265969
 30
0.0
  0
SPLINE
  5
27E
330
26F
100
AcDbEntity
  8
0
  6
Continuous
 62
     7
370
    25
100
AcDbSpline
210
0.0
220
0.0
230
1.0
 70
     8
 71
     3
 72
    12
 73
     8
 74
     0
 42
0.00000001
 43
0.00000001
 40
0.0
 40
0.0
 40
0.0
 40
0.0
 40
0.3333333333333333
 40
0.3333333333333333
 40
0.6666666666666665
 40
0.6666666666666665
 40
0.9999999999999999
 40
0.9999999999999999
 40
0.9999999999999999
 40
0.9999999999999999
 10
1.080489545105584
 20
0.0249405546477613
 30
0.0
 10
1.080489545105584
 20
0.0670385611632516
 30
0.0
 10
1.072064186850038
 20
0.098523156471613
 30
0.0
 10
1.044720729536642
 20
0.1165065002978967
 30
0.0
 10
1.027870013027546
 20
0.101645565189547
 30
0.0
 10
1.000526555720626
 20
0.035432895980591
 30
0.0
 10
0.9921011974710665
 20
-0.0109126344326006
 30
0.0
 10
0.9921011974775422
 20
-0.0530106409423798
 30
0.0
  0
SPLINE
  5
27F
330
26F
100
AcDbEntity
  8
0
  6
Continuous
 62
     7
370
    25
100
AcDbSpline
210
0.0
220
0.0
230
1.0
 70
     8
 71
     3
 72
    12
 73
     8
 74
     0
 42
0.00000001
 43
0.00000001
 40
0.0
 40
0.0
 40
0.0
 40
0.0
 40
0.3333333333333333
 40
0.3333333333333333
 40
0.6666666666666665
 40
0.6666666666666665
 40
0.9999999999999999
 40
0.9999999999999999
 40
0.9999999999999999
 40
0.9999999999999999
 10
0.9648775864081055
 20
-0.0770196091209104
 30
0.0
 10
0.9648775864081055
 20
-0.0349216026054201
 30
0.0
 10
0.9564522281525596
 20
-0.0034370072970587
 30
0.0
 10
0.929108770839164
 20
0.014546336529225
 30
0.0
 10
0.9122580543300676
 20
-0.0003145985791248
 30
0.0
 10
0.8849145970231478
 20
-0.0665272677880807
 30
0.0
 10
0.8764892387735881
 20
-0.1128727982012725
 30
0.0
 10
0.8764892387800639
 20
-0.1549708047110516
 30
0.0
  0
SPLINE
  5
280
330
26F
100
AcDbEntity
  8
0
  6
Continuous
 62
     7
370
    25
100
AcDbSpline
210
0.0
220
0.0
230
1.0
 70
     8
 71
     3
 72
    14
 73
    10
 74
     0
 42
0.00000001
 43
0.00000001
 40
0.0
 40
0.0
 40
0.0
 40
0.0
 40
0.25
 40
0.25
 40
0.5000000000000001
 40
0.5000000000000001
 40
0.75
 40
0.75
 40
1.0
 40
1.0
 40
1.0
 40
1.0
 10
0.8764892387800639
 20
-0.1549708047110517
 30
0.0
 10
0.8764892387848718
 20
-0.1862259832046918
 30
0.0
 10
0.8811456318607924
 20
-0.2120968366636875
 30
0.0
 10
0.8977211933581374
 20
-0.2416800627900687
 30
0.0
 10
0.9089627206655131
 20
-0.2441830157757946
 30
0.0
 10
0.9324041045328485
 20
-0.2235096584013616
 30
0.0
 10
0.9436456318391502
 20
-0.2011785150012835
 30
0.0
 10
0.9602211933326725
 20
-0.1423587464918825
 30
0.0
 10
0.9648775864060005
 20
-0.1082747876418113
 30
0.0
 10
0.9648775864081055
 20
-0.0770196091420747
 30
0.0
  0
SPLINE
  5
285
330
26F
100
AcDbEntity
  8
0
  6
Continuous
 62
     7
370
    25
100
AcDbSpline
210
0.0
220
0.0
230
1.0
 70
     8
 71
     3
 72
    25
 73
    21
 74
     0
 42
0.00000001
 43
0.00000001
 40
0.0
 40
0.0
 40
0.0
 40
0.0
 40
0.0312831305250867
 40
0.0625662518262054
 40
0.1250567891594311
 40
0.1875473258269893
 40
0.2500378599578951
 40
0.3125283987838809
 40
0.3750189324650791
 40
0.4375094667148555
 40
0.5000000014625694
 40
0.5624905362102839
 40
0.6249810704600608
 40
0.6874716041412591
 40
0.7499621429672446
 40
0.8124526717054091
 40
0.8749432083729681
 40
0.9374337481737947
 40
0.9687168694749133
 40
1.0
 40
1.0
 40
1.0
 40
1.0
 10
-0.1583125398721306
 20
0.3935496659708848
 30
0.0
 10
-0.1593856707432577
 20
0.3936965611115562
 30
0.0
 10
-0.1615319321690948
 20
0.3939903513495863
 30
0.0
 10
-0.1655756574320779
 20
0.3947510234126805
 30
0.0
 10
-0.1702010736796863
 20
0.3959323577594441
 30
0.0
 10
-0.1748007780628588
 20
0.3976875485506262
 30
0.0
 10
-0.1782884112757527
 20
0.3997069805722279
 30
0.0
 10
-0.1805261624373147
 20
0.4019147192524228
 30
0.0
 10
-0.1814290442873204
 20
0.4042254756232628
 30
0.0
 10
-0.1809620878540149
 20
0.4065505676644065
 30
0.0
 10
-0.179143318568715
 20
0.4088006127664116
 30
0.0
 10
-0.1760426006980154
 20
0.4108891475258922
 30
0.0
 10
-0.171779106543683
 20
0.412735920780589
 30
0.0
 10
-0.1665166801014614
 20
0.4142699212954788
 30
0.0
 10
-0.1604575213900571
 20
0.4154323476177824
 30
0.0
 10
-0.1538346100702599
 20
0.4161779704089938
 30
0.0
 10
-0.1469019832731353
 20
0.4164802239550323
 30
0.0
 10
-0.1410887832015605
 20
0.4163464167352726
 30
0.0
 10
-0.1365465773481546
 20
0.4160253631019034
 30
0.0
 10
-0.134353909346406
 20
0.4157724996212427
 30
0.0
 10
-0.1332575751839023
 20
0.4156460678622729
 30
0.0
  0
SPLINE
  5
286
330
26F
100
AcDbEntity
  8
0
  6
Continuous
 62
     7
370
    25
100
AcDbSpline
210
0.0
220
0.0
230
1.0
 70
     8
 71
     3
 72
    25
 73
    21
 74
     0
 42
0.00000001
 43
0.00000001
 40
0.0
 40
0.0
 40
0.0
 40
0.0
 40
0.0312831343803887
 40
0.06256626807862
 40
0.1250568069238849
 40
0.1875473273297478
 40
0.2500378685282915
 40
0.3125283953885363
 40
0.3750189281141752
 40
0.4375094664464089
 40
0.4999999985374314
 40
0.5624905306284527
 40
0.6249810689606865
 40
0.6874716016863252
 40
0.7499621285465701
 40
0.812452675137854
 40
0.8749431955437165
 40
0.9374337319213799
 40
0.9687168656196113
 40
0.9999999999999999
 40
0.9999999999999999
 40
0.9999999999999999
 40
0.9999999999999999
 10
-0.1332575751839023
 20
0.4156460678622729
 30
0.0
 10
-0.1321844441747728
 20
0.4154991726951052
 30
0.0
 10
-0.1300381821799146
 20
0.4152053823639725
 30
0.0
 10
-0.1259944560259524
 20
0.414444710338071
 30
0.0
 10
-0.1213690401718359
 20
0.4132633757031001
 30
0.0
 10
-0.1167693377685207
 20
0.4115081845710405
 30
0.0
 10
-0.1132817011555611
 20
0.4094887534372018
 30
0.0
 10
-0.1110439529840592
 20
0.4072810143441712
 30
0.0
 10
-0.1101410714894249
 20
0.4049702582131272
 30
0.0
 10
-0.1106080238430119
 20
0.4026451659042221
 30
0.0
 10
-0.1124267981003589
 20
0.4003951212706714
 30
0.0
 10
-0.1155275113109416
 20
0.3983065857619001
 30
0.0
 10
-0.1197910090723398
 20
0.3964598132205046
 30
0.0
 10
-0.1250534347099047
 20
0.3949258127529913
 30
0.0
 10
-0.1311125925797889
 20
0.3937633855967841
 30
0.0
 10
-0.1377355042470512
 20
0.3930177634608485
 30
0.0
 10
-0.1446681307229505
 20
0.3927155091103694
 30
0.0
 10
-0.1504813306459508
 20
0.3928493169166157
 30
0.0
 10
-0.1550235369448367
 20
0.3931703706480134
 30
0.0
 10
-0.1572162055550637
 20
0.3934232341956753
 30
0.0
 10
-0.1583125398721306
 20
0.3935496659708848
 30
0.0
  0
SPLINE
  5
287
330
26F
100
AcDbEntity
  8
0
  6
Continuous
 62
     7
370
    25
100
AcDbSpline
210
0.0
220
0.0
230
1.0
 70
     8
 71
     3
 72
    25
 73
    21
 74
     0
 42
0.00000001
 43
0.00000001
 40
0.0
 40
0.0
 40
0.0
 40
0.0
 40
0.0312831305250868
 40
0.0625662518262054
 40
0.1250567916270318
 40
0.1875473282945913
 40
0.2500378570327553
 40
0.312528395858741
 40
0.3750189295399393
 40
0.4375094637897163
 40
0.4999999985374308
 40
0.5624905332851446
 40
0.624981067534921
 40
0.6874716012161193
 40
0.7499621400421042
 40
0.8124526741730107
 40
0.8749432108405698
 40
0.9374337481737947
 40
0.9687168694749134
 40
1.0
 40
1.0
 40
1.0
 40
1.0
 10
-0.3354778942432647
 20
0.2373045097662128
 30
0.0
 10
-0.3365510251093196
 20
0.2374514049091834
 30
0.0
 10
-0.338697286525012
 20
0.2377451951518118
 30
0.0
 10
-0.34274101196917
 20
0.2385058671839605
 30
0.0
 10
-0.347366427493861
 20
0.2396872019111392
 30
0.0
 10
-0.3519661318056955
 20
0.2414423926065065
 30
0.0
 10
-0.355453765938187
 20
0.2434618243916507
 30
0.0
 10
-0.3576915167476516
 20
0.2456695630583185
 30
0.0
 10
-0.3585943986747135
 20
0.2479803194157318
 30
0.0
 10
-0.3581274422209103
 20
0.2503054114606025
 30
0.0
 10
-0.3563086729405449
 20
0.2525554565611261
 30
0.0
 10
-0.3532079550706058
 20
0.2546439913228057
 30
0.0
 10
-0.348944460908296
 20
0.256490764570188
 30
0.0
 10
-0.3436820344972237
 20
0.2580247651121372
 30
0.0
 10
-0.3376228754949039
 20
0.2591871913669558
 30
0.0
 10
-0.3309999643955995
 20
0.2599328145382626
 30
0.0
 10
-0.3240673373548444
 20
0.2602350681404337
 30
0.0
 10
-0.3182541374959446
 20
0.2601012604759743
 30
0.0
 10
-0.3137119317170149
 20
0.2597802069057595
 30
0.0
 10
-0.3115192637167822
 20
0.2595273434194134
 30
0.0
 10
-0.3104229295550364
 20
0.2594009116576008
 30
0.0
  0
SPLINE
  5
288
330
26F
100
AcDbEntity
  8
0
  6
Continuous
 62
     7
370
    25
100
AcDbSpline
210
0.0
220
0.0
230
1.0
 70
     8
 71
     3
 72
    25
 73
    21
 74
     0
 42
0.00000001
 43
0.00000001
 40
0.0
 40
0.0
 40
0.0
 40
0.0
 40
0.0312831343803886
 40
0.0625662680786201
 40
0.1250568044562833
 40
0.1875473248621463
 40
0.250037871453431
 40
0.3125283983136748
 40
0.3750189310393135
 40
0.437509469371548
 40
0.5000000014625686
 40
0.5624905335535906
 40
0.6249810718858247
 40
0.6874716046114636
 40
0.7499621314717085
 40
0.812452672670252
 40
0.8749431930761152
 40
0.9374337319213799
 40
0.9687168656196112
 40
0.9999999999999999
 40
0.9999999999999999
 40
0.9999999999999999
 40
0.9999999999999999
 10
-0.3104229295550364
 20
0.2594009116576008
 30
0.0
 10
-0.3093497985408347
 20
0.2592540164927322
 30
0.0
 10
-0.3072035365358317
 20
0.2589602261661979
 30
0.0
 10
-0.3031598105630447
 20
0.258199554109351
 30
0.0
 10
-0.2985343939860108
 20
0.2570182198547953
 30
0.0
 10
-0.2939346915113576
 20
0.2552630286269209
 30
0.0
 10
-0.2904470558179956
 20
0.2532435972566247
 30
0.0
 10
-0.2882093072943961
 20
0.2510358581500671
 30
0.0
 10
-0.2873064258768179
 20
0.2487251020055962
 30
0.0
 10
-0.2877733782099075
 20
0.2464000097004181
 30
0.0
 10
-0.2895921524721884
 20
0.2441499650653858
 30
0.0
 10
-0.2926928656835322
 20
0.2420614295588136
 30
0.0
 10
-0.2969563634369528
 20
0.2402146570101036
 30
0.0
 10
-0.3022187891056671
 20
0.2386806565696496
 30
0.0
 10
-0.3082779466846359
 20
0.2375182293459577
 30
0.0
 10
-0.3149008585723908
 20
0.2367726075901171
 30
0.0
 10
-0.3218334848046597
 20
0.2364703532957705
 30
0.0
 10
-0.3276466849403349
 20
0.2366041606573176
 30
0.0
 10
-0.332188891313697
 20
0.2369252144518693
 30
0.0
 10
-0.3343815599254399
 20
0.2371780779938459
 30
0.0
 10
-0.3354778942432647
 20
0.2373045097662128
 30
0.0
  0
SPLINE
  5
289
330
26F
100
AcDbEntity
  8
0
  6
Continuous
 62
     7
370
    25
100
AcDbSpline
210
0.0
220
0.0
230
1.0
 70
     8
 71
     3
 72
    25
 73
    21
 74
     0
 42
0.00000001
 43
0.00000001
 40
0.0
 40
0.0
 40
0.0
 40
0.0
 40
0.0312831343803887
 40
0.0625662680786206
 40
0.1250568069238847
 40
0.1875473273297479
 40
0.2500378685282914
 40
0.3125283953885362
 40
0.3750189281141739
 40
0.4375094664464095
 40
0.4999999985374313
 40
0.5624905306284521
 40
0.6249810689606874
 40
0.6874716016863252
 40
0.7499621285465691
 40
0.8124526751378538
 40
0.8749431955437167
 40
0.9374337319213791
 40
0.9687168656196113
 40
0.9999999999999999
 40
0.9999999999999999
 40
0.9999999999999999
 40
0.9999999999999999
 10
0.1332575751839023
 20
0.1782493915681563
 30
0.0
 10
0.1321844441747728
 20
0.1783962867353242
 30
0.0
 10
0.1300381821799146
 20
0.1786900770664567
 30
0.0
 10
0.1259944560259525
 20
0.1794507490923582
 30
0.0
 10
0.1213690401718358
 20
0.1806320837273293
 30
0.0
 10
0.1167693377685208
 20
0.1823872748593885
 30
0.0
 10
0.113281701155561
 20
0.1844067059932276
 30
0.0
 10
0.1110439529840592
 20
0.1866144450862578
 30
0.0
 10
0.1101410714894252
 20
0.1889252012173019
 30
0.0
 10
0.1106080238430116
 20
0.1912502935262073
 30
0.0
 10
0.112426798100359
 20
0.1935003381597579
 30
0.0
 10
0.1155275113109413
 20
0.1955888736685294
 30
0.0
 10
0.1197910090723402
 20
0.1974356462099244
 30
0.0
 10
0.1250534347099046
 20
0.1989696466774381
 30
0.0
 10
0.131112592579789
 20
0.200132073833645
 30
0.0
 10
0.1377355042470513
 20
0.2008776959695809
 30
0.0
 10
0.1446681307229504
 20
0.20117995032006
 30
0.0
 10
0.1504813306459508
 20
0.2010461425138134
 30
0.0
 10
0.1550235369448367
 20
0.2007250887824159
 30
0.0
 10
0.1572162055550638
 20
0.2004722252347539
 30
0.0
 10
0.1583125398721306
 20
0.2003457934595444
 30
0.0
  0
SPLINE
  5
28A
330
26F
100
AcDbEntity
  8
0
  6
Continuous
 62
     7
370
    25
100
AcDbSpline
210
0.0
220
0.0
230
1.0
 70
     8
 71
     3
 72
    25
 73
    21
 74
     0
 42
0.00000001
 43
0.00000001
 40
0.0
 40
0.0
 40
0.0
 40
0.0
 40
0.0312831305250879
 40
0.0625662518262055
 40
0.1250567891594303
 40
0.1875473258269893
 40
0.2500378599578958
 40
0.3125283987838794
 40
0.3750189324650793
 40
0.437509466714856
 40
0.5000000014625693
 40
0.5624905362102837
 40
0.6249810704600606
 40
0.6874716041412605
 40
0.749962142967245
 40
0.8124526717054088
 40
0.8749432083729684
 40
0.9374337481737947
 40
0.968716869474912
 40
1.0
 40
1.0
 40
1.0
 40
1.0
 10
0.1583125398721306
 20
0.2003457934595444
 30
0.0
 10
0.1593856707432578
 20
0.200198898318873
 30
0.0
 10
0.1615319321690948
 20
0.199905108080843
 30
0.0
 10
0.1655756574320779
 20
0.1991444360177486
 30
0.0
 10
0.1702010736796863
 20
0.1979631016709853
 30
0.0
 10
0.1748007780628588
 20
0.1962079108798031
 30
0.0
 10
0.1782884112757527
 20
0.1941884788582016
 30
0.0
 10
0.1805261624373142
 20
0.1919807401780063
 30
0.0
 10
0.1814290442873207
 20
0.1896699838071668
 30
0.0
 10
0.1809620878540151
 20
0.1873448917660226
 30
0.0
 10
0.1791433185687148
 20
0.1850948466640177
 30
0.0
 10
0.1760426006980156
 20
0.183006311904537
 30
0.0
 10
0.1717791065436833
 20
0.1811595386498401
 30
0.0
 10
0.166516680101461
 20
0.1796255381349506
 30
0.0
 10
0.1604575213900571
 20
0.1784631118126467
 30
0.0
 10
0.1538346100702598
 20
0.1777174890214356
 30
0.0
 10
0.1469019832731352
 20
0.1774152354753967
 30
0.0
 10
0.1410887832015607
 20
0.1775490426951567
 30
0.0
 10
0.1365465773481546
 20
0.1778700963285259
 30
0.0
 10
0.1343539093464061
 20
0.1781229598091865
 30
0.0
 10
0.1332575751839023
 20
0.1782493915681563
 30
0.0
  0
SPLINE
  5
28B
330
26F
100
AcDbEntity
  8
0
  6
Continuous
 62
     7
370
    25
100
AcDbSpline
210
0.0
220
0.0
230
1.0
 70
     8
 71
     3
 72
    25
 73
    21
 74
     0
 42
0.00000001
 43
0.00000001
 40
0.0
 40
0.0
 40
0.0
 40
0.0
 40
0.0312831343803887
 40
0.0625662680786207
 40
0.1250568044562835
 40
0.187547324862146
 40
0.2500378714534299
 40
0.3125283983136748
 40
0.3750189310393125
 40
0.4375094693715474
 40
0.5000000014625686
 40
0.5624905335535907
 40
0.624981071885826
 40
0.6874716046114637
 40
0.7499621314717085
 40
0.8124526726702522
 40
0.8749431930761151
 40
0.9374337319213794
 40
0.9687168656196112
 40
0.9999999999999999
 40
0.9999999999999999
 40
0.9999999999999999
 40
0.9999999999999999
 10
0.3104229295550364
 20
0.3344945477728284
 30
0.0
 10
0.3093497985408347
 20
0.3346414429376971
 30
0.0
 10
0.3072035365358316
 20
0.3349352332642313
 30
0.0
 10
0.3031598105630447
 20
0.3356959053210782
 30
0.0
 10
0.298534393986011
 20
0.3368772395756344
 30
0.0
 10
0.2939346915113575
 20
0.3386324308035082
 30
0.0
 10
0.2904470558179953
 20
0.3406518621738048
 30
0.0
 10
0.2882093072943961
 20
0.3428596012803622
 30
0.0
 10
0.2873064258768183
 20
0.3451703574248329
 30
0.0
 10
0.2877733782099071
 20
0.3474954497300112
 30
0.0
 10
0.2895921524721887
 20
0.3497454943650434
 30
0.0
 10
0.2926928656835319
 20
0.351834029871616
 30
0.0
 10
0.2969563634369531
 20
0.3536808024203254
 30
0.0
 10
0.3022187891056669
 20
0.3552148028607798
 30
0.0
 10
0.308277946684636
 20
0.3563772300844716
 30
0.0
 10
0.3149008585723906
 20
0.3571228518403119
 30
0.0
 10
0.3218334848046598
 20
0.3574251061346589
 30
0.0
 10
0.3276466849403348
 20
0.3572912987731114
 30
0.0
 10
0.332188891313697
 20
0.35697024497856
 30
0.0
 10
0.3343815599254399
 20
0.3567173814365832
 30
0.0
 10
0.3354778942432647
 20
0.3565909496642165
 30
0.0
  0
SPLINE
  5
28C
330
26F
100
AcDbEntity
  8
0
  6
Continuous
 62
     7
370
    25
100
AcDbSpline
210
0.0
220
0.0
230
1.0
 70
     8
 71
     3
 72
    25
 73
    21
 74
     0
 42
0.00000001
 43
0.00000001
 40
0.0
 40
0.0
 40
0.0
 40
0.0
 40
0.031283130525088
 40
0.0625662518262053
 40
0.1250567916270318
 40
0.1875473282945908
 40
0.2500378570327553
 40
0.3125283958587396
 40
0.3750189295399396
 40
0.4375094637897162
 40
0.4999999985374308
 40
0.5624905332851444
 40
0.6249810675349206
 40
0.6874716012161205
 40
0.749962140042105
 40
0.8124526741730108
 40
0.8749432108405694
 40
0.9374337481737945
 40
0.968716869474912
 40
1.0
 40
1.0
 40
1.0
 40
1.0
 10
0.3354778942432647
 20
0.3565909496642165
 30
0.0
 10
0.3365510251093195
 20
0.3564440545212459
 30
0.0
 10
0.3386972865250119
 20
0.3561502642786176
 30
0.0
 10
0.3427410119691701
 20
0.3553895922464685
 30
0.0
 10
0.3473664274938608
 20
0.35420825751929
 30
0.0
 10
0.3519661318056957
 20
0.3524530668239228
 30
0.0
 10
0.355453765938187
 20
0.3504336350387786
 30
0.0
 10
0.3576915167476512
 20
0.3482258963721109
 30
0.0
 10
0.3585943986747138
 20
0.3459151400146978
 30
0.0
 10
0.3581274422209106
 20
0.3435900479698266
 30
0.0
 10
0.3563086729405447
 20
0.3413400028693033
 30
0.0
 10
0.3532079550706059
 20
0.3392514681076234
 30
0.0
 10
0.3489444609082962
 20
0.3374046948602412
 30
0.0
 10
0.3436820344972236
 20
0.3358706943182925
 30
0.0
 10
0.3376228754949039
 20
0.3347082680634731
 30
0.0
 10
0.3309999643955995
 20
0.3339626448921669
 30
0.0
 10
0.3240673373548444
 20
0.3336603912899955
 30
0.0
 10
0.3182541374959447
 20
0.3337941989544549
 30
0.0
 10
0.3137119317170148
 20
0.3341152525246698
 30
0.0
 10
0.3115192637167823
 20
0.3343681160110158
 30
0.0
 10
0.3104229295550364
 20
0.3344945477728284
 30
0.0
  0
SPLINE
  5
28D
330
26F
100
AcDbEntity
  8
0
  6
Continuous
 62
     7
370
    25
100
AcDbSpline
210
0.0
220
0.0
230
1.0
 70
     8
 71
     3
 72
    33
 73
    29
 74
     0
 42
0.00000001
 43
0.00000001
 40
0.0
 40
0.0
 40
0.0
 40
0.0
 40
0.0125326068921781
 40
0.0250361825345119
 40
0.0375300660551971
 40
0.0500336415545698
 40
0.0625662481614876
 40
0.0938388079231206
 40
0.1251113678840797
 40
0.1563839278987392
 40
0.1876564877172139
 40
0.25012590569325
 40
0.3125953227502234
 40
0.3750647411486716
 40
0.4375341575448561
 40
0.5000035755504129
 40
0.5624729935559697
 40
0.6249424099521541
 40
0.6874118283506021
 40
0.7498812454075756
 40
0.8123506633836116
 40
0.8436232232020865
 40
0.8748957832167459
 40
0.906168343177705
 40
0.9374409029393381
 40
0.958308881670814
 40
0.9791320208719558
 40
1.0
 40
1.0
 40
1.0
 40
1.0
 10
0.2386684178835421
 20
0.266878335467153
 30
0.0
 10
0.2374505650235491
 20
0.2658397645686106
 30
0.0
 10
0.2350176804078196
 20
0.2637650285767583
 30
0.0
 10
0.2309104145258085
 20
0.2607183884553189
 30
0.0
 10
0.2264755971008984
 20
0.2577268139026367
 30
0.0
 10
0.2216798397356322
 20
0.2547944276015334
 30
0.0
 10
0.213975461619115
 20
0.2504923469314416
 30
0.0
 10
0.2025345212410498
 20
0.2449943035539448
 30
0.0
 10
0.1862771414668472
 20
0.2386295726240366
 30
0.0
 10
0.1682350499357382
 20
0.2328218980931745
 30
0.0
 10
0.1420333295711318
 20
0.2259124611158634
 30
0.0
 10
0.1056500029626409
 20
0.2189294202882744
 30
0.0
 10
0.0579640088345296
 20
0.2135599084483984
 30
0.0
 10
0.0080441969016827
 20
0.2113922878650588
 30
0.0
 10
-0.0421830622785983
 20
0.2125132309024226
 30
0.0
 10
-0.0907897041357876
 20
0.2168787366963305
 30
0.0
 10
-0.1359072181795616
 20
0.2243213645907217
 30
0.0
 10
-0.1758019629703973
 20
0.2345547269780534
 30
0.0
 10
-0.2089405904718188
 20
0.2471867266181259
 30
0.0
 10
-0.2340502641278782
 20
0.2617276331444583
 30
0.0
 10
-0.2474813016342376
 20
0.2749866857763977
 30
0.0
 10
-0.2534219302457876
 20
0.2859456947233852
 30
0.0
 10
-0.2554297796833305
 20
0.2942793735346059
 30
0.0
 10
-0.2549912120599174
 20
0.3026372783442204
 30
0.0
 10
-0.2524100637428469
 20
0.3100213589684231
 30
0.0
 10
-0.2485694489874395
 20
0.3163882167645993
 30
0.0
 10
-0.2442796728472322
 20
0.321773253351667
 30
0.0
 10
-0.2405401768478474
 20
0.3252679142252675
 30
0.0
 10
-0.2386684178835422
 20
0.3270171239632763
 30
0.0
  0
SPLINE
  5
28E
330
26F
100
AcDbEntity
  8
0
  6
Continuous
 62
     7
370
    25
100
AcDbSpline
210
0.0
220
0.0
230
1.0
 70
     8
 71
     3
 72
    33
 73
    29
 74
     0
 42
0.00000001
 43
0.00000001
 40
0.0
 40
0.0
 40
0.0
 40
0.0
 40
0.012532606892178
 40
0.025036182534512
 40
0.037530066055197
 40
0.0500336415545698
 40
0.0625662481614877
 40
0.0938388079231207
 40
0.1251113678840798
 40
0.1563839278987391
 40
0.1876564877172141
 40
0.25012590569325
 40
0.3125953227502235
 40
0.3750647411486716
 40
0.437534157544856
 40
0.5000035755504129
 40
0.5624729935559695
 40
0.6249424099521541
 40
0.6874118283506023
 40
0.7498812454075757
 40
0.8123506633836118
 40
0.8436232232020868
 40
0.8748957832167461
 40
0.9061683431777052
 40
0.9374409029393381
 40
0.9583088816708139
 40
0.9791320208719556
 40
1.0
 40
1.0
 40
1.0
 40
1.0
 10
-0.2386684178835421
 20
0.3270171239632762
 30
0.0
 10
-0.237450565023549
 20
0.3280556948618186
 30
0.0
 10
-0.2350176804078196
 20
0.3301304308536709
 30
0.0
 10
-0.2309104145258086
 20
0.3331770709751105
 30
0.0
 10
-0.226475597100898
 20
0.3361686455277924
 30
0.0
 10
-0.2216798397356326
 20
0.3391010318288959
 30
0.0
 10
-0.2139754616191146
 20
0.3434031124989875
 30
0.0
 10
-0.2025345212410504
 20
0.3489011558764846
 30
0.0
 10
-0.1862771414668471
 20
0.3552658868063925
 30
0.0
 10
-0.1682350499357382
 20
0.3610735613372549
 30
0.0
 10
-0.1420333295711316
 20
0.3679829983145657
 30
0.0
 10
-0.1056500029626409
 20
0.3749660391421548
 30
0.0
 10
-0.0579640088345295
 20
0.3803355509820309
 30
0.0
 10
-0.0080441969016827
 20
0.3825031715653706
 30
0.0
 10
0.0421830622785982
 20
0.3813822285280067
 30
0.0
 10
0.0907897041357875
 20
0.3770167227340986
 30
0.0
 10
0.1359072181795616
 20
0.3695740948397077
 30
0.0
 10
0.1758019629703973
 20
0.3593407324523759
 30
0.0
 10
0.2089405904718187
 20
0.3467087328123035
 30
0.0
 10
0.2340502641278782
 20
0.332167826285971
 30
0.0
 10
0.2474813016342379
 20
0.3189087736540315
 30
0.0
 10
0.2534219302457876
 20
0.3079497647070441
 30
0.0
 10
0.2554297796833306
 20
0.2996160858958233
 30
0.0
 10
0.2549912120599176
 20
0.2912581810862089
 30
0.0
 10
0.2524100637428469
 20
0.2838741004620061
 30
0.0
 10
0.2485694489874395
 20
0.27750724266583
 30
0.0
 10
0.2442796728472319
 20
0.2721222060787624
 30
0.0
 10
0.2405401768478473
 20
0.2686275452051618
 30
0.0
 10
0.2386684178835421
 20
0.266878335467153
 30
0.0
  0
SPLINE
  5
294
330
26F
100
AcDbEntity
  8
0
  6
Continuous
 62
     7
370
    25
100
AcDbSpline
210
0.0
220
0.0
230
1.0
 70
     8
 71
     3
 72
    12
 73
     8
 74
     0
 42
0.00000001
 43
0.00000001
 40
0.0
 40
0.0
 40
0.0
 40
0.0
 40
0.0998982281190838
 40
0.3249236710893129
 40
0.5499491140595419
 40
0.7749745570297709
 40
1.0
 40
1.0
 40
1.0
 40
1.0
 10
0.9213398158199164
 20
0.0022624163394783
 30
0.0
 10
0.9223535391047069
 20
0.0010536954823894
 30
0.0
 10
0.9256507216209989
 20
-0.0028777257810526
 30
0.0
 10
0.9300124173433295
 20
-0.0141579591459333
 30
0.0
 10
0.9341461356330443
 20
-0.0308594468121607
 30
0.0
 10
0.9367610520553703
 20
-0.0508457646605332
 30
0.0
 10
0.9370917394586885
 20
-0.0659750900898808
 30
0.0
 10
0.9372570831603476
 20
-0.0735397528045546
 30
0.0
  0
SPLINE
  5
295
330
26F
100
AcDbEntity
  8
0
  6
Continuous
 62
     7
370
    25
100
AcDbSpline
210
0.0
220
0.0
230
1.0
 70
     8
 71
     3
 72
    16
 73
    12
 74
     0
 42
0.00000001
 43
0.00000001
 40
0.0
 40
0.0
 40
0.0
 40
0.0
 40
0.1238216439288656
 40
0.2476432878577318
 40
0.3714649317865986
 40
0.4952865757154642
 40
0.6191082196443298
 40
0.7429298635731961
 40
0.8667515075020622
 40
0.9905731514309284
 40
1.0
 40
1.0
 40
1.0
 40
1.0
 10
0.9372570831603474
 20
-0.073539752825719
 30
0.0
 10
0.9370926060901485
 20
-0.0813980474254323
 30
0.0
 10
0.9367636519497506
 20
-0.0971146366248589
 30
0.0
 10
0.9341357360494656
 20
-0.1216833383469463
 30
0.0
 10
0.9300514157777253
 20
-0.1457896213122989
 30
0.0
 10
0.924512732310479
 20
-0.1686556081043711
 30
0.0
 10
0.9177751110092788
 20
-0.1893205928515804
 30
0.0
 10
0.9100820843951933
 20
-0.2071698335524799
 30
0.0
 10
0.901748276252229
 20
-0.2208817656279082
 30
0.0
 10
0.8957171972490592
 20
-0.2287785382033018
 30
0.0
 10
0.8926252501845515
 20
-0.2306411974103462
 30
0.0
 10
0.8924065061206279
 20
-0.2307729738075978
 30
0.0
  0
SPLINE
  5
296
330
26F
100
AcDbEntity
  8
0
  6
Continuous
 62
     7
370
    25
100
AcDbSpline
210
0.0
220
0.0
230
1.0
 70
     8
 71
     3
 72
    18
 73
    14
 74
     0
 42
0.00000001
 43
0.00000001
 40
0.0
 40
0.0
 40
0.0
 40
0.0
 40
0.0483274423574291
 40
0.1434946981216862
 40
0.2386619538859433
 40
0.3338292096502004
 40
0.4289964654144575
 40
0.5241637211787145
 40
0.6193309769429716
 40
0.7144982327072288
 40
0.8096654884714859
 40
0.904832744235743
 40
1.0
 40
1.0
 40
1.0
 40
1.0
 10
0.8848769288603472
 20
-0.0790458013326006
 30
0.0
 10
0.8853791561777309
 20
-0.0778370588546643
 30
0.0
 10
0.8868703784270573
 20
-0.0742480392724668
 30
0.0
 10
0.8896567944640602
 20
-0.0697701380098291
 30
0.0
 10
0.893060174139569
 20
-0.0658069838243178
 30
0.0
 10
0.8964799650342112
 20
-0.0637055360313647
 30
0.0
 10
0.89976400964015
 20
-0.063461996054725
 30
0.0
 10
0.9027919516326403
 20
-0.0651081228681499
 30
0.0
 10
0.9054447750894126
 20
-0.0685756133016841
 30
0.0
 10
0.9076253010631647
 20
-0.0737289875321283
 30
0.0
 10
0.9092333166913225
 20
-0.0803841521590375
 30
0.0
 10
0.9102679251535548
 20
-0.0882317875234389
 30
0.0
 10
0.9103974352012776
 20
-0.0941910139586009
 30
0.0
 10
0.9104621902251389
 20
-0.097170627176182
 30
0.0
  0
SPLINE
  5
297
330
26F
100
AcDbEntity
  8
0
  6
Continuous
 62
     7
370
    25
100
AcDbSpline
210
0.0
220
0.0
230
1.0
 70
     8
 71
     3
 72
    22
 73
    18
 74
     0
 42
0.00000001
 43
0.00000001
 40
0.0
 40
0.0
 40
0.0
 40
0.0
 40
0.0709401654992981
 40
0.1418803309985957
 40
0.2128204964978941
 40
0.2837606619971919
 40
0.3547008274964896
 40
0.4256409929957877
 40
0.4965811584950857
 40
0.5675213239943837
 40
0.6384614894936818
 40
0.7094016549929798
 40
0.7803418204922775
 40
0.8512819859915756
 40
0.9222221514908736
 40
0.9931623169901717
 40
1.0
 40
1.0
 40
1.0
 40
1.0
 10
0.9104621902251389
 20
-0.0971706271845144
 30
0.0
 10
0.9103974351190369
 20
-0.1002644580157034
 30
0.0
 10
0.910267924906833
 20
-0.1064521196780814
 30
0.0
 10
0.9092333176758242
 20
-0.1161246255122459
 30
0.0
 10
0.9076252973697
 20
-0.1256160909386282
 30
0.0
 10
0.9054447888792285
 20
-0.1346154474668953
 30
0.0
 10
0.9027919001720393
 20
-0.1427624668344441
 30
0.0
 10
0.8997642017042763
 20
-0.1497479326060006
 30
0.0
 10
0.8964792482571566
 20
-0.1553023094877967
 30
0.0
 10
0.893062849210069
 20
-0.1592126279883203
 30
0.0
 10
0.8896468109925662
 20
-0.161327776134167
 30
0.0
 10
0.886360775056229
 20
-0.1615693503769352
 30
0.0
 10
0.8833370457143812
 20
-0.1599173861458764
 30
0.0
 10
0.8806693629905226
 20
-0.1564752111236251
 30
0.0
 10
0.8785440614378198
 20
-0.151226412679158
 30
0.0
 10
0.8772764085604252
 20
-0.1468248510904343
 30
0.0
 10
0.8769236478739979
 20
-0.1439461029439535
 30
0.0
 10
0.8768926356282449
 20
-0.143693023594652
 30
0.0
  0
SPLINE
  5
298
330
26F
100
AcDbEntity
  8
0
  6
Continuous
 62
     7
370
    25
100
AcDbSpline
210
0.0
220
0.0
230
1.0
 70
     8
 71
     3
 72
    10
 73
     6
 74
     0
 42
0.00000001
 43
0.00000001
 40
0.0
 40
0.0
 40
0.0
 40
0.0
 40
0.4640606771330395
 40
0.9281213542660762
 40
1.0
 40
1.0
 40
1.0
 40
1.0
 10
0.1544846976119572
 20
0.1867623757222872
 30
0.0
 10
0.1573015645594924
 20
0.1862620586556297
 30
0.0
 10
0.1629352984545627
 20
0.1852614245223147
 30
0.0
 10
0.1676927326527781
 20
0.1833523328827483
 30
0.0
 10
0.1684467123604663
 20
0.1821438434645258
 30
0.0
 10
0.1685478339576083
 20
0.1819817643278412
 30
0.0
  0
SPLINE
  5
299
330
26F
100
AcDbEntity
  8
0
  6
Continuous
 62
     7
370
    25
100
AcDbSpline
210
0.0
220
0.0
230
1.0
 70
     8
 71
     3
 72
    10
 73
     6
 74
     0
 42
0.00000001
 43
0.00000001
 40
0.0
 40
0.0
 40
0.0
 40
0.0
 40
0.4999999999999999
 40
0.4999999999999999
 40
1.0
 40
1.0
 40
1.0
 40
1.0
 10
0.1227679720809556
 20
0.181989894170192
 30
0.0
 10
0.1250751948842039
 20
0.1840246734200786
 30
0.0
 10
0.1297132234625552
 20
0.1856707293458872
 30
0.0
 10
0.1416089664771203
 20
0.1874607064994233
 30
0.0
 10
0.1483803598590109
 20
0.1875314499882355
 30
0.0
 10
0.1544846976119572
 20
0.1867623757222863
 30
0.0
  0
SPLINE
  5
29B
330
26F
100
AcDbEntity
  8
0
  6
Continuous
 62
     7
370
    25
100
AcDbSpline
210
0.0
220
0.0
230
1.0
 70
     8
 71
     3
 72
    12
 73
     8
 74
     0
 42
0.00000001
 43
0.00000001
 40
0.0
 40
0.0
 40
0.0
 40
0.0
 40
0.2235990923167675
 40
0.4805285723615327
 40
0.7374580524062982
 40
0.9943875324510636
 40
1.0
 40
1.0
 40
1.0
 40
1.0
 10
0.124171185165479
 20
0.1801386738032923
 30
0.0
 10
0.1269258498214189
 20
0.180907666252483
 30
0.0
 10
0.1328457981572481
 20
0.1825602795969186
 30
0.0
 10
0.1449023469483977
 20
0.1834026904676111
 30
0.0
 10
0.1568928311425099
 20
0.1826429054600643
 30
0.0
 10
0.1649887624156612
 20
0.1813825616688932
 30
0.0
 10
0.1674049972841808
 20
0.1802461691499109
 30
0.0
 10
0.1674566501339996
 20
0.180221876018112
 30
0.0
  0
SPLINE
  5
29C
330
26F
100
AcDbEntity
  8
0
  6
Continuous
 62
     7
370
    25
100
AcDbSpline
210
0.0
220
0.0
230
1.0
 70
     8
 71
     3
 72
    10
 73
     6
 74
     0
 42
0.00000001
 43
0.00000001
 40
0.0
 40
0.0
 40
0.0
 40
0.0
 40
0.4638494346830914
 40
0.9276988693661801
 40
1.0
 40
1.0
 40
1.0
 40
1.0
 10
-0.3142507711289812
 20
0.2458174938338869
 30
0.0
 10
-0.3114337973745133
 20
0.24531718779055
 30
0.0
 10
-0.3057998498655775
 20
0.2443165757038763
 30
0.0
 10
-0.301041400386634
 20
0.2424064958173402
 30
0.0
 10
-0.3002872120815657
 20
0.2411969348960428
 30
0.0
 10
-0.3001855080627794
 20
0.2410338228379056
 30
0.0
  0
SPLINE
  5
29D
330
26F
100
AcDbEntity
  8
0
  6
Continuous
 62
     7
370
    25
100
AcDbSpline
210
0.0
220
0.0
230
1.0
 70
     8
 71
     3
 72
     9
 73
     5
 74
     0
 42
0.00000001
 43
0.00000001
 40
0.0
 40
0.0
 40
0.0
 40
0.0
 40
0.9786228179544573
 40
0.9999999999999999
 40
0.9999999999999999
 40
0.9999999999999999
 40
0.9999999999999999
 10
-0.3118389362969766
 20
0.2415129727055406
 30
0.0
 10
-0.3078365429803361
 20
0.2409814754649791
 30
0.0
 10
-0.3037467207902034
 20
0.2404383681198301
 30
0.0
 10
-0.3013304728879817
 20
0.239301302193676
 30
0.0
 10
-0.3012788203167087
 20
0.2392769949283747
 30
0.0
  0
SPLINE
  5
29E
330
26F
100
AcDbEntity
  8
0
  6
Continuous
 62
     7
370
    25
100
AcDbSpline
210
0.0
220
0.0
230
1.0
 70
     8
 71
     3
 72
    12
 73
     8
 74
     0
 42
0.00000001
 43
0.00000001
 40
0.0
 40
0.0
 40
0.0
 40
0.0
 40
0.1006201779249445
 40
0.325465133443709
 40
0.5503100889624725
 40
0.7751550444812362
 40
1.0
 40
1.0
 40
1.0
 40
1.0
 10
-0.3466732799166395
 20
0.2396323037421266
 30
0.0
 10
-0.3465112168931473
 20
0.2401101053756441
 30
0.0
 10
-0.3459870092773896
 20
0.2416555982938581
 30
0.0
 10
-0.3412159112105612
 20
0.2439026520442994
 30
0.0
 10
-0.3333896402128484
 20
0.2458031808995342
 30
0.0
 10
-0.3236717705982896
 20
0.2466096405580339
 30
0.0
 10
-0.3173911042854173
 20
0.2460815427419359
 30
0.0
 10
-0.3142507711289812
 20
0.2458174938338869
 30
0.0
  0
SPLINE
  5
29F
330
26F
100
AcDbEntity
  8
0
  6
Continuous
 62
     7
370
    25
100
AcDbSpline
210
0.0
220
0.0
230
1.0
 70
     8
 71
     3
 72
    10
 73
     6
 74
     0
 42
0.00000001
 43
0.00000001
 40
0.0
 40
0.0
 40
0.0
 40
0.0
 40
0.3032024554557643
 40
0.6516012277278798
 40
1.0
 40
1.0
 40
1.0
 40
1.0
 10
-0.3445642835750342
 20
0.2391937919148036
 30
0.0
 10
-0.3418095519934908
 20
0.2399594383450521
 30
0.0
 10
-0.3358894598296713
 20
0.241604860883618
 30
0.0
 10
-0.323834113383602
 20
0.2425073847232615
 30
0.0
 10
-0.315837328659185
 20
0.2418444433781141
 30
0.0
 10
-0.3118389362969765
 20
0.2415129727055406
 30
0.0
  0
SPLINE
  5
2A2
330
26F
100
AcDbEntity
  8
0
  6
Continuous
 62
     7
370
    25
100
AcDbSpline
210
0.0
220
0.0
230
1.0
 70
     8
 71
     3
 72
    12
 73
     8
 74
     0
 42
0.00000001
 43
0.00000001
 40
0.0
 40
0.0
 40
0.0
 40
0.0
 40
0.0998982281190836
 40
0.3249236710893128
 40
0.5499491140595417
 40
0.7749745570297709
 40
1.0
 40
1.0
 40
1.0
 40
1.0
 10
1.036951774517395
 20
0.10422258010815
 30
0.0
 10
1.037965497802185
 20
0.1030138592510611
 30
0.0
 10
1.041262680318477
 20
0.099082437987619
 30
0.0
 10
1.045624376040808
 20
0.0878022046227384
 30
0.0
 10
1.049758094330522
 20
0.0711007169565109
 30
0.0
 10
1.052373010752849
 20
0.0511143991081385
 30
0.0
 10
1.052703698156167
 20
0.0359850736787909
 30
0.0
 10
1.052869041857826
 20
0.0284204109641171
 30
0.0
  0
SPLINE
  5
2A3
330
26F
100
AcDbEntity
  8
0
  6
Continuous
 62
     7
370
    25
100
AcDbSpline
210
0.0
220
0.0
230
1.0
 70
     8
 71
     3
 72
    16
 73
    12
 74
     0
 42
0.00000001
 43
0.00000001
 40
0.0
 40
0.0
 40
0.0
 40
0.0
 40
0.1238216439288656
 40
0.2476432878577318
 40
0.3714649317865986
 40
0.4952865757154641
 40
0.6191082196443298
 40
0.742929863573196
 40
0.8667515075020621
 40
0.9905731514309283
 40
0.9999999999999999
 40
0.9999999999999999
 40
0.9999999999999999
 40
0.9999999999999999
 10
1.052869041857826
 20
0.0284204109429527
 30
0.0
 10
1.052704564787627
 20
0.0205621163432394
 30
0.0
 10
1.05237561064723
 20
0.0048455271438128
 30
0.0
 10
1.049747694746944
 20
-0.0197231745782745
 30
0.0
 10
1.045663374475204
 20
-0.0438294575436272
 30
0.0
 10
1.040124691007957
 20
-0.0666954443356994
 30
0.0
 10
1.033387069706757
 20
-0.0873604290829086
 30
0.0
 10
1.025694043092672
 20
-0.1052096697838083
 30
0.0
 10
1.017360234949707
 20
-0.1189216018592363
 30
0.0
 10
1.011329155946538
 20
-0.12681837443463
 30
0.0
 10
1.00823720888203
 20
-0.1286810336416744
 30
0.0
 10
1.008018464818106
 20
-0.1288128100389261
 30
0.0
  0
SPLINE
  5
2A4
330
26F
100
AcDbEntity
  8
0
  6
Continuous
 62
     7
370
    25
100
AcDbSpline
210
0.0
220
0.0
230
1.0
 70
     8
 71
     3
 72
    18
 73
    14
 74
     0
 42
0.00000001
 43
0.00000001
 40
0.0
 40
0.0
 40
0.0
 40
0.0
 40
0.0483274423574296
 40
0.143494698121687
 40
0.2386619538859436
 40
0.3338292096502005
 40
0.4289964654144582
 40
0.5241637211787149
 40
0.6193309769429722
 40
0.7144982327072293
 40
0.8096654884714862
 40
0.9048327442357432
 40
1.0
 40
1.0
 40
1.0
 40
1.0
 10
1.000488887557826
 20
0.0229143624360711
 30
0.0
 10
1.000991114875209
 20
0.0241231049140074
 30
0.0
 10
1.002482337124536
 20
0.0277121244962048
 30
0.0
 10
1.005268753161539
 20
0.0321900257588426
 30
0.0
 10
1.008672132837048
 20
0.0361531799443539
 30
0.0
 10
1.012091923731689
 20
0.038254627737307
 30
0.0
 10
1.015375968337629
 20
0.0384981677139468
 30
0.0
 10
1.018403910330119
 20
0.0368520409005217
 30
0.0
 10
1.021056733786891
 20
0.0333845504669876
 30
0.0
 10
1.023237259760643
 20
0.0282311762365435
 30
0.0
 10
1.0248452753888
 20
0.0215760116096342
 30
0.0
 10
1.025879883851033
 20
0.0137283762452329
 30
0.0
 10
1.026009393898756
 20
0.0077691498100708
 30
0.0
 10
1.026074148922617
 20
0.0047895365924898
 30
0.0
  0
SPLINE
  5
2A5
330
26F
100
AcDbEntity
  8
0
  6
Continuous
 62
     7
370
    25
100
AcDbSpline
210
0.0
220
0.0
230
1.0
 70
     8
 71
     3
 72
    22
 73
    18
 74
     0
 42
0.00000001
 43
0.00000001
 40
0.0
 40
0.0
 40
0.0
 40
0.0
 40
0.070940165499298
 40
0.1418803309985957
 40
0.2128204964978941
 40
0.2837606619971917
 40
0.3547008274964893
 40
0.4256409929957873
 40
0.4965811584950856
 40
0.5675213239943834
 40
0.6384614894936816
 40
0.7094016549929796
 40
0.7803418204922771
 40
0.851281985991575
 40
0.9222221514908733
 40
0.9931623169901711
 40
1.0
 40
1.0
 40
1.0
 40
1.0
 10
1.026074148922617
 20
0.0047895365841573
 30
0.0
 10
1.026009393816515
 20
0.0016957057529683
 30
0.0
 10
1.025879883604312
 20
-0.0044919559094097
 30
0.0
 10
1.024845276373302
 20
-0.0141644617435742
 30
0.0
 10
1.023237256067178
 20
-0.0236559271699565
 30
0.0
 10
1.021056747576707
 20
-0.0326552836982236
 30
0.0
 10
1.018403858869517
 20
-0.0408023030657724
 30
0.0
 10
1.015376160401754
 20
-0.0477877688373288
 30
0.0
 10
1.012091206954635
 20
-0.053342145719125
 30
0.0
 10
1.008674807907547
 20
-0.0572524642196485
 30
0.0
 10
1.005258769690045
 20
-0.0593676123654953
 30
0.0
 10
1.001972733753707
 20
-0.0596091866082634
 30
0.0
 10
0.9989490044118599
 20
-0.0579572223772046
 30
0.0
 10
0.996281321688001
 20
-0.0545150473549534
 30
0.0
 10
0.9941560201352982
 20
-0.0492662489104862
 30
0.0
 10
0.9928883672579041
 20
-0.0448646873217626
 30
0.0
 10
0.9925356065714761
 20
-0.0419859391752817
 30
0.0
 10
0.9925045943257232
 20
-0.0417328598259802
 30
0.0
  0
SPLINE
  5
2A6
330
26F
100
AcDbEntity
  8
0
  6
Continuous
 62
     7
370
    25
100
AcDbSpline
210
0.0
220
0.0
230
1.0
 70
     8
 71
     3
 72
    10
 73
     6
 74
     0
 42
0.00000001
 43
0.00000001
 40
0.0
 40
0.0
 40
0.0
 40
0.0
 40
0.4638494346842816
 40
0.9276988693685626
 40
1.0
 40
1.0
 40
1.0
 40
1.0
 10
0.33165005198891
 20
0.3430075319320908
 30
0.0
 10
0.3344670257433772
 20
0.3425072258887539
 30
0.0
 10
0.3401009732523118
 20
0.3415066138020801
 30
0.0
 10
0.3448594227312499
 20
0.3395965339155493
 30
0.0
 10
0.3456136110363168
 20
0.3383869729942581
 30
0.0
 10
0.3457153150550998
 20
0.3382238609361268
 30
0.0
  0
SPLINE
  5
2A7
330
26F
100
AcDbEntity
  8
0
  6
Continuous
 62
     7
370
    25
100
AcDbSpline
210
0.0
220
0.0
230
1.0
 70
     8
 71
     3
 72
     9
 73
     5
 74
     0
 42
0.00000001
 43
0.00000001
 40
0.0
 40
0.0
 40
0.0
 40
0.0
 40
0.9786227011781347
 40
1.0
 40
1.0
 40
1.0
 40
1.0
 10
0.3340618868088552
 20
0.3387030108052638
 30
0.0
 10
0.3380642800637584
 20
0.338171513542422
 30
0.0
 10
0.3421541026788325
 20
0.3376284061096987
 30
0.0
 10
0.3445703508057509
 20
0.3364913400245614
 30
0.0
 10
0.3446220036639878
 20
0.3364670326230791
 30
0.0
  0
SPLINE
  5
2A8
330
26F
100
AcDbEntity
  8
0
  6
Continuous
 62
     7
370
    25
100
AcDbSpline
210
0.0
220
0.0
230
1.0
 70
     8
 71
     3
 72
    12
 73
     8
 74
     0
 42
0.00000001
 43
0.00000001
 40
0.0
 40
0.0
 40
0.0
 40
0.0
 40
0.1006201779249451
 40
0.3254651334437093
 40
0.550310088962473
 40
0.775155044481237
 40
1.0
 40
1.0
 40
1.0
 40
1.0
 10
0.2992275432012516
 20
0.3368223418403304
 30
0.0
 10
0.2993896062247438
 20
0.337300143473848
 30
0.0
 10
0.2999138138405015
 20
0.3388456363920621
 30
0.0
 10
0.3046849119073299
 20
0.341092690142503
 30
0.0
 10
0.3125111829050427
 20
0.3429932189977381
 30
0.0
 10
0.3222290525196016
 20
0.3437996786562378
 30
0.0
 10
0.3285097188324738
 20
0.3432715808401398
 30
0.0
 10
0.33165005198891
 20
0.3430075319320908
 30
0.0
  0
SPLINE
  5
2A9
330
26F
100
AcDbEntity
  8
0
  6
Continuous
 62
     7
370
    25
100
AcDbSpline
210
0.0
220
0.0
230
1.0
 70
     8
 71
     3
 72
    10
 73
     6
 74
     0
 42
0.00000001
 43
0.00000001
 40
0.0
 40
0.0
 40
0.0
 40
0.0
 40
0.303202455307617
 40
0.6516012276538093
 40
1.0
 40
1.0
 40
1.0
 40
1.0
 10
0.3013365395436614
 20
0.3363838300128402
 30
0.0
 10
0.3040912711218601
 20
0.3371494764425123
 30
0.0
 10
0.3100113632807111
 20
0.3387948989804561
 30
0.0
 10
0.3220667097191844
 20
0.3396974228210932
 30
0.0
 10
0.3300634944421118
 20
0.3390344814776503
 30
0.0
 10
0.3340618868035756
 20
0.3387030108059289
 30
0.0
  0
SPLINE
  5
2AA
330
26F
100
AcDbEntity
  8
0
  6
Continuous
 62
     7
370
    25
100
AcDbSpline
210
0.0
220
0.0
230
1.0
 70
     8
 71
     3
 72
    10
 73
     6
 74
     0
 42
0.00000001
 43
0.00000001
 40
0.0
 40
0.0
 40
0.0
 40
0.0
 40
0.4638494346828068
 40
0.9276988693656129
 40
1.0
 40
1.0
 40
1.0
 40
1.0
 10
-0.1370854167520285
 20
0.4020626500436906
 30
0.0
 10
-0.1342684429975605
 20
0.4015623440003537
 30
0.0
 10
-0.1286344954886245
 20
0.4005617319136802
 30
0.0
 10
-0.1238760460096792
 20
0.3986516520271422
 30
0.0
 10
-0.1231218577046108
 20
0.3974420911058437
 30
0.0
 10
-0.1230201536858238
 20
0.3972789790477051
 30
0.0
  0
SPLINE
  5
2AC
330
26F
100
AcDbEntity
  8
0
  6
Continuous
 62
     7
370
    25
100
AcDbSpline
210
0.0
220
0.0
230
1.0
 70
     8
 71
     3
 72
    10
 73
     6
 74
     0
 42
0.00000001
 43
0.00000001
 40
0.0
 40
0.0
 40
0.0
 40
0.0
 40
0.4999999999999999
 40
0.4999999999999999
 40
1.0
 40
1.0
 40
1.0
 40
1.0
 10
-0.1688021422830301
 20
0.3972901684915954
 30
0.0
 10
-0.1664949194797818
 20
0.399324947741482
 30
0.0
 10
-0.1618568909014304
 20
0.4009710036672906
 30
0.0
 10
-0.1499611478868654
 20
0.4027609808208267
 30
0.0
 10
-0.1431897545049747
 20
0.4028317243096389
 30
0.0
 10
-0.1370854167520285
 20
0.4020626500436897
 30
0.0
  0
SPLINE
  5
2AD
330
26F
100
AcDbEntity
  8
0
  6
Continuous
 62
     7
370
    25
100
AcDbSpline
210
0.0
220
0.0
230
1.0
 70
     8
 71
     3
 72
    12
 73
     8
 74
     0
 42
0.00000001
 43
0.00000001
 40
0.0
 40
0.0
 40
0.0
 40
0.0
 40
0.2235991059938513
 40
0.4805286019679758
 40
0.7374580979420994
 40
0.994387593916223
 40
1.0
 40
1.0
 40
1.0
 40
1.0
 10
-0.1673989291972262
 20
0.3954389481244294
 30
0.0
 10
-0.1646442645453104
 20
0.3962079405727945
 30
0.0
 10
-0.1587243162154988
 20
0.3978605539161901
 30
0.0
 10
-0.1466677673853542
 20
0.3987029647984446
 30
0.0
 10
-0.1346772833353477
 20
0.397943179746554
 30
0.0
 10
-0.1265813526515332
 20
0.3966828362153038
 30
0.0
 10
-0.1241651182238275
 20
0.3955464440015249
 30
0.0
 10
-0.1241134659401517
 20
0.395522151138084
 30
0.0
  0
LINE
  5
2AE
330
26F
100
AcDbEntity
  8
0
  6
Continuous
 62
     7
370
    25
100
AcDbLine
 10
1.0693028415
 20
0.3305817728
 30
0.0
 11
0.735236646
 21
0.0359630813
 31
0.0
  0
LINE
  5
2AF
330
26F
100
AcDbEntity
  8
0
  6
Continuous
 62
     7
370
    25
100
AcDbLine
 10
1.0946762228
 20
0.3158405253
 30
0.0
 11
1.0693028415
 21
0.3305817728
 31
0.0
  0
LINE
  5
2B0
330
26F
100
AcDbEntity
  8
0
  6
Continuous
 62
     7
370
    25
100
AcDbLine
 10
0.7466906024
 20
0.0089460548
 30
0.0
 11
1.0946762228
 21
0.3158405253
 31
0.0
  0
LINE
  5
2B1
330
26F
100
AcDbEntity
  8
0
  6
Continuous
 62
     7
370
    25
100
AcDbLine
 10
0.735236646
 20
0.0359630813
 30
0.0
 11
0.7466906024
 21
0.0089460548
 31
0.0
  0
LINE
  5
2B2
330
26F
100
AcDbEntity
  8
0
  6
Continuous
 62
     7
370
    25
100
AcDbLine
 10
-0.7352366458
 20
0.5579323783
 30
0.0
 11
-1.0946762218
 21
0.2409364685
 31
0.0
  0
LINE
  5
2B3
330
26F
100
AcDbEntity
  8
0
  6
Continuous
 62
     7
370
    25
100
AcDbLine
 10
-1.0693028417
 20
0.2633136865
 30
0.0
 11
0.7352366458
 21
0.0359630811
 31
0.0
  0
LINE
  5
2B4
330
26F
100
AcDbEntity
  8
0
  6
Continuous
 62
     7
370
    25
100
AcDbLine
 10
0.7466906024
 20
0.0089460548
 30
0.0
 11
-1.0946762228
 21
0.2409364686
 31
0.0
  0
LINE
  5
2B5
330
26F
100
AcDbEntity
  8
0
  6
Continuous
 62
     7
370
    25
100
AcDbLine
 10
1.0946762228
 20
0.3158405253
 30
0.0
 11
1.0946762228
 21
-0.2594957014
 31
0.0
  0
LINE
  5
2B6
330
26F
100
AcDbEntity
  8
0
  6
Continuous
 62
     7
370
    25
100
AcDbLine
 10
1.0946762228
 20
-0.2594957014
 30
0.0
 11
0.7466906024
 21
-0.5663901718
 31
0.0
  0
LINE
  5
2B7
330
26F
100
AcDbEntity
  8
0
  6
Continuous
 62
     7
370
    25
100
AcDbLine
 10
0.7466906024
 20
-0.5663901718
 30
0.0
 11
0.7466906024
 21
0.0089460548
 31
0.0
  0
LINE
  5
2B8
330
26F
100
AcDbEntity
  8
0
  6
Continuous
 62
     7
370
    25
100
AcDbLine
 10
0.7466906024
 20
-0.5663901718
 30
0.0
 11
-1.0946762228
 21
-0.3343997581
 31
0.0
  0
LINE
  5
2B9
330
26F
100
AcDbEntity
  8
0
  6
Continuous
 62
     7
370
    25
100
AcDbLine
 10
-1.0946762228
 20
-0.3343997581
 30
0.0
 11
-1.0946762228
 21
0.2409364686
 31
0.0
  0
LINE
  5
2BA
330
26F
100
AcDbEntity
  8
0
  6
Continuous
 62
     7
370
    25
100
AcDbLine
 10
1.0693028417
 20
0.330581773
 30
0.0
 11
-0.7352366458
 21
0.5579323783
 31
0.0
  0
LINE
  5
2BB
330
26F
100
AcDbEntity
  8
0
  6
Continuous
 62
     7
370
    25
100
AcDbLine
 10
1.0660813953
 20
-0.2847139688
 30
0.0
 11
1.0660813953
 21
-0.3005023075
 31
0.0
  0
LINE
  5
2BC
330
26F
100
AcDbEntity
  8
0
  6
Continuous
 62
     7
370
    25
100
AcDbLine
 10
1.0660813953
 20
-0.3005023075
 30
0.0
 11
0.7338302927
 21
-0.5935202376
 31
0.0
  0
LINE
  5
2BD
330
26F
100
AcDbEntity
  8
0
  6
Continuous
 62
     7
370
    25
100
AcDbLine
 10
0.7338302927
 20
-0.5647699251
 30
0.0
 11
0.7338302927
 21
-0.5935202376
 31
0.0
  0
LINE
  5
2BE
330
26F
100
AcDbEntity
  8
0
  6
Continuous
 62
     7
370
    25
100
AcDbLine
 10
0.7338302927
 20
-0.5935202376
 30
0.0
 11
-1.0659069104
 21
-0.3667746632
 31
0.0
  0
LINE
  5
2BF
330
26F
100
AcDbEntity
  8
0
  6
Continuous
 62
     7
370
    25
100
AcDbLine
 10
-1.0659069104
 20
-0.3667746632
 30
0.0
 11
-1.0659069104
 21
-0.3380243507
 31
0.0
  0
LINE
  5
2C0
330
26F
100
AcDbEntity
  8
0
  6
Continuous
 62
     7
370
    25
100
AcDbLine
 10
0.1220621888
 20
0.1805771856
 30
0.0
 11
0.1227679721
 21
0.1819898942
 31
0.0
  0
LINE
  5
2C1
330
26F
100
AcDbEntity
  8
0
  6
Continuous
 62
     7
370
    25
100
AcDbLine
 10
-0.1695079255
 20
0.39587746
 30
0.0
 11
-0.1688021423
 21
0.3972901685
 31
0.0
  0
VIEWPORT
  5
2D2
330
26F
100
AcDbEntity
  8
0
100
AcDbViewport
 10
0.0
 20
0.0
 30
0.0
 40
8.4
 41
6.4
 68
     1
 69
     1
 12
0.0
 22
-0.0157640079
 13
0.0
 23
0.0
 14
0.5
 24
0.5
 15
0.5
 25
0.5
 16
0.0
 26
0.0
 36
1.0
 17
0.0
 27
0.0
 37
0.0
 42
50.0
 43
0.0
 44
0.0
 45
1.7099679532
 50
0.0
 51
0.0
 72
   100
 90
   557152
  1

281
     0
 71
     1
 74
     0
110
0.0
120
0.0
130
0.0
111
1.0
121
0.0
131
0.0
112
0.0
122
1.0
132
0.0
 79
     0
146
0.0
  0
ENDBLK
  5
272
330
26F
100
AcDbEntity
  8
0
100
AcDbBlockEnd
  0
ENDSEC
  0
SECTION
  2
ENTITIES
  0
SPLINE
  5
7D
330
1F
100
AcDbEntity
  8
0
  6
Continuous
 62
     7
370
    25
100
AcDbSpline
210
0.0
220
0.0
230
1.0
 70
     8
 71
     3
 72
    14
 73
    10
 74
     0
 42
0.00000001
 43
0.00000001
 40
0.0
 40
0.0
 40
0.0
 40
0.0
 40
0.25
 40
0.25
 40
0.5000000000000001
 40
0.5000000000000001
 40
0.75
 40
0.75
 40
1.0
 40
1.0
 40
1.0
 40
1.0
 10
0.9647627462441563
 20
-0.144567785792585
 30
0.0
 10
0.9647627462505027
 20
-0.172983844398046
 30
0.0
 10
0.9709092498222262
 20
-0.1942390234801812
 30
0.0
 10
0.9927892213550447
 20
-0.2130698759698479
 30
0.0
 10
1.007628193628181
 20
-0.2098757075918307
 30
0.0
 10
1.0385711461061
 20
-0.1796744373667692
 30
0.0
 10
1.05341011837782
 20
-0.1539020220432727
 30
0.0
 10
1.075290089905592
 20
-0.0923601235941317
 30
0.0
 10
1.081436593473893
 20
-0.0591065926811739
 30
0.0
 10
1.081436593476672
 20
-0.0306905340668066
 30
0.0
  0
SPLINE
  5
7E
330
1F
100
AcDbEntity
  8
0
  6
Continuous
 62
     7
370
    25
100
AcDbSpline
210
0.0
220
0.0
230
1.0
 70
     8
 71
     3
 72
    12
 73
     8
 74
     0
 42
0.00000001
 43
0.00000001
 40
0.0
 40
0.0
 40
0.0
 40
0.0
 40
0.3333333333333333
 40
0.3333333333333333
 40
0.6666666666666665
 40
0.6666666666666665
 40
0.9999999999999999
 40
0.9999999999999999
 40
0.9999999999999999
 40
0.9999999999999999
 10
1.081436593476672
 20
-0.0306905340475648
 30
0.0
 10
1.081436593476672
 20
0.0075834249592333
 30
0.0
 10
1.070315003489227
 20
0.0321085558977188
 30
0.0
 10
1.034221259834042
 20
0.035153914583129
 30
0.0
 10
1.011978079861787
 20
0.013443889025625
 30
0.0
 10
0.9758843362151505
 20
-0.0600586703032822
 30
0.0
 10
0.964762746235608
 20
-0.1062938267941301
 30
0.0
 10
0.9647627462441563
 20
-0.1445677857925849
 30
0.0
  0
SPLINE
  5
7F
330
1F
100
AcDbEntity
  8
0
  6
Continuous
 62
     7
370
    25
100
AcDbSpline
210
0.0
220
0.0
230
1.0
 70
     8
 71
     3
 72
    12
 73
     8
 74
     0
 42
0.00000001
 43
0.00000001
 40
0.0
 40
0.0
 40
0.0
 40
0.0
 40
0.3333333333333333
 40
0.3333333333333333
 40
0.6666666666666665
 40
0.6666666666666665
 40
0.9999999999999999
 40
0.9999999999999999
 40
0.9999999999999999
 40
0.9999999999999999
 10
0.9288272012965413
 20
-0.1796419792725621
 30
0.0
 10
0.9288272012965413
 20
-0.141368020265764
 30
0.0
 10
0.917705611309097
 20
-0.1168428893272785
 30
0.0
 10
0.8816118676539119
 20
-0.1137975306418684
 30
0.0
 10
0.8593686876816572
 20
-0.1355075561993724
 30
0.0
 10
0.8232749440350201
 20
-0.2090101155282796
 30
0.0
 10
0.8121533540554776
 20
-0.2552452720191275
 30
0.0
 10
0.8121533540640259
 20
-0.2935192310175823
 30
0.0
  0
SPLINE
  5
80
330
1F
100
AcDbEntity
  8
0
  6
Continuous
 62
     7
370
    25
100
AcDbSpline
210
0.0
220
0.0
230
1.0
 70
     8
 71
     3
 72
    14
 73
    10
 74
     0
 42
0.00000001
 43
0.00000001
 40
0.0
 40
0.0
 40
0.0
 40
0.0
 40
0.25
 40
0.25
 40
0.5000000000000001
 40
0.5000000000000001
 40
0.75
 40
0.75
 40
1.0
 40
1.0
 40
1.0
 40
1.0
 10
0.8121533540640259
 20
-0.2935192310175824
 30
0.0
 10
0.8121533540703724
 20
-0.3219352896230434
 30
0.0
 10
0.8182998576420958
 20
-0.3431904687051786
 30
0.0
 10
0.8401798291749143
 20
-0.3620213211948453
 30
0.0
 10
0.8550188014480512
 20
-0.358827152816828
 30
0.0
 10
0.8859617539259699
 20
-0.3286258825917666
 30
0.0
 10
0.9008007261976891
 20
-0.3028534672682701
 30
0.0
 10
0.9226806977254617
 20
-0.2413115688191289
 30
0.0
 10
0.928827201293763
 20
-0.2080580379061711
 30
0.0
 10
0.9288272012965413
 20
-0.1796419792918039
 30
0.0
  0
SPLINE
  5
85
330
1F
100
AcDbEntity
  8
0
  6
Continuous
 62
     7
370
    25
100
AcDbSpline
210
0.0
220
0.0
230
1.0
 70
     8
 71
     3
 72
    25
 73
    21
 74
     0
 42
0.00000001
 43
0.00000001
 40
0.0
 40
0.0
 40
0.0
 40
0.0
 40
0.0312831305250867
 40
0.0625662518262054
 40
0.1250567891594311
 40
0.1875473258269893
 40
0.2500378599578951
 40
0.3125283987838809
 40
0.3750189324650791
 40
0.4375094667148555
 40
0.5000000014625694
 40
0.5624905362102839
 40
0.6249810704600608
 40
0.6874716041412591
 40
0.7499621429672446
 40
0.8124526717054091
 40
0.8749432083729681
 40
0.9374337481737947
 40
0.9687168694749133
 40
1.0
 40
1.0
 40
1.0
 40
1.0
 10
-0.1211967343549697
 20
0.4281850811306929
 30
0.0
 10
-0.1222070158961736
 20
0.4284787633719813
 30
0.0
 10
-0.1242275786806954
 20
0.4290661277679642
 30
0.0
 10
-0.1279575028895159
 20
0.4304903712357124
 30
0.0
 10
-0.1321083231433629
 20
0.4325966895906828
 30
0.0
 10
-0.1360203881482361
 20
0.4355812132604558
 30
0.0
 10
-0.1387307555381343
 20
0.4388999311559142
 30
0.0
 10
-0.1401308924964793
 20
0.4424276275750499
 30
0.0
 10
-0.1401681590738638
 20
0.4460281143910051
 30
0.0
 10
-0.1388408092619327
 20
0.4495631921107042
 30
0.0
 10
-0.1361999436871778
 20
0.4528969678624245
 30
0.0
 10
-0.1323470178492618
 20
0.4559013316024903
 30
0.0
 10
-0.1274301071394673
 20
0.4584608435954477
 30
0.0
 10
-0.1216381811345188
 20
0.4604770807342058
 30
0.0
 10
-0.1151937329825426
 20
0.4618727870598697
 30
0.0
 10
-0.1083447551329852
 20
0.4625934791754787
 30
0.0
 10
-0.1013532000612813
 20
0.4626146324028612
 30
0.0
 10
-0.0956344885572042
 20
0.4620386242750313
 30
0.0
 10
-0.0912465630893429
 20
0.4612566100572619
 30
0.0
 10
-0.0891647429780736
 20
0.4607290346952045
 30
0.0
 10
-0.0881238327689805
 20
0.4604652469752863
 30
0.0
  0
SPLINE
  5
86
330
1F
100
AcDbEntity
  8
0
  6
Continuous
 62
     7
370
    25
100
AcDbSpline
210
0.0
220
0.0
230
1.0
 70
     8
 71
     3
 72
    25
 73
    21
 74
     0
 42
0.00000001
 43
0.00000001
 40
0.0
 40
0.0
 40
0.0
 40
0.0
 40
0.0312831343803887
 40
0.06256626807862
 40
0.1250568069238849
 40
0.1875473273297478
 40
0.2500378685282915
 40
0.3125283953885363
 40
0.3750189281141752
 40
0.4375094664464089
 40
0.4999999985374314
 40
0.5624905306284527
 40
0.6249810689606865
 40
0.6874716016863252
 40
0.7499621285465701
 40
0.812452675137854
 40
0.8749431955437165
 40
0.9374337319213799
 40
0.9687168656196113
 40
0.9999999999999999
 40
0.9999999999999999
 40
0.9999999999999999
 40
0.9999999999999999
 10
-0.0881238327689805
 20
0.4604652469752863
 30
0.0
 10
-0.087113551100683
 20
0.4601715646845695
 30
0.0
 10
-0.0850929877861182
 20
0.4595842001095396
 30
0.0
 10
-0.0813630626793595
 20
0.4581599566419758
 30
0.0
 10
-0.0772122429230701
 20
0.4560536378702242
 30
0.0
 10
-0.0733001800094754
 20
0.4530691138041176
 30
0.0
 10
-0.070589808915808
 20
0.4497503970528838
 30
0.0
 10
-0.0691896750779041
 20
0.4462227001915334
 30
0.0
 10
-0.0691524087640477
 20
0.4426222137659075
 30
0.0
 10
-0.0704797546271761
 20
0.4390871353754072
 30
0.0
 10
-0.0731206249616144
 20
0.4357533606591198
 30
0.0
 10
-0.0769735464537322
 20
0.432748995472938
 30
0.0
 10
-0.0818904604777566
 20
0.4301894848037381
 30
0.0
 10
-0.0876823856666403
 20
0.4281732476862851
 30
0.0
 10
-0.0941268332934499
 20
0.4267775400283828
 30
0.0
 10
-0.1009758112443004
 20
0.4260568489396191
 30
0.0
 10
-0.1079673662961777
 20
0.4260356944583631
 30
0.0
 10
-0.1136860774348897
 20
0.4266117034759253
 30
0.0
 10
-0.1180740033083737
 20
0.4273937178724128
 30
0.0
 10
-0.1201558239985384
 20
0.4279212933760154
 30
0.0
 10
-0.1211967343549697
 20
0.4281850811306929
 30
0.0
  0
SPLINE
  5
87
330
1F
100
AcDbEntity
  8
0
  6
Continuous
 62
     7
370
    25
100
AcDbSpline
210
0.0
220
0.0
230
1.0
 70
     8
 71
     3
 72
    25
 73
    21
 74
     0
 42
0.00000001
 43
0.00000001
 40
0.0
 40
0.0
 40
0.0
 40
0.0
 40
0.0312831305250868
 40
0.0625662518262054
 40
0.1250567916270318
 40
0.1875473282945913
 40
0.2500378570327553
 40
0.312528395858741
 40
0.3750189295399393
 40
0.4375094637897163
 40
0.4999999985374308
 40
0.5624905332851446
 40
0.624981067534921
 40
0.6874716012161193
 40
0.7499621400421042
 40
0.8124526741730107
 40
0.8749432108405698
 40
0.9374337481737947
 40
0.9687168694749134
 40
1.0
 40
1.0
 40
1.0
 40
1.0
 10
-0.3550574642531987
 20
0.199929839417927
 30
0.0
 10
-0.3560677457885151
 20
0.2002235216624168
 30
0.0
 10
-0.3580883085612617
 20
0.2008108860648028
 30
0.0
 10
-0.3618182329613608
 20
0.202235129496663
 30
0.0
 10
-0.3659690523564978
 20
0.2043414483887734
 30
0.0
 10
-0.3698811173261866
 20
0.2073259719070907
 30
0.0
 10
-0.3725914857164666
 20
0.2106446894986745
 30
0.0
 10
-0.3739916223304524
 20
0.2141723858746079
 30
0.0
 10
-0.374028888989289
 20
0.217772872674893
 30
0.0
 10
-0.3727015391556329
 20
0.2213079503989988
 30
0.0
 10
-0.3700606735863251
 20
0.2246417261487624
 30
0.0
 10
-0.3662077477483465
 20
0.2276460898922482
 30
0.0
 10
-0.3612908370333542
 20
0.2302056018734819
 30
0.0
 10
-0.35549891104926
 20
0.232221839055715
 30
0.0
 10
-0.3490544626336855
 20
0.2336175452593511
 30
0.0
 10
-0.3422054848616821
 20
0.2343382379717945
 30
0.0
 10
-0.3352139295273653
 20
0.2343593912696981
 30
0.0
 10
-0.329495218399573
 20
0.2337833824736154
 30
0.0
 10
-0.3251072929821466
 20
0.2330013683574263
 30
0.0
 10
-0.3230254728744941
 20
0.2324737929867487
 30
0.0
 10
-0.3219845626672095
 20
0.2322100052625203
 30
0.0
  0
SPLINE
  5
88
330
1F
100
AcDbEntity
  8
0
  6
Continuous
 62
     7
370
    25
100
AcDbSpline
210
0.0
220
0.0
230
1.0
 70
     8
 71
     3
 72
    25
 73
    21
 74
     0
 42
0.00000001
 43
0.00000001
 40
0.0
 40
0.0
 40
0.0
 40
0.0
 40
0.0312831343803886
 40
0.0625662680786201
 40
0.1250568044562833
 40
0.1875473248621463
 40
0.250037871453431
 40
0.3125283983136748
 40
0.3750189310393135
 40
0.437509469371548
 40
0.5000000014625686
 40
0.5624905335535906
 40
0.6249810718858247
 40
0.6874716046114636
 40
0.7499621314717085
 40
0.812452672670252
 40
0.8749431930761152
 40
0.9374337319213799
 40
0.9687168656196112
 40
0.9999999999999999
 40
0.9999999999999999
 40
0.9999999999999999
 40
0.9999999999999999
 10
-0.3219845626672095
 20
0.2322100052625203
 30
0.0
 10
-0.3209742809930244
 20
0.231916322975005
 30
0.0
 10
-0.3189537176666842
 20
0.2313289584063782
 30
0.0
 10
-0.3152237927512047
 20
0.2299047149029265
 30
0.0
 10
-0.3110729721362052
 20
0.2277983966683148
 30
0.0
 10
-0.3071609091874259
 20
0.2248138724507524
 30
0.0
 10
-0.3044505390941405
 20
0.2214951553956441
 30
0.0
 10
-0.3030504049118771
 20
0.2179674584910916
 30
0.0
 10
-0.3030131386794727
 20
0.2143669720497955
 30
0.0
 10
-0.3043404845208766
 20
0.2108318936637018
 30
0.0
 10
-0.3069813548607614
 20
0.2074981189454576
 30
0.0
 10
-0.3108342763528171
 20
0.204493753762696
 30
0.0
 10
-0.3157511903716433
 20
0.2019342430817724
 30
0.0
 10
-0.3215431155813816
 20
0.1999180060077941
 30
0.0
 10
-0.3279875629445931
 20
0.1985222982278645
 30
0.0
 10
-0.334836540972997
 20
0.1978016077359348
 30
0.0
 10
-0.3418280957622619
 20
0.1977804533251997
 30
0.0
 10
-0.3475468072772585
 20
0.1983564616745093
 30
0.0
 10
-0.3519347332011774
 20
0.1991384761725771
 30
0.0
 10
-0.3540165538949589
 20
0.1996660516675595
 30
0.0
 10
-0.3550574642531987
 20
0.199929839417927
 30
0.0
  0
SPLINE
  5
89
330
1F
100
AcDbEntity
  8
0
  6
Continuous
 62
     7
370
    25
100
AcDbSpline
210
0.0
220
0.0
230
1.0
 70
     8
 71
     3
 72
    25
 73
    21
 74
     0
 42
0.00000001
 43
0.00000001
 40
0.0
 40
0.0
 40
0.0
 40
0.0
 40
0.0312831343803887
 40
0.0625662680786206
 40
0.1250568069238847
 40
0.1875473273297479
 40
0.2500378685282914
 40
0.3125283953885362
 40
0.3750189281141739
 40
0.4375094664464095
 40
0.4999999985374313
 40
0.5624905306284521
 40
0.6249810689606874
 40
0.6874716016863252
 40
0.7499621285465691
 40
0.8124526751378538
 40
0.8749431955437167
 40
0.9374337319213791
 40
0.9687168656196113
 40
0.9999999999999999
 40
0.9999999999999999
 40
0.9999999999999999
 40
0.9999999999999999
 10
0.0881238327689805
 20
0.079482659113801
 30
0.0
 10
0.087113551100683
 20
0.0797763414045179
 30
0.0
 10
0.0850929877861181
 20
0.0803637059795477
 30
0.0
 10
0.0813630626793596
 20
0.0817879494471113
 30
0.0
 10
0.07721224292307
 20
0.0838942682188632
 30
0.0
 10
0.0733001800094755
 20
0.0868787922849695
 30
0.0
 10
0.070589808915808
 20
0.0901975090362036
 30
0.0
 10
0.069189675077904
 20
0.0937252058975538
 30
0.0
 10
0.069152408764048
 20
0.0973256923231796
 30
0.0
 10
0.0704797546271758
 20
0.1008607707136802
 30
0.0
 10
0.0731206249616145
 20
0.1041945454299675
 30
0.0
 10
0.0769735464537318
 20
0.1071989106161496
 30
0.0
 10
0.0818904604777569
 20
0.1097584212853489
 30
0.0
 10
0.0876823856666402
 20
0.1117746584028024
 30
0.0
 10
0.09412683329345
 20
0.1131703660607043
 30
0.0
 10
0.1009758112443004
 20
0.1138910571494683
 30
0.0
 10
0.1079673662961776
 20
0.1139122116307243
 30
0.0
 10
0.1136860774348898
 20
0.1133362026131619
 30
0.0
 10
0.1180740033083737
 20
0.1125541882166746
 30
0.0
 10
0.1201558239985384
 20
0.1120266127130717
 30
0.0
 10
0.1211967343549697
 20
0.1117628249583943
 30
0.0
  0
SPLINE
  5
8A
330
1F
100
AcDbEntity
  8
0
  6
Continuous
 62
     7
370
    25
100
AcDbSpline
210
0.0
220
0.0
230
1.0
 70
     8
 71
     3
 72
    25
 73
    21
 74
     0
 42
0.00000001
 43
0.00000001
 40
0.0
 40
0.0
 40
0.0
 40
0.0
 40
0.0312831305250879
 40
0.0625662518262055
 40
0.1250567891594303
 40
0.1875473258269893
 40
0.2500378599578958
 40
0.3125283987838794
 40
0.3750189324650793
 40
0.437509466714856
 40
0.5000000014625693
 40
0.5624905362102837
 40
0.6249810704600606
 40
0.6874716041412605
 40
0.749962142967245
 40
0.8124526717054088
 40
0.8749432083729684
 40
0.9374337481737947
 40
0.968716869474912
 40
1.0
 40
1.0
 40
1.0
 40
1.0
 10
0.1211967343549697
 20
0.1117628249583943
 30
0.0
 10
0.1222070158961737
 20
0.111469142717106
 30
0.0
 10
0.1242275786806956
 20
0.1108817783211232
 30
0.0
 10
0.1279575028895159
 20
0.1094575348533748
 30
0.0
 10
0.1321083231433629
 20
0.1073512164984046
 30
0.0
 10
0.1360203881482361
 20
0.1043666928286315
 30
0.0
 10
0.1387307555381343
 20
0.1010479749331732
 30
0.0
 10
0.1401308924964789
 20
0.0975202785140374
 30
0.0
 10
0.1401681590738642
 20
0.0939197916980824
 30
0.0
 10
0.1388408092619329
 20
0.0903847139783829
 30
0.0
 10
0.1361999436871777
 20
0.0870509382266628
 30
0.0
 10
0.1323470178492619
 20
0.0840465744865969
 30
0.0
 10
0.1274301071394676
 20
0.0814870624936395
 30
0.0
 10
0.1216381811345184
 20
0.0794708253548817
 30
0.0
 10
0.1151937329825426
 20
0.0780751190292175
 30
0.0
 10
0.1083447551329852
 20
0.0773544269136087
 30
0.0
 10
0.1013532000612812
 20
0.0773332736862258
 30
0.0
 10
0.0956344885572043
 20
0.0779092818140559
 30
0.0
 10
0.0912465630893429
 20
0.0786912960318255
 30
0.0
 10
0.0891647429780737
 20
0.0792188713938828
 30
0.0
 10
0.0881238327689805
 20
0.079482659113801
 30
0.0
  0
SPLINE
  5
8B
330
1F
100
AcDbEntity
  8
0
  6
Continuous
 62
     7
370
    25
100
AcDbSpline
210
0.0
220
0.0
230
1.0
 70
     8
 71
     3
 72
    25
 73
    21
 74
     0
 42
0.00000001
 43
0.00000001
 40
0.0
 40
0.0
 40
0.0
 40
0.0
 40
0.0312831343803887
 40
0.0625662680786207
 40
0.1250568044562835
 40
0.187547324862146
 40
0.2500378714534299
 40
0.3125283983136748
 40
0.3750189310393125
 40
0.4375094693715474
 40
0.5000000014625686
 40
0.5624905335535907
 40
0.624981071885826
 40
0.6874716046114637
 40
0.7499621314717085
 40
0.8124526726702522
 40
0.8749431930761151
 40
0.9374337319213794
 40
0.9687168656196112
 40
0.9999999999999999
 40
0.9999999999999999
 40
0.9999999999999999
 40
0.9999999999999999
 10
0.3219845626672095
 20
0.307737900826567
 30
0.0
 10
0.3209742809930244
 20
0.3080315831140824
 30
0.0
 10
0.3189537176666842
 20
0.3086189476827091
 30
0.0
 10
0.3152237927512047
 20
0.3100431911861606
 30
0.0
 10
0.3110729721362053
 20
0.3121495094207729
 30
0.0
 10
0.3071609091874258
 20
0.3151340336383347
 30
0.0
 10
0.3044505390941404
 20
0.3184527506934434
 30
0.0
 10
0.3030504049118771
 20
0.3219804475979958
 30
0.0
 10
0.303013138679473
 20
0.3255809340392917
 30
0.0
 10
0.3043404845208761
 20
0.3291160124253856
 30
0.0
 10
0.3069813548607616
 20
0.3324497871436295
 30
0.0
 10
0.3108342763528169
 20
0.3354541523263916
 30
0.0
 10
0.3157511903716437
 20
0.3380136630073146
 30
0.0
 10
0.3215431155813815
 20
0.3400299000812932
 30
0.0
 10
0.3279875629445931
 20
0.3414256078612229
 30
0.0
 10
0.334836540972997
 20
0.3421462983531523
 30
0.0
 10
0.341828095762262
 20
0.3421674527638878
 30
0.0
 10
0.3475468072772583
 20
0.3415914444145777
 30
0.0
 10
0.3519347332011774
 20
0.3408094299165104
 30
0.0
 10
0.3540165538949589
 20
0.3402818544215276
 30
0.0
 10
0.3550574642531987
 20
0.3400180666711603
 30
0.0
  0
SPLINE
  5
8C
330
1F
100
AcDbEntity
  8
0
  6
Continuous
 62
     7
370
    25
100
AcDbSpline
210
0.0
220
0.0
230
1.0
 70
     8
 71
     3
 72
    25
 73
    21
 74
     0
 42
0.00000001
 43
0.00000001
 40
0.0
 40
0.0
 40
0.0
 40
0.0
 40
0.031283130525088
 40
0.0625662518262053
 40
0.1250567916270318
 40
0.1875473282945908
 40
0.2500378570327553
 40
0.3125283958587396
 40
0.3750189295399396
 40
0.4375094637897162
 40
0.4999999985374308
 40
0.5624905332851444
 40
0.6249810675349206
 40
0.6874716012161205
 40
0.749962140042105
 40
0.8124526741730108
 40
0.8749432108405694
 40
0.9374337481737945
 40
0.968716869474912
 40
1.0
 40
1.0
 40
1.0
 40
1.0
 10
0.3550574642531987
 20
0.3400180666711603
 30
0.0
 10
0.356067745788515
 20
0.3397243844266706
 30
0.0
 10
0.3580883085612616
 20
0.3391370200242846
 30
0.0
 10
0.361818232961361
 20
0.3377127765924241
 30
0.0
 10
0.3659690523564976
 20
0.3356064577003139
 30
0.0
 10
0.3698811173261868
 20
0.3326219341819968
 30
0.0
 10
0.3725914857164666
 20
0.3293032165904128
 30
0.0
 10
0.373991622330452
 20
0.3257755202144794
 30
0.0
 10
0.3740288889892894
 20
0.3221750334141945
 30
0.0
 10
0.3727015391556332
 20
0.3186399556900882
 30
0.0
 10
0.3700606735863249
 20
0.3153061799403249
 30
0.0
 10
0.3662077477483467
 20
0.3123018161968388
 30
0.0
 10
0.3612908370333544
 20
0.3097423042156053
 30
0.0
 10
0.3554989110492599
 20
0.3077260670333727
 30
0.0
 10
0.3490544626336855
 20
0.3063303608297359
 30
0.0
 10
0.3422054848616821
 20
0.305609668117293
 30
0.0
 10
0.3352139295273653
 20
0.3055885148193891
 30
0.0
 10
0.329495218399573
 20
0.3061645236154719
 30
0.0
 10
0.3251072929821466
 20
0.306946537731661
 30
0.0
 10
0.3230254728744941
 20
0.3074741131023386
 30
0.0
 10
0.3219845626672095
 20
0.307737900826567
 30
0.0
  0
SPLINE
  5
8D
330
1F
100
AcDbEntity
  8
0
  6
Continuous
 62
     7
370
    25
100
AcDbSpline
210
0.0
220
0.0
230
1.0
 70
     8
 71
     3
 72
    33
 73
    29
 74
     0
 42
0.00000001
 43
0.00000001
 40
0.0
 40
0.0
 40
0.0
 40
0.0
 40
0.0125326068921781
 40
0.0250361825345119
 40
0.0375300660551971
 40
0.0500336415545698
 40
0.0625662481614876
 40
0.0938388079231206
 40
0.1251113678840797
 40
0.1563839278987392
 40
0.1876564877172139
 40
0.25012590569325
 40
0.3125953227502234
 40
0.3750647411486716
 40
0.4375341575448561
 40
0.5000035755504129
 40
0.5624729935559697
 40
0.6249424099521541
 40
0.6874118283506021
 40
0.7498812454075756
 40
0.8123506633836116
 40
0.8436232232020865
 40
0.8748957832167459
 40
0.906168343177705
 40
0.9374409029393381
 40
0.958308881670814
 40
0.9791320208719558
 40
1.0
 40
1.0
 40
1.0
 40
1.0
 10
0.2256568702281553
 20
0.2086452509583742
 30
0.0
 10
0.2240624695767077
 20
0.2071305908123633
 30
0.0
 10
0.2208773616349833
 20
0.2041047791660291
 30
0.0
 10
0.2156696132437887
 20
0.1996956461059832
 30
0.0
 10
0.2101572977528886
 20
0.195391836565256
 30
0.0
 10
0.2043088158469077
 20
0.1912018015163315
 30
0.0
 10
0.1950651424048657
 20
0.1850972851377324
 30
0.0
 10
0.1816692693563162
 20
0.1773974739972363
 30
0.0
 10
0.1631719920966523
 20
0.1686761085806414
 30
0.0
 10
0.1431107455000847
 20
0.1609226862777736
 30
0.0
 10
0.1145432983715637
 20
0.1520005678365396
 30
0.0
 10
0.0758453014374361
 20
0.1436151339179293
 30
0.0
 10
0.0265312543443707
 20
0.1384246408100973
 30
0.0
 10
-0.0238096058952209
 20
0.1382858433439648
 30
0.0
 10
-0.0732335365438006
 20
0.1432087362143278
 30
0.0
 10
-0.1198436712326809
 20
0.1530028558258771
 30
0.0
 10
-0.1618481084934934
 20
0.167292278029342
 30
0.0
 10
-0.1976329772276946
 20
0.185527311329092
 30
0.0
 10
-0.2258224383317183
 20
0.207008966289139
 30
0.0
 10
-0.2453354378651032
 20
0.23090518016739
 30
0.0
 10
-0.2537360655470875
 20
0.2520909977317997
 30
0.0
 10
-0.2555586484870898
 20
0.2692725023609454
 30
0.0
 10
-0.2544542939521559
 20
0.2821779186421035
 30
0.0
 10
-0.2509133596536301
 20
0.294964409539372
 30
0.0
 10
-0.2456082112277203
 20
0.3061211322562983
 30
0.0
 10
-0.2394312888458114
 20
0.3156378855528923
 30
0.0
 10
-0.2331735024975297
 20
0.3236206411128832
 30
0.0
 10
-0.2281642101944603
 20
0.3287401484018553
 30
0.0
 10
-0.2256568702281553
 20
0.3313026551307131
 30
0.0
  0
SPLINE
  5
8E
330
1F
100
AcDbEntity
  8
0
  6
Continuous
 62
     7
370
    25
100
AcDbSpline
210
0.0
220
0.0
230
1.0
 70
     8
 71
     3
 72
    33
 73
    29
 74
     0
 42
0.00000001
 43
0.00000001
 40
0.0
 40
0.0
 40
0.0
 40
0.0
 40
0.012532606892178
 40
0.025036182534512
 40
0.037530066055197
 40
0.0500336415545698
 40
0.0625662481614877
 40
0.0938388079231207
 40
0.1251113678840798
 40
0.1563839278987391
 40
0.1876564877172141
 40
0.25012590569325
 40
0.3125953227502235
 40
0.3750647411486716
 40
0.437534157544856
 40
0.5000035755504129
 40
0.5624729935559695
 40
0.6249424099521541
 40
0.6874118283506023
 40
0.7498812454075757
 40
0.8123506633836118
 40
0.8436232232020868
 40
0.8748957832167461
 40
0.9061683431777052
 40
0.9374409029393381
 40
0.9583088816708139
 40
0.9791320208719556
 40
1.0
 40
1.0
 40
1.0
 40
1.0
 10
-0.2256568702281553
 20
0.331302655130713
 30
0.0
 10
-0.2240624695767077
 20
0.3328173152767239
 30
0.0
 10
-0.2208773616349833
 20
0.3358431269230582
 30
0.0
 10
-0.2156696132437888
 20
0.3402522599831043
 30
0.0
 10
-0.2101572977528882
 20
0.344556069523831
 30
0.0
 10
-0.2043088158469081
 20
0.348746104572756
 30
0.0
 10
-0.1950651424048654
 20
0.3548506209513547
 30
0.0
 10
-0.1816692693563167
 20
0.3625504320918513
 30
0.0
 10
-0.1631719920966522
 20
0.3712717975084457
 30
0.0
 10
-0.1431107455000847
 20
0.3790252198113137
 30
0.0
 10
-0.1145432983715637
 20
0.3879473382525476
 30
0.0
 10
-0.0758453014374361
 20
0.3963327721711579
 30
0.0
 10
-0.0265312543443706
 20
0.4015232652789901
 30
0.0
 10
0.0238096058952209
 20
0.4016620627451226
 30
0.0
 10
0.0732335365438006
 20
0.3967391698747595
 30
0.0
 10
0.1198436712326808
 20
0.3869450502632101
 30
0.0
 10
0.1618481084934934
 20
0.3726556280597454
 30
0.0
 10
0.1976329772276947
 20
0.3544205947599953
 30
0.0
 10
0.2258224383317182
 20
0.3329389397999483
 30
0.0
 10
0.2453354378651031
 20
0.3090427259216975
 30
0.0
 10
0.2537360655470877
 20
0.2878569083572875
 30
0.0
 10
0.2555586484870897
 20
0.270675403728142
 30
0.0
 10
0.2544542939521559
 20
0.2577699874469837
 30
0.0
 10
0.2509133596536303
 20
0.2449834965497155
 30
0.0
 10
0.2456082112277203
 20
0.233826773832789
 30
0.0
 10
0.2394312888458115
 20
0.2243100205361951
 30
0.0
 10
0.2331735024975294
 20
0.2163272649762043
 30
0.0
 10
0.2281642101944603
 20
0.211207757687232
 30
0.0
 10
0.2256568702281553
 20
0.2086452509583742
 30
0.0
  0
SPLINE
  5
94
330
1F
100
AcDbEntity
  8
0
  6
Continuous
 62
     7
370
    25
100
AcDbSpline
210
0.0
220
0.0
230
1.0
 70
     8
 71
     3
 72
    11
 73
     7
 74
     0
 42
0.00000001
 43
0.00000001
 40
0.0
 40
0.0
 40
0.0
 40
0.0
 40
0.1575158953748401
 40
0.4383439302498934
 40
0.7191719651249466
 40
1.0
 40
1.0
 40
1.0
 40
1.0
 10
0.88881166333994
 20
-0.1174780830440761
 30
0.0
 10
0.8902216547820831
 20
-0.1190670093474852
 30
0.0
 10
0.8941454568142336
 20
-0.1234887611907284
 30
0.0
 10
0.8985413902622812
 20
-0.1354254947714028
 30
0.0
 10
0.9020738761693852
 20
-0.1521107211334223
 30
0.0
 10
0.9024996201522107
 20
-0.1657332809746933
 30
0.0
 10
0.9027124921436238
 20
-0.1725445608953289
 30
0.0
  0
SPLINE
  5
95
330
1F
100
AcDbEntity
  8
0
  6
Continuous
 62
     7
370
    25
100
AcDbSpline
210
0.0
220
0.0
230
1.0
 70
     8
 71
     3
 72
    17
 73
    13
 74
     0
 42
0.00000001
 43
0.00000001
 40
0.0
 40
0.0
 40
0.0
 40
0.0
 40
0.1037969077723597
 40
0.2075938155447199
 40
0.3113907233170805
 40
0.4151876310894402
 40
0.5189845388618
 40
0.6227814466341601
 40
0.7265783544065203
 40
0.8303752621788805
 40
0.9341721699512405
 40
0.9999999999999999
 40
0.9999999999999999
 40
0.9999999999999999
 40
0.9999999999999999
 10
0.902712492143624
 20
-0.1725445609145709
 30
0.0
 10
0.9024953783889458
 20
-0.1797690991068276
 30
0.0
 10
0.9020611508795888
 20
-0.1942181754913411
 30
0.0
 10
0.8985922914134713
 20
-0.2178332445079579
 30
0.0
 10
0.8932008329289509
 20
-0.2417391743908203
 30
0.0
 10
0.8858900635943013
 20
-0.2652152332289188
 30
0.0
 10
0.8769949295457906
 20
-0.2873104906923027
 30
0.0
 10
0.8668451788708936
 20
-0.3071729130793528
 30
0.0
 10
0.8558252111268178
 20
-0.3240996585867901
 30
0.0
 10
0.8443932030953193
 20
-0.3372013274272383
 30
0.0
 10
0.8342622382441384
 20
-0.3456907343478733
 30
0.0
 10
0.8283489910291205
 20
-0.3477763318469999
 30
0.0
 10
0.8260541828678426
 20
-0.3485857088251821
 30
0.0
  0
SPLINE
  5
96
330
1F
100
AcDbEntity
  8
0
  6
Continuous
 62
     7
370
    25
100
AcDbSpline
210
0.0
220
0.0
230
1.0
 70
     8
 71
     3
 72
    28
 73
    24
 74
     0
 42
0.00000001
 43
0.00000001
 40
0.0
 40
0.0
 40
0.0
 40
0.0
 40
0.0208715796087612
 40
0.0416983120771539
 40
0.0625698923264251
 40
0.0938478484978713
 40
0.1251258057670327
 40
0.1876060022504955
 40
0.2500862001266994
 40
0.3125663980029031
 40
0.3750465944863658
 40
0.4375267922076511
 40
0.5000069896128299
 40
0.5624871870180086
 40
0.6249673847392938
 40
0.6874475812227566
 40
0.7499277790989605
 40
0.8124079769751642
 40
0.874888173458627
 40
0.9061661307277882
 40
0.9374440868992345
 40
0.9687220438102427
 40
1.0
 40
1.0
 40
1.0
 40
1.0
 10
0.8214082758015541
 20
-0.2518999685411626
 30
0.0
 10
0.8214176773205837
 20
-0.2509698278827128
 30
0.0
 10
0.8214364601574289
 20
-0.2491115451758588
 30
0.0
 10
0.8215894001896891
 20
-0.2462130964580276
 30
0.0
 10
0.8218738720989488
 20
-0.2427570450336551
 30
0.0
 10
0.8223616710036663
 20
-0.2387039815405279
 30
0.0
 10
0.8233750848939225
 20
-0.2325146173963502
 30
0.0
 10
0.8251559548894709
 20
-0.2246541287425176
 30
0.0
 10
0.8280305268235418
 20
-0.2154162645924392
 30
0.0
 10
0.8315333779334787
 20
-0.2067171466862755
 30
0.0
 10
0.835529707412253
 20
-0.1988934075118678
 30
0.0
 10
0.8398659890386926
 20
-0.1922450836888024
 30
0.0
 10
0.8443755683006342
 20
-0.1870278372604748
 30
0.0
 10
0.8488851489229678
 20
-0.1834421072334107
 30
0.0
 10
0.8532214264682315
 20
-0.1816257470013596
 30
0.0
 10
0.8572177709113168
 20
-0.1816483930502623
 30
0.0
 10
0.8607205662451834
 20
-0.1835097790972963
 30
0.0
 10
0.863595346319224
 20
-0.1871361224317777
 30
0.0
 10
0.8653755688380512
 20
-0.191520804076024
 30
0.0
 10
0.8663903043046618
 20
-0.1957307783044888
 30
0.0
 10
0.8669349113488086
 20
-0.1992219095525576
 30
0.0
 10
0.867279357453374
 20
-0.2029869323404287
 30
0.0
 10
0.8673216933200727
 20
-0.2057065807576374
 30
0.0
 10
0.8673428612531783
 20
-0.2070664049505635
 30
0.0
  0
SPLINE
  5
97
330
1F
100
AcDbEntity
  8
0
  6
Continuous
 62
     7
370
    25
100
AcDbSpline
210
0.0
220
0.0
230
1.0
 70
     8
 71
     3
 72
    28
 73
    24
 74
     0
 42
0.00000001
 43
0.00000001
 40
0.0
 40
0.0
 40
0.0
 40
0.0
 40
0.020871579608761
 40
0.0416983120771539
 40
0.0625698923264251
 40
0.0938478484978717
 40
0.1251258057670327
 40
0.1876060022504954
 40
0.250086200126699
 40
0.312566398002903
 40
0.3750465944863657
 40
0.4375267922076509
 40
0.5000069896128296
 40
0.5624871870180084
 40
0.6249673847392937
 40
0.6874475812227564
 40
0.7499277790989601
 40
0.812407976975164
 40
0.8748881734586267
 40
0.9061661307277881
 40
0.9374440868992344
 40
0.9687220438102428
 40
1.0
 40
1.0
 40
1.0
 40
1.0
 10
0.8673428612531783
 20
-0.2070664049505635
 30
0.0
 10
0.8673334597341488
 20
-0.2079965456090133
 30
0.0
 10
0.8673146768973031
 20
-0.2098548283158672
 30
0.0
 10
0.8671617368650435
 20
-0.2127532770336986
 30
0.0
 10
0.8668772649557837
 20
-0.216209328458071
 30
0.0
 10
0.8663894660510663
 20
-0.2202623919511983
 30
0.0
 10
0.8653760521608098
 20
-0.226451756095376
 30
0.0
 10
0.8635951821652618
 20
-0.2343122447492086
 30
0.0
 10
0.86072061023119
 20
-0.2435501088992867
 30
0.0
 10
0.8572177591212532
 20
-0.2522492268054505
 30
0.0
 10
0.8532214296424799
 20
-0.2600729659798585
 30
0.0
 10
0.8488851480160394
 20
-0.2667212898029236
 30
0.0
 10
0.8443755687540984
 20
-0.2719385362312514
 30
0.0
 10
0.8398659881317655
 20
-0.2755242662583156
 30
0.0
 10
0.8355297105865
 20
-0.2773406264903663
 30
0.0
 10
0.8315333661434159
 20
-0.277317980441464
 30
0.0
 10
0.8280305708095487
 20
-0.2754565943944297
 30
0.0
 10
0.8251557907355079
 20
-0.2718302510599483
 30
0.0
 10
0.8233755682166812
 20
-0.2674455694157022
 30
0.0
 10
0.8223608327500707
 20
-0.2632355951872373
 30
0.0
 10
0.8218162257059238
 20
-0.2597444639391686
 30
0.0
 10
0.8214717796013582
 20
-0.2559794411512973
 30
0.0
 10
0.8214294437346591
 20
-0.2532597927340885
 30
0.0
 10
0.8214082758015541
 20
-0.2518999685411626
 30
0.0
  0
SPLINE
  5
98
330
1F
100
AcDbEntity
  8
0
  6
Continuous
 62
     7
370
    25
100
AcDbSpline
210
0.0
220
0.0
230
1.0
 70
     8
 71
     3
 72
    10
 73
     6
 74
     0
 42
0.00000001
 43
0.00000001
 40
0.0
 40
0.0
 40
0.0
 40
0.0
 40
0.5000000000000001
 40
0.5000000000000001
 40
0.9999999999999999
 40
0.9999999999999999
 40
0.9999999999999999
 40
0.9999999999999999
 10
0.1161439295067336
 20
0.0975507780110044
 30
0.0
 10
0.1219154755091212
 20
0.0959821954783857
 30
0.0
 10
0.1262411278765804
 20
0.0932967995125757
 30
0.0
 10
0.1300962455376211
 20
0.0868746457503574
 30
0.0
 10
0.1294681061413678
 20
0.0834004380602651
 30
0.0
 10
0.1264225399790945
 20
0.0804278721182623
 30
0.0
  0
SPLINE
  5
99
330
1F
100
AcDbEntity
  8
0
  6
Continuous
 62
     7
370
    25
100
AcDbSpline
210
0.0
220
0.0
230
1.0
 70
     8
 71
     3
 72
    10
 73
     6
 74
     0
 42
0.00000001
 43
0.00000001
 40
0.0
 40
0.0
 40
0.0
 40
0.0
 40
0.4999999999999999
 40
0.4999999999999999
 40
1.0
 40
1.0
 40
1.0
 40
1.0
 10
0.0828980264951308
 20
0.0922569022682661
 30
0.0
 10
0.085943592658814
 20
0.0952294682073973
 30
0.0
 10
0.0911575682772615
 20
0.0974573438724479
 30
0.0
 10
0.1036268478731836
 20
0.0994428762479477
 30
0.0
 10
0.1103723835081249
 20
0.0991193605425954
 30
0.0
 10
0.1161439295067336
 20
0.0975507780110036
 30
0.0
  0
SPLINE
  5
9A
330
1F
100
AcDbEntity
  8
0
  6
Continuous
 62
     7
370
    25
100
AcDbSpline
210
0.0
220
0.0
230
1.0
 70
     8
 71
     3
 72
    10
 73
     6
 74
     0
 42
0.00000001
 43
0.00000001
 40
0.0
 40
0.0
 40
0.0
 40
0.0
 40
0.0396632116039506
 40
0.519831605801977
 40
1.0
 40
1.0
 40
1.0
 40
1.0
 10
0.0815294437519565
 20
0.0822398554726597
 30
0.0
 10
0.0814004462895509
 20
0.0823588576855792
 30
0.0
 10
0.0797097874821831
 20
0.083918517353426
 30
0.0
 10
0.0795729441680927
 20
0.087642371023839
 30
0.0
 10
0.0817896657194514
 20
0.0907187251867903
 30
0.0
 10
0.0828980264951308
 20
0.092256902268266
 30
0.0
  0
SPLINE
  5
9B
330
1F
100
AcDbEntity
  8
0
  6
Continuous
 62
     7
370
    25
100
AcDbSpline
210
0.0
220
0.0
230
1.0
 70
     8
 71
     3
 72
    12
 73
     8
 74
     0
 42
0.00000001
 43
0.00000001
 40
0.0
 40
0.0
 40
0.0
 40
0.0
 40
0.0787907821875877
 40
0.3260251163302277
 40
0.5732594504728675
 40
0.8204937846155077
 40
1.0
 40
1.0
 40
1.0
 40
1.0
 10
0.0821304697935659
 20
0.0913899864181072
 30
0.0
 10
0.0829130422997381
 20
0.0919308313721157
 30
0.0
 10
0.0861512166810279
 20
0.0941687713208201
 30
0.0
 10
0.0953175300324251
 20
0.096300819667581
 30
0.0
 10
0.1075355544174516
 20
0.0970110801184885
 30
0.0
 10
0.1188487575272993
 20
0.0954803256398458
 30
0.0
 10
0.1240514474023104
 20
0.0929746477684421
 30
0.0
 10
0.126239932115838
 20
0.0919206472705594
 30
0.0
  0
SPLINE
  5
9C
330
1F
100
AcDbEntity
  8
0
  6
Continuous
 62
     7
370
    25
100
AcDbSpline
210
0.0
220
0.0
230
1.0
 70
     8
 71
     3
 72
    13
 73
     9
 74
     0
 42
0.00000001
 43
0.00000001
 40
0.0
 40
0.0
 40
0.0
 40
0.0
 40
0.1855480668098989
 40
0.3710961336197967
 40
0.5566442004296943
 40
0.7421922672395922
 40
0.9277403340494903
 40
1.0
 40
1.0
 40
1.0
 40
1.0
 10
0.0828980264927754
 20
0.080562226772735
 30
0.0
 10
0.0847289042289488
 20
0.0819405299538634
 30
0.0
 10
0.0883906597012956
 20
0.0846971363161202
 30
0.0
 10
0.0972344196510984
 20
0.0870568874963982
 30
0.0
 10
0.1070249101519786
 20
0.0876079211010899
 30
0.0
 10
0.1163163430495429
 20
0.0861092370739035
 30
0.0
 10
0.1228928373540292
 20
0.083705866482818
 30
0.0
 10
0.1248338670696426
 20
0.0816283549714267
 30
0.0
 10
0.1253779087760277
 20
0.0810460594513735
 30
0.0
  0
SPLINE
  5
9D
330
1F
100
AcDbEntity
  8
0
  6
Continuous
 62
     7
370
    25
100
AcDbSpline
210
0.0
220
0.0
230
1.0
 70
     8
 71
     3
 72
    12
 73
     8
 74
     0
 42
0.00000001
 43
0.00000001
 40
0.0
 40
0.0
 40
0.0
 40
0.0
 40
0.0268961249957284
 40
0.2997620247930117
 40
0.5726279245902948
 40
0.8454938243875784
 40
0.9999999999999999
 40
0.9999999999999999
 40
0.9999999999999999
 40
0.9999999999999999
 10
0.0838317171635972
 20
0.0807746377841392
 30
0.0
 10
0.0840811294972278
 20
0.0809380835215673
 30
0.0
 10
0.0868608736480799
 20
0.0827597148979463
 30
0.0
 10
0.0953926257603597
 20
0.0845744152963561
 30
0.0
 10
0.1074969091959918
 20
0.0853107276309963
 30
0.0
 10
0.1182478965404993
 20
0.0839211396868891
 30
0.0
 10
0.1230002591995439
 20
0.081674410408389
 30
0.0
 10
0.1247183625147134
 20
0.0808621590507759
 30
0.0
  0
SPLINE
  5
9E
330
1F
100
AcDbEntity
  8
0
  6
Continuous
 62
     7
370
    25
100
AcDbSpline
210
0.0
220
0.0
230
1.0
 70
     8
 71
     3
 72
    11
 73
     7
 74
     0
 42
0.00000001
 43
0.00000001
 40
0.0
 40
0.0
 40
0.0
 40
0.0
 40
0.1575158953748396
 40
0.4383439302498928
 40
0.7191719651249465
 40
1.0
 40
1.0
 40
1.0
 40
1.0
 10
1.04142105552007
 20
0.0314733621809212
 30
0.0
 10
1.042831046962214
 20
0.0298844358775121
 30
0.0
 10
1.046754848994364
 20
0.025462684034269
 30
0.0
 10
1.051150782442412
 20
0.0135259504535945
 30
0.0
 10
1.054683268349515
 20
-0.003159275908425
 30
0.0
 10
1.055109012332341
 20
-0.016781835749696
 30
0.0
 10
1.055321884323754
 20
-0.0235931156703316
 30
0.0
  0
SPLINE
  5
9F
330
1F
100
AcDbEntity
  8
0
  6
Continuous
 62
     7
370
    25
100
AcDbSpline
210
0.0
220
0.0
230
1.0
 70
     8
 71
     3
 72
    17
 73
    13
 74
     0
 42
0.00000001
 43
0.00000001
 40
0.0
 40
0.0
 40
0.0
 40
0.0
 40
0.1037969077723597
 40
0.2075938155447199
 40
0.3113907233170806
 40
0.4151876310894402
 40
0.5189845388618
 40
0.62278144663416
 40
0.7265783544065201
 40
0.8303752621788804
 40
0.9341721699512404
 40
1.0
 40
1.0
 40
1.0
 40
1.0
 10
1.055321884323754
 20
-0.0235931156895735
 30
0.0
 10
1.055104770569076
 20
-0.0308176538818302
 30
0.0
 10
1.054670543059719
 20
-0.0452667302663437
 30
0.0
 10
1.051201683593602
 20
-0.0688817992829606
 30
0.0
 10
1.045810225109081
 20
-0.092787729165823
 30
0.0
 10
1.038499455774432
 20
-0.1162637880039216
 30
0.0
 10
1.029604321725921
 20
-0.1383590454673053
 30
0.0
 10
1.019454571051024
 20
-0.1582214678543555
 30
0.0
 10
1.008434603306948
 20
-0.1751482133617927
 30
0.0
 10
0.9970025952754498
 20
-0.188249882202241
 30
0.0
 10
0.9868716304242687
 20
-0.196739289122876
 30
0.0
 10
0.9809583832092506
 20
-0.1988248866220025
 30
0.0
 10
0.978663575047973
 20
-0.1996342636001848
 30
0.0
  0
SPLINE
  5
A0
330
1F
100
AcDbEntity
  8
0
  6
Continuous
 62
     7
370
    25
100
AcDbSpline
210
0.0
220
0.0
230
1.0
 70
     8
 71
     3
 72
    28
 73
    24
 74
     0
 42
0.00000001
 43
0.00000001
 40
0.0
 40
0.0
 40
0.0
 40
0.0
 40
0.020871579608761
 40
0.0416983120771539
 40
0.0625698923264251
 40
0.0938478484978717
 40
0.1251258057670328
 40
0.1876060022504955
 40
0.2500862001266989
 40
0.3125663980029029
 40
0.3750465944863655
 40
0.4375267922076509
 40
0.5000069896128296
 40
0.5624871870180084
 40
0.6249673847392938
 40
0.6874475812227568
 40
0.7499277790989599
 40
0.812407976975164
 40
0.8748881734586269
 40
0.9061661307277881
 40
0.9374440868992344
 40
0.968722043810243
 40
1.0
 40
1.0
 40
1.0
 40
1.0
 10
0.9740176679816845
 20
-0.1029485233161653
 30
0.0
 10
0.9740270695007137
 20
-0.1020183826577155
 30
0.0
 10
0.9740458523375591
 20
-0.1001600999508614
 30
0.0
 10
0.9741987923698195
 20
-0.0972616512330302
 30
0.0
 10
0.9744832642790792
 20
-0.0938055998086578
 30
0.0
 10
0.9749710631837963
 20
-0.0897525363155304
 30
0.0
 10
0.975984477074053
 20
-0.0835631721713529
 30
0.0
 10
0.9777653470696012
 20
-0.0757026835175202
 30
0.0
 10
0.9806399190036715
 20
-0.0664648193674418
 30
0.0
 10
0.9841427701136095
 20
-0.0577657014612783
 30
0.0
 10
0.988139099592383
 20
-0.0499419622868704
 30
0.0
 10
0.992475381218823
 20
-0.0432936384638051
 30
0.0
 10
0.9969849604807647
 20
-0.0380763920354773
 30
0.0
 10
1.001494541103098
 20
-0.0344906620084133
 30
0.0
 10
1.005830818648362
 20
-0.0326743017763623
 30
0.0
 10
1.009827163091448
 20
-0.0326969478252648
 30
0.0
 10
1.013329958425313
 20
-0.0345583338722991
 30
0.0
 10
1.016204738499355
 20
-0.0381846772067804
 30
0.0
 10
1.017984961018182
 20
-0.0425693588510265
 30
0.0
 10
1.018999696484792
 20
-0.0467793330794914
 30
0.0
 10
1.019544303528939
 20
-0.0502704643275602
 30
0.0
 10
1.019888749633504
 20
-0.0540354871154313
 30
0.0
 10
1.019931085500203
 20
-0.0567551355326402
 30
0.0
 10
1.019952253433309
 20
-0.0581149597255661
 30
0.0
  0
SPLINE
  5
A1
330
1F
100
AcDbEntity
  8
0
  6
Continuous
 62
     7
370
    25
100
AcDbSpline
210
0.0
220
0.0
230
1.0
 70
     8
 71
     3
 72
    28
 73
    24
 74
     0
 42
0.00000001
 43
0.00000001
 40
0.0
 40
0.0
 40
0.0
 40
0.0
 40
0.0208715796087612
 40
0.0416983120771539
 40
0.0625698923264251
 40
0.0938478484978713
 40
0.1251258057670326
 40
0.1876060022504955
 40
0.2500862001266996
 40
0.312566398002903
 40
0.3750465944863656
 40
0.4375267922076511
 40
0.5000069896128299
 40
0.5624871870180086
 40
0.624967384739294
 40
0.6874475812227567
 40
0.7499277790989605
 40
0.8124079769751641
 40
0.874888173458627
 40
0.9061661307277882
 40
0.9374440868992345
 40
0.9687220438102427
 40
1.0
 40
1.0
 40
1.0
 40
1.0
 10
1.019952253433309
 20
-0.0581149597255661
 30
0.0
 10
1.019942851914279
 20
-0.0590451003840159
 30
0.0
 10
1.019924069077434
 20
-0.06090338309087
 30
0.0
 10
1.019771129045173
 20
-0.0638018318087011
 30
0.0
 10
1.019486657135914
 20
-0.0672578832330737
 30
0.0
 10
1.018998858231197
 20
-0.071310946726201
 30
0.0
 10
1.017985444340939
 20
-0.0775003108703784
 30
0.0
 10
1.016204574345393
 20
-0.0853607995242112
 30
0.0
 10
1.01333000241132
 20
-0.0945986636742894
 30
0.0
 10
1.009827151301383
 20
-0.103297781580453
 30
0.0
 10
1.005830821822611
 20
-0.1111215207548611
 30
0.0
 10
1.00149454019617
 20
-0.1177698445779262
 30
0.0
 10
0.9969849609342287
 20
-0.122987091006254
 30
0.0
 10
0.9924753803118954
 20
-0.1265728210333182
 30
0.0
 10
0.9881391027666303
 20
-0.128389181265369
 30
0.0
 10
0.9841427583235463
 20
-0.1283665352164665
 30
0.0
 10
0.9806399629896794
 20
-0.1265051491694325
 30
0.0
 10
0.977765182915638
 20
-0.1228788058349509
 30
0.0
 10
0.9759849603968117
 20
-0.1184941241907048
 30
0.0
 10
0.9749702249302008
 20
-0.1142841499622399
 30
0.0
 10
0.9744256178860542
 20
-0.1107930187141713
 30
0.0
 10
0.9740811717814886
 20
-0.1070279959263
 30
0.0
 10
0.9740388359147896
 20
-0.1043083475090913
 30
0.0
 10
0.9740176679816845
 20
-0.1029485233161653
 30
0.0
  0
SPLINE
  5
A2
330
1F
100
AcDbEntity
  8
0
  6
Continuous
 62
     7
370
    25
100
AcDbSpline
210
0.0
220
0.0
230
1.0
 70
     8
 71
     3
 72
    11
 73
     7
 74
     0
 42
0.00000001
 43
0.00000001
 40
0.0
 40
0.0
 40
0.0
 40
0.0
 40
0.2651630641921648
 40
0.5303261283843281
 40
0.7954891925764921
 40
1.0
 40
1.0
 40
1.0
 40
1.0
 10
-0.3270373668666284
 20
0.2179979581387958
 30
0.0
 10
-0.3243558553965103
 20
0.2170542510690522
 30
0.0
 10
-0.318992832456274
 20
0.2151668369295651
 30
0.0
 10
-0.3144920169904953
 20
0.2106229937129605
 30
0.0
 10
-0.3132197670404379
 20
0.2059262651802248
 30
0.0
 10
-0.3152489129866967
 20
0.2031625496071582
 30
0.0
 10
-0.3161324670886569
 20
0.2019591407366743
 30
0.0
  0
SPLINE
  5
A4
330
1F
100
AcDbEntity
  8
0
  6
Continuous
 62
     7
370
    25
100
AcDbSpline
210
0.0
220
0.0
230
1.0
 70
     8
 71
     3
 72
     9
 73
     5
 74
     0
 42
0.00000001
 43
0.00000001
 40
0.0
 40
0.0
 40
0.0
 40
0.0
 40
0.7197149592438652
 40
0.9999999999999999
 40
0.9999999999999999
 40
0.9999999999999999
 40
0.9999999999999999
 10
-0.3270373668537932
 20
0.2063032826420752
 30
0.0
 10
-0.3242068969891465
 20
0.2054121945003249
 30
0.0
 10
-0.3202741319016728
 20
0.2041740819249149
 30
0.0
 10
-0.3183442930660578
 20
0.2020801405189395
 30
0.0
 10
-0.3178033881093648
 20
0.2014932400666247
 30
0.0
  0
SPLINE
  5
A5
330
1F
100
AcDbEntity
  8
0
  6
Continuous
 62
     7
370
    25
100
AcDbSpline
210
0.0
220
0.0
230
1.0
 70
     8
 71
     3
 72
    14
 73
    10
 74
     0
 42
0.00000001
 43
0.00000001
 40
0.0
 40
0.0
 40
0.0
 40
0.0
 40
0.0135801588744929
 40
0.1779834657287437
 40
0.3423867725829953
 40
0.506790079437247
 40
0.6711933862914977
 40
0.8355966931457488
 40
1.0
 40
1.0
 40
1.0
 40
1.0
 10
-0.3616518526235386
 20
0.2026870356013429
 30
0.0
 10
-0.3617810369032932
 20
0.2028060787033394
 30
0.0
 10
-0.3634741441814101
 20
0.2043662742842786
 30
0.0
 10
-0.3634305028995556
 20
0.2080506239813429
 30
0.0
 10
-0.3609125274160695
 20
0.2128418125429699
 30
0.0
 10
-0.3546190067400043
 20
0.2168066201894968
 30
0.0
 10
-0.346004138948536
 20
0.2191904999444807
 30
0.0
 10
-0.3360989672899504
 20
0.2198151211549013
 30
0.0
 10
-0.330057900341069
 20
0.2186036791441642
 30
0.0
 10
-0.3270373668666284
 20
0.2179979581387958
 30
0.0
  0
SPLINE
  5
A7
330
1F
100
AcDbEntity
  8
0
  6
Continuous
 62
     7
370
    25
100
AcDbSpline
210
0.0
220
0.0
230
1.0
 70
     8
 71
     3
 72
    11
 73
     7
 74
     0
 42
0.00000001
 43
0.00000001
 40
0.0
 40
0.0
 40
0.0
 40
0.0
 40
0.080941371129283
 40
0.387294247419521
 40
0.6936471237097583
 40
1.0
 40
1.0
 40
1.0
 40
1.0
 10
-0.3606297720336313
 20
0.2121042972929827
 30
0.0
 10
-0.359976351154017
 20
0.2125508715820916
 30
0.0
 10
-0.3568498146957429
 20
0.2146876732053444
 30
0.0
 10
-0.3478982185169759
 20
0.2167019901679063
 30
0.0
 10
-0.3354726182197585
 20
0.2175986909601227
 30
0.0
 10
-0.3277266803254733
 20
0.2160382077543382
 30
0.0
 10
-0.3238537113783305
 20
0.215257966151446
 30
0.0
  0
SPLINE
  5
A8
330
1F
100
AcDbEntity
  8
0
  6
Continuous
 62
     7
370
    25
100
AcDbSpline
210
0.0
220
0.0
230
1.0
 70
     8
 71
     3
 72
    11
 73
     7
 74
     0
 42
0.00000001
 43
0.00000001
 40
0.0
 40
0.0
 40
0.0
 40
0.0
 40
0.2159819529522003
 40
0.4773213019681334
 40
0.7386606509840672
 40
1.0
 40
1.0
 40
1.0
 40
1.0
 10
-0.3592330468524101
 20
0.2016757026675087
 30
0.0
 10
-0.357705489671583
 20
0.2028086848351258
 30
0.0
 10
-0.3543295799142316
 20
0.205312581646696
 30
0.0
 10
-0.3459440086831657
 20
0.2074777755459215
 30
0.0
 10
-0.3361139998480433
 20
0.2081249578881047
 30
0.0
 10
-0.3300629111878154
 20
0.2069105077247931
 30
0.0
 10
-0.3270373668577014
 20
0.2063032826431374
 30
0.0
  0
SPLINE
  5
A9
330
1F
100
AcDbEntity
  8
0
  6
Continuous
 62
     7
370
    25
100
AcDbSpline
210
0.0
220
0.0
230
1.0
 70
     8
 71
     3
 72
    11
 73
     7
 74
     0
 42
0.00000001
 43
0.00000001
 40
0.0
 40
0.0
 40
0.0
 40
0.0
 40
0.0121129461090471
 40
0.3414086307393636
 40
0.6707043153696794
 40
1.0
 40
1.0
 40
1.0
 40
1.0
 10
-0.3588720620270809
 20
0.2015247703988547
 30
0.0
 10
-0.3587779574507098
 20
0.2015852503750628
 30
0.0
 10
-0.35612557922035
 20
0.2032899046910708
 30
0.0
 10
-0.3478196110628263
 20
0.2049648042183564
 30
0.0
 10
-0.335492270083296
 20
0.20591464308097
 30
0.0
 10
-0.3277332309466523
 20
0.2043470747991325
 30
0.0
 10
-0.3238537113783305
 20
0.2035632906582138
 30
0.0
  0
SPLINE
  5
AC
330
1F
100
AcDbEntity
  8
0
  6
Continuous
 62
     7
370
    25
100
AcDbSpline
210
0.0
220
0.0
230
1.0
 70
     8
 71
     3
 72
    11
 73
     7
 74
     0
 42
0.00000001
 43
0.00000001
 40
0.0
 40
0.0
 40
0.0
 40
0.0
 40
0.2651630585637874
 40
0.5303261171275745
 40
0.7954891756913622
 40
0.9999999999999999
 40
0.9999999999999999
 40
0.9999999999999999
 40
0.9999999999999999
 10
0.3500046594126431
 20
0.3258060197312669
 30
0.0
 10
0.3526861708817774
 20
0.3248623126616059
 30
0.0
 10
0.3580491938200459
 20
0.3229748985222837
 30
0.0
 10
0.362550009300583
 20
0.3184310553044421
 30
0.0
 10
0.3638222592355835
 20
0.3137343266403814
 30
0.0
 10
0.3617931131749652
 20
0.3109706109443121
 30
0.0
 10
0.3609095589714362
 20
0.3097672019497537
 30
0.0
  0
SPLINE
  5
AE
330
1F
100
AcDbEntity
  8
0
  6
Continuous
 62
     7
370
    25
100
AcDbSpline
210
0.0
220
0.0
230
1.0
 70
     8
 71
     3
 72
     9
 73
     5
 74
     0
 42
0.00000001
 43
0.00000001
 40
0.0
 40
0.0
 40
0.0
 40
0.0
 40
0.7197149293821197
 40
1.0
 40
1.0
 40
1.0
 40
1.0
 10
0.3500046594126431
 20
0.3141113442380347
 30
0.0
 10
0.3528351292648692
 20
0.3132202560906771
 30
0.0
 10
0.3567678944982596
 20
0.3119821434561059
 30
0.0
 10
0.3586977333962017
 20
0.3098882019544425
 30
0.0
 10
0.3592386384279924
 20
0.3093013014127791
 30
0.0
  0
SPLINE
  5
AF
330
1F
100
AcDbEntity
  8
0
  6
Continuous
 62
     7
370
    25
100
AcDbSpline
210
0.0
220
0.0
230
1.0
 70
     8
 71
     3
 72
    14
 73
    10
 74
     0
 42
0.00000001
 43
0.00000001
 40
0.0
 40
0.0
 40
0.0
 40
0.0
 40
0.0135801588744929
 40
0.177983465728744
 40
0.3423867725829954
 40
0.5067900794372469
 40
0.6711933862914979
 40
0.8355966931457492
 40
1.0
 40
1.0
 40
1.0
 40
1.0
 10
0.315390173655733
 20
0.3104950971938141
 30
0.0
 10
0.3152609893759785
 20
0.3106141402958106
 30
0.0
 10
0.3135678820978611
 20
0.3121743358767496
 30
0.0
 10
0.313611523379716
 20
0.3158586855738141
 30
0.0
 10
0.3161294988632021
 20
0.320649874135441
 30
0.0
 10
0.3224230195392671
 20
0.324614681781968
 30
0.0
 10
0.3310378873307356
 20
0.3269985615369519
 30
0.0
 10
0.340943058989321
 20
0.3276231827473725
 30
0.0
 10
0.3469841259382024
 20
0.3264117407366354
 30
0.0
 10
0.3500046594126431
 20
0.3258060197312669
 30
0.0
  0
SPLINE
  5
B1
330
1F
100
AcDbEntity
  8
0
  6
Continuous
 62
     7
370
    25
100
AcDbSpline
210
0.0
220
0.0
230
1.0
 70
     8
 71
     3
 72
    11
 73
     7
 74
     0
 42
0.00000001
 43
0.00000001
 40
0.0
 40
0.0
 40
0.0
 40
0.0
 40
0.0809413709549912
 40
0.3872942473033285
 40
0.6936471236516649
 40
1.0
 40
1.0
 40
1.0
 40
1.0
 10
0.3164122542462539
 20
0.3199123588865162
 30
0.0
 10
0.3170656751240564
 20
0.3203589331744582
 30
0.0
 10
0.3201922115794555
 20
0.3224957347960868
 30
0.0
 10
0.3291438077521186
 20
0.3245100517584331
 30
0.0
 10
0.3415694080443387
 20
0.3254067525530123
 30
0.0
 10
0.3493153459378111
 20
0.3238462693499192
 30
0.0
 10
0.3531883148845473
 20
0.3230660277483727
 30
0.0
  0
SPLINE
  5
B2
330
1F
100
AcDbEntity
  8
0
  6
Continuous
 62
     7
370
    25
100
AcDbSpline
210
0.0
220
0.0
230
1.0
 70
     8
 71
     3
 72
    11
 73
     7
 74
     0
 42
0.00000001
 43
0.00000001
 40
0.0
 40
0.0
 40
0.0
 40
0.0
 40
0.2159819529872744
 40
0.4773213019915164
 40
0.7386606509957587
 40
1.0
 40
1.0
 40
1.0
 40
1.0
 10
0.317808979426562
 20
0.309483764260105
 30
0.0
 10
0.3193365366073093
 20
0.3106167464275607
 30
0.0
 10
0.3227124463641016
 20
0.31312064323849
 30
0.0
 10
0.33109801759234
 20
0.3152858371376024
 30
0.0
 10
0.34092802642392
 20
0.3159330194806696
 30
0.0
 10
0.3469791150830688
 20
0.3147185693189131
 30
0.0
 10
0.3500046594126431
 20
0.3141113442380347
 30
0.0
  0
SPLINE
  5
B3
330
1F
100
AcDbEntity
  8
0
  6
Continuous
 62
     7
370
    25
100
AcDbSpline
210
0.0
220
0.0
230
1.0
 70
     8
 71
     3
 72
    11
 73
     7
 74
     0
 42
0.00000001
 43
0.00000001
 40
0.0
 40
0.0
 40
0.0
 40
0.0
 40
0.0121129459371686
 40
0.3414086306247801
 40
0.6707043153123909
 40
1.0
 40
1.0
 40
1.0
 40
1.0
 10
0.3181699642512216
 20
0.3093328319917311
 30
0.0
 10
0.3182640688262028
 20
0.3093933119670537
 30
0.0
 10
0.3209164470541347
 20
0.3110979662817225
 30
0.0
 10
0.3292224152062921
 20
0.3127728658088867
 30
0.0
 10
0.3415497561807955
 20
0.3137227046738588
 30
0.0
 10
0.34930879531663
 20
0.3121551363947132
 30
0.0
 10
0.3531883148845473
 20
0.3113713522551404
 30
0.0
  0
SPLINE
  5
B4
330
1F
100
AcDbEntity
  8
0
  6
Continuous
 62
     7
370
    25
100
AcDbSpline
210
0.0
220
0.0
230
1.0
 70
     8
 71
     3
 72
    10
 73
     6
 74
     0
 42
0.00000001
 43
0.00000001
 40
0.0
 40
0.0
 40
0.0
 40
0.0
 40
0.5000000000000001
 40
0.5000000000000001
 40
0.9999999999999999
 40
0.9999999999999999
 40
0.9999999999999999
 40
0.9999999999999999
 10
-0.0931766369607188
 20
0.4462531998590583
 30
0.0
 10
-0.0874050909583311
 20
0.4446846173264397
 30
0.0
 10
-0.0830794385908719
 20
0.4419992213606296
 30
0.0
 10
-0.0792243209298312
 20
0.4355770675984112
 30
0.0
 10
-0.0798524603260845
 20
0.432102859908319
 30
0.0
 10
-0.0828980264883578
 20
0.4291302939663161
 30
0.0
  0
SPLINE
  5
B5
330
1F
100
AcDbEntity
  8
0
  6
Continuous
 62
     7
370
    25
100
AcDbSpline
210
0.0
220
0.0
230
1.0
 70
     8
 71
     3
 72
    10
 73
     6
 74
     0
 42
0.00000001
 43
0.00000001
 40
0.0
 40
0.0
 40
0.0
 40
0.0
 40
0.4999999999999999
 40
0.4999999999999999
 40
1.0
 40
1.0
 40
1.0
 40
1.0
 10
-0.1264225399723216
 20
0.4409593241163199
 30
0.0
 10
-0.1233769738086384
 20
0.4439318900554511
 30
0.0
 10
-0.1181629981901909
 20
0.4461597657205018
 30
0.0
 10
-0.1056937185942687
 20
0.4481452980960016
 30
0.0
 10
-0.0989481829593275
 20
0.4478217823906493
 30
0.0
 10
-0.0931766369607188
 20
0.4462531998590574
 30
0.0
  0
SPLINE
  5
B6
330
1F
100
AcDbEntity
  8
0
  6
Continuous
 62
     7
370
    25
100
AcDbSpline
210
0.0
220
0.0
230
1.0
 70
     8
 71
     3
 72
    10
 73
     6
 74
     0
 42
0.00000001
 43
0.00000001
 40
0.0
 40
0.0
 40
0.0
 40
0.0
 40
0.0396632116039501
 40
0.5198316058019762
 40
1.0
 40
1.0
 40
1.0
 40
1.0
 10
-0.1277911227154959
 20
0.4309422773207135
 30
0.0
 10
-0.1279201201779016
 20
0.4310612795336331
 30
0.0
 10
-0.1296107789852693
 20
0.4326209392014804
 30
0.0
 10
-0.1297476222993597
 20
0.4363447928718925
 30
0.0
 10
-0.1275309007480009
 20
0.4394211470348441
 30
0.0
 10
-0.1264225399723216
 20
0.4409593241163199
 30
0.0
  0
SPLINE
  5
B7
330
1F
100
AcDbEntity
  8
0
  6
Continuous
 62
     7
370
    25
100
AcDbSpline
210
0.0
220
0.0
230
1.0
 70
     8
 71
     3
 72
    12
 73
     8
 74
     0
 42
0.00000001
 43
0.00000001
 40
0.0
 40
0.0
 40
0.0
 40
0.0
 40
0.0787907821025576
 40
0.3260251162876109
 40
0.5732594504726645
 40
0.8204937846577174
 40
1.0
 40
1.0
 40
1.0
 40
1.0
 10
-0.1271900966774233
 20
0.4400924082642358
 30
0.0
 10
-0.1264075241723252
 20
0.4406332532178668
 30
0.0
 10
-0.1231693497924085
 20
0.4428711931671317
 30
0.0
 10
-0.114003036439841
 20
0.4450032415150503
 30
0.0
 10
-0.1017850120512411
 20
0.4457135019668413
 30
0.0
 10
-0.0904718089386155
 20
0.4441827474878249
 30
0.0
 10
-0.0852691190636184
 20
0.4416770696156282
 30
0.0
 10
-0.0830806343506124
 20
0.4406230691176601
 30
0.0
  0
SPLINE
  5
B8
330
1F
100
AcDbEntity
  8
0
  6
Continuous
 62
     7
370
    25
100
AcDbSpline
210
0.0
220
0.0
230
1.0
 70
     8
 71
     3
 72
    13
 73
     9
 74
     0
 42
0.00000001
 43
0.00000001
 40
0.0
 40
0.0
 40
0.0
 40
0.0
 40
0.1855480706759001
 40
0.3710961413518
 40
0.5566442120277003
 40
0.7421922827035999
 40
0.9277403533795001
 40
1.0
 40
1.0
 40
1.0
 40
1.0
 10
-0.1264225399814499
 20
0.4292646486141781
 30
0.0
 10
-0.1245916622460258
 20
0.4306429517963222
 30
0.0
 10
-0.1209299067751777
 20
0.4333995581606102
 30
0.0
 10
-0.112086146826309
 20
0.4357593093427512
 30
0.0
 10
-0.1022956563145599
 20
0.436310342951879
 30
0.0
 10
-0.0930042234431845
 20
0.4348116589142319
 30
0.0
 10
-0.0864277293571725
 20
0.4324082884672186
 30
0.0
 10
-0.0844866997632717
 20
0.43033077713559
 30
0.0
 10
-0.0839426582039031
 20
0.4297484817867623
 30
0.0
  0
SPLINE
  5
B9
330
1F
100
AcDbEntity
  8
0
  6
Continuous
 62
     7
370
    25
100
AcDbSpline
210
0.0
220
0.0
230
1.0
 70
     8
 71
     3
 72
    12
 73
     8
 74
     0
 42
0.00000001
 43
0.00000001
 40
0.0
 40
0.0
 40
0.0
 40
0.0
 40
0.0268961504588855
 40
0.2997620504158186
 40
0.5726279503727523
 40
0.8454938503296849
 40
1.0
 40
1.0
 40
1.0
 40
1.0
 10
-0.1254888500314474
 20
0.4294770591716702
 30
0.0
 10
-0.1252394374657217
 20
0.42964050506582
 30
0.0
 10
-0.1224596931221698
 20
0.4314621366200184
 30
0.0
 10
-0.1139279407444614
 20
0.4332768371654769
 30
0.0
 10
-0.1018236572760465
 20
0.4340131494640472
 30
0.0
 10
-0.091072670285299
 20
0.4326235616180191
 30
0.0
 10
-0.0863203078918305
 20
0.4303768324919223
 30
0.0
 10
-0.0846022048574995
 20
0.4295645812767852
 30
0.0
  0
LINE
  5
BA
330
1F
100
AcDbEntity
  8
0
  6
Continuous
 62
     7
370
    25
100
AcDbLine
 10
1.0735664819
 20
0.2533260655
 30
0.0
 11
0.6325944613
 21
-0.1770761452
 31
0.0
  0
LINE
  5
BB
330
1F
100
AcDbEntity
  8
0
  6
Continuous
 62
     7
370
    25
100
AcDbLine
 10
1.1001632052
 20
0.2406877943
 30
0.0
 11
1.0735664819
 21
0.2533260655
 31
0.0
  0
LINE
  5
BC
330
1F
100
AcDbEntity
  8
0
  6
Continuous
 62
     7
370
    25
100
AcDbLine
 10
0.6408173502
 20
-0.207647842
 30
0.0
 11
1.1001632052
 21
0.2406877943
 31
0.0
  0
LINE
  5
BD
330
1F
100
AcDbEntity
  8
0
  6
Continuous
 62
     7
370
    25
100
AcDbLine
 10
0.6325944613
 20
-0.1770761452
 30
0.0
 11
0.6408173502
 21
-0.207647842
 31
0.0
  0
LINE
  5
BE
330
1F
100
AcDbEntity
  8
0
  6
Continuous
 62
     7
370
    25
100
AcDbLine
 10
-1.0735664816
 20
0.2866218401
 30
0.0
 11
-1.1001632042
 21
0.265513368
 31
0.0
  0
LINE
  5
BF
330
1F
100
AcDbEntity
  8
0
  6
Continuous
 62
     7
370
    25
100
AcDbLine
 10
-1.0735664822
 20
0.2866218403
 30
0.0
 11
0.632594461
 21
-0.1770761455
 31
0.0
  0
LINE
  5
C0
330
1F
100
AcDbEntity
  8
0
  6
Continuous
 62
     7
370
    25
100
AcDbLine
 10
0.6408173502
 20
-0.207647842
 30
0.0
 11
-1.1001632052
 21
0.2655133682
 31
0.0
  0
LINE
  5
C1
330
1F
100
AcDbEntity
  8
0
  6
Continuous
 62
     7
370
    25
100
AcDbLine
 10
1.1001632052
 20
0.2406877944
 30
0.0
 11
1.1001632052
 21
-0.28238674
 31
0.0
  0
LINE
  5
C2
330
1F
100
AcDbEntity
  8
0
  6
Continuous
 62
     7
370
    25
100
AcDbLine
 10
1.1001632052
 20
-0.28238674
 30
0.0
 11
0.6408173502
 21
-0.7307223764
 31
0.0
  0
LINE
  5
C3
330
1F
100
AcDbEntity
  8
0
  6
Continuous
 62
     7
370
    25
100
AcDbLine
 10
0.6408173502
 20
-0.7307223764
 30
0.0
 11
0.6408173502
 21
-0.207647842
 31
0.0
  0
LINE
  5
C4
330
1F
100
AcDbEntity
  8
0
  6
Continuous
 62
     7
370
    25
100
AcDbLine
 10
0.6408173502
 20
-0.7307223764
 30
0.0
 11
-1.1001632052
 21
-0.2575611661
 31
0.0
  0
LINE
  5
C5
330
1F
100
AcDbEntity
  8
0
  6
Continuous
 62
     7
370
    25
100
AcDbLine
 10
-1.1001632052
 20
-0.2575611661
 30
0.0
 11
-1.1001632052
 21
0.2655133682
 31
0.0
  0
LINE
  5
C6
330
1F
100
AcDbEntity
  8
0
  6
Continuous
 62
     7
370
    25
100
AcDbLine
 10
-0.632594461
 20
0.7170240515
 30
0.0
 11
-1.0735664822
 21
0.2866218403
 31
0.0
  0
LINE
  5
C7
330
1F
100
AcDbEntity
  8
0
  6
Continuous
 62
     7
370
    25
100
AcDbLine
 10
1.0735664822
 20
0.2533260658
 30
0.0
 11
-0.632594461
 21
0.7170240515
 31
0.0
  0
LINE
  5
C8
330
1F
100
AcDbEntity
  8
0
  6
Continuous
 62
     7
370
    25
100
AcDbLine
 10
1.0702141206
 20
-0.3116179647
 30
0.0
 11
1.0702141206
 21
-0.3204883751
 31
0.0
  0
LINE
  5
C9
330
1F
100
AcDbEntity
  8
0
  6
Continuous
 62
     7
370
    25
100
AcDbLine
 10
1.0702141206
 20
-0.3204883751
 30
0.0
 11
0.6316380478
 21
-0.7485520674
 31
0.0
  0
LINE
  5
CA
330
1F
100
AcDbEntity
  8
0
  6
Continuous
 62
     7
370
    25
100
AcDbLine
 10
0.6316380478
 20
-0.7282276387
 30
0.0
 11
0.6316380478
 21
-0.7485520674
 31
0.0
  0
LINE
  5
CB
330
1F
100
AcDbEntity
  8
0
  6
Continuous
 62
     7
370
    25
100
AcDbLine
 10
0.6316380478
 20
-0.7485520674
 30
0.0
 11
-1.0699824183
 21
-0.286088086
 31
0.0
  0
LINE
  5
CC
330
1F
100
AcDbEntity
  8
0
  6
Continuous
 62
     7
370
    25
100
AcDbLine
 10
-1.0699824183
 20
-0.286088086
 30
0.0
 11
-1.0699824183
 21
-0.2657636573
 31
0.0
  0
LINE
  5
CD
330
1F
100
AcDbEntity
  8
0
  6
Continuous
 62
     7
370
    25
100
AcDbLine
 10
-0.3238537114
 20
0.2152579662
 30
0.0
 11
-0.3169413643
 21
0.2123678274
 31
0.0
  0
LINE
  5
CE
330
1F
100
AcDbEntity
  8
0
  6
Continuous
 62
     7
370
    25
100
AcDbLine
 10
-0.3238537114
 20
0.2035632907
 30
0.0
 11
-0.3184629348
 21
0.2013093396
 31
0.0
  0
LINE
  5
CF
330
1F
100
AcDbEntity
  8
0
  6
Continuous
 62
     7
370
    25
100
AcDbLine
 10
-1.1001632052
 20
0.2655133682
 30
0.0
 11
-0.6408173502
 21
0.7138490046
 31
0.0
  0
LINE
  5
D0
330
1F
100
AcDbEntity
  8
0
  6
Continuous
 62
     7
370
    25
100
AcDbLine
 10
-0.6408173492
 20
0.7138490044
 30
0.0
 11
-0.6325944605
 21
0.7170240514
 31
0.0
  0
LINE
  5
D1
330
1F
100
AcDbEntity
  8
0
  6
Continuous
 62
     7
370
    25
100
AcDbLine
 10
0.3531883149
 20
0.3230660277
 30
0.0
 11
0.360100662
 21
0.320175889
 31
0.0
  0
LINE
  5
D2
330
1F
100
AcDbEntity
  8
0
  6
Continuous
 62
     7
370
    25
100
AcDbLine
 10
0.3531883149
 20
0.3113713523
 30
0.0
 11
0.358579092
 21
0.309117401
 31
0.0
  0
LINE
  5
DD
330
1B
100
AcDbEntity
 67
     1
  8
0
  6
Continuous
 62
     7
370
    25
100
AcDbLine
 10
0.984251969
 20
0.295275591
 30
0.0
 11
-0.984251969
 21
0.295275591
 31
0.0
  0
LINE
  5
DE
330
1B
100
AcDbEntity
 67
     1
  8
0
  6
Continuous
 62
     7
370
    25
100
AcDbLine
 10
0.984251969
 20
-0.31496063
 30
0.0
 11
-0.984251969
 21
-0.31496063
 31
0.0
  0
LINE
  5
DF
330
1B
100
AcDbEntity
 67
     1
  8
0
  6
Continuous
 62
     7
370
    25
100
AcDbLine
 10
0.984251969
 20
-0.31496063
 30
0.0
 11
0.984251969
 21
0.295275591
 31
0.0
  0
LINE
  5
E0
330
1B
100
AcDbEntity
 67
     1
  8
0
  6
Continuous
 62
     7
370
    25
100
AcDbLine
 10
-0.984251969
 20
-0.31496063
 30
0.0
 11
-0.984251969
 21
0.295275591
 31
0.0
  0
LINE
  5
E1
330
1B
100
AcDbEntity
 67
     1
  8
0
  6
Continuous
 62
     7
370
    25
100
AcDbLine
 10
-0.9645669284
 20
0.31496063
 30
0.0
 11
-0.9842519679
 21
0.295275591
 31
0.0
  0
LINE
  5
E2
330
1B
100
AcDbEntity
 67
     1
  8
0
  6
Continuous
 62
     7
370
    25
100
AcDbLine
 10
-0.964566929
 20
0.31496063
 30
0.0
 11
0.964566929
 21
0.31496063
 31
0.0
  0
LINE
  5
E3
330
1B
100
AcDbEntity
 67
     1
  8
0
  6
Continuous
 62
     7
370
    25
100
AcDbLine
 10
0.964566929
 20
0.31496063
 30
0.0
 11
0.984251969
 21
0.295275591
 31
0.0
  0
LINE
  5
E4
330
1B
100
AcDbEntity
 67
     1
  8
0
  6
Continuous
 62
     7
370
    25
100
AcDbLine
 10
0.961998031
 20
-0.35396063
 30
0.0
 11
-0.962001969
 21
-0.35396063
 31
0.0
  0
LINE
  5
E5
330
1B
100
AcDbEntity
 67
     1
  8
0
  6
Continuous
 62
     7
370
    25
100
AcDbLine
 10
-0.962001969
 20
-0.35396063
 30
0.0
 11
-0.962001969
 21
-0.31496063
 31
0.0
  0
LINE
  5
E6
330
1B
100
AcDbEntity
 67
     1
  8
0
  6
Continuous
 62
     7
370
    25
100
AcDbLine
 10
0.961998031
 20
-0.31496063
 30
0.0
 11
0.961998031
 21
-0.35396063
 31
0.0
  0
VIEWPORT
  5
2C2
330
1B
100
AcDbEntity
 67
     1
  8
0
100
AcDbViewport
 10
0.0
 20
0.0
 30
0.0
 40
8.4
 41
6.4
 68
     1
 69
     1
 12
0.0
 22
-0.0157640079
 13
0.0
 23
0.0
 14
0.5
 24
0.5
 15
0.5
 25
0.5
 16
0.0
 26
0.0
 36
1.0
 17
0.0
 27
0.0
 37
0.0
 42
50.0
 43
0.0
 44
0.0
 45
1.7099679532
 50
0.0
 51
0.0
 72
   100
 90
   557152
  1

281
     0
 71
     1
 74
     0
110
0.0
120
0.0
130
0.0
111
1.0
121
0.0
131
0.0
112
0.0
122
1.0
132
0.0
 79
     0
146
0.0
  0
ENDSEC
  0
SECTION
  2
OBJECTS
  0
DICTIONARY
  5
C
330
0
100
AcDbDictionary
281
     1
  3
ACAD_GROUP
350
D
  3
ACAD_LAYOUT
350
1A
  3
ACAD_MLINESTYLE
350
17
  3
ACAD_PLOTSETTINGS
350
19
  3
ACAD_PLOTSTYLENAME
350
E
  3
ACAD_SCALELIST
350
47
  3
DWGPROPS
350
2D4
  0
DICTIONARY
  5
D
102
{ACAD_REACTORS
330
C
102
}
330
C
100
AcDbDictionary
281
     1
  0
DICTIONARY
  5
1A
102
{ACAD_REACTORS
330
C
102
}
330
C
100
AcDbDictionary
281
     1
  3
_Back
350
26
  3
_Bottom
350
17D
  3
_Dimetric
350
270
  3
_Front
350
1E
  3
_Isometric
350
1AB
  3
_Left
350
FC
  3
_Right
350
114
  3
_Top
350
134
  3
_Trimetric
350
20C
  3
Model
350
22
  0
DICTIONARY
  5
17
102
{ACAD_REACTORS
330
C
102
}
330
C
100
AcDbDictionary
281
     1
  3
Standard
350
18
  0
DICTIONARY
  5
19
102
{ACAD_REACTORS
330
C
102
}
330
C
100
AcDbDictionary
281
     1
  0
ACDBDICTIONARYWDFLT
  5
E
102
{ACAD_REACTORS
330
C
102
}
330
C
100
AcDbDictionary
281
     1
  3
Normal
350
F
100
AcDbDictionaryWithDefault
340
F
  0
DICTIONARY
  5
47
102
{ACAD_REACTORS
330
C
102
}
330
C
100
AcDbDictionary
281
     1
  3
A0
350
48
  3
A1
350
49
  3
A2
350
4A
  3
A3
350
4B
  3
A4
350
4C
  3
A5
350
4D
  3
A6
350
4E
  3
A7
350
4F
  3
A8
350
50
  3
A9
350
51
  3
B0
350
52
  3
B1
350
53
  3
B2
350
54
  3
B3
350
55
  3
B4
350
56
  3
B5
350
57
  3
B6
350
58
  3
B7
350
59
  3
B8
350
5A
  3
B9
350
5B
  3
C0
350
5C
  3
C1
350
5D
  3
C2
350
5E
  3
C3
350
5F
  3
C4
350
60
  3
C5
350
61
  3
C6
350
62
  3
C7
350
63
  3
C8
350
64
  3
C9
350
65
  3
D0
350
66
  3
D1
350
67
  3
D2
350
68
  0
XRECORD
  5
2D4
102
{ACAD_REACTORS
330
C
102
}
330
C
100
AcDbXrecord
280
     1
  1
DWGPROPS COOKIE
  2

  3

  4

  6

  7

  8
16097
  9

300
=
301
=
302
=
303
=
304
=
305
=
306
=
307
=
308
=
309
=
 40
0.0
 41
2460265.845813449
 42
2460265.845908044
  1

 90
        0
  0
LAYOUT
  5
26
102
{ACAD_REACTORS
330
1A
102
}
330
1A
100
AcDbPlotSettings
  1

  2
none_device
  4
Letter_(8.50_x_11.00_Inches)
  6

 40
6.35
 41
6.35
 42
6.35001
 43
6.35001
 44
215.9
 45
279.4
 46
0.0
 47
0.0
 48
0.0
 49
0.0
140
0.0
141
0.0
142
1.0
143
0.1874765726
 70
   688
 72
     0
 73
     1
 74
     1
  7

 75
     0
147
5.3339997973
148
25.0000000126
149
8.990600002
100
AcDbLayout
  1
_Back
 70
     1
 71
     2
 10
0.0
 20
0.0
 11
0.0
 21
0.0
 12
0.0
 22
0.0
 32
0.0
 14
0.0
 24
0.0
 34
0.0
 15
0.0
 25
0.0
 35
0.0
146
0.0
 13
0.0
 23
0.0
 33
0.0
 16
1.0
 26
0.0
 36
0.0
 17
0.0
 27
1.0
 37
0.0
 76
     0
330
23
331
2C4
  0
LAYOUT
  5
17D
102
{ACAD_REACTORS
330
1A
102
}
330
1A
100
AcDbPlotSettings
  1

  2
none_device
  4
Letter_(8.50_x_11.00_Inches)
  6

 40
6.35
 41
6.35
 42
6.35001
 43
6.35001
 44
215.9
 45
279.4
 46
0.0
 47
0.0
 48
0.0
 49
0.0
140
0.0
141
0.0
142
1.0
143
0.1874765726
 70
   688
 72
     0
 73
     1
 74
     1
  7

 75
     0
147
5.3339997973
148
25.0000000126
149
8.990600002
100
AcDbLayout
  1
_Bottom
 70
     1
 71
     6
 10
0.0
 20
0.0
 11
0.0
 21
0.0
 12
0.0
 22
0.0
 32
0.0
 14
0.0
 24
0.0
 34
0.0
 15
0.0
 25
0.0
 35
0.0
146
0.0
 13
0.0
 23
0.0
 33
0.0
 16
1.0
 26
0.0
 36
0.0
 17
0.0
 27
1.0
 37
0.0
 76
     0
330
17C
331
2CC
  0
LAYOUT
  5
270
102
{ACAD_REACTORS
330
1A
102
}
330
1A
100
AcDbPlotSettings
  1

  2
none_device
  4
Letter_(8.50_x_11.00_Inches)
  6

 40
6.35
 41
6.35
 42
6.35001
 43
6.35001
 44
215.9
 45
279.4
 46
0.0
 47
0.0
 48
0.0
 49
0.0
140
0.0
141
0.0
142
1.0
143
0.1874765726
 70
   688
 72
     0
 73
     1
 74
     1
  7

 75
     0
147
5.3339997973
148
25.0000000126
149
8.990600002
100
AcDbLayout
  1
_Dimetric
 70
     1
 71
     9
 10
0.0
 20
0.0
 11
0.0
 21
0.0
 12
0.0
 22
0.0
 32
0.0
 14
0.0
 24
0.0
 34
0.0
 15
0.0
 25
0.0
 35
0.0
146
0.0
 13
0.0
 23
0.0
 33
0.0
 16
1.0
 26
0.0
 36
0.0
 17
0.0
 27
1.0
 37
0.0
 76
     0
330
26F
331
2D2
  0
LAYOUT
  5
1E
102
{ACAD_REACTORS
330
1A
102
}
330
1A
100
AcDbPlotSettings
  1

  2
none_device
  4
Letter_(8.50_x_11.00_Inches)
  6

 40
6.35
 41
6.35
 42
6.35001
 43
6.35001
 44
215.9
 45
279.4
 46
0.0
 47
0.0
 48
0.0
 49
0.0
140
0.0
141
0.0
142
1.0
143
0.1874765726
 70
   688
 72
     0
 73
     1
 74
     1
  7

 75
     0
147
5.3339997973
148
25.0000000126
149
8.990600002
100
AcDbLayout
  1
_Front
 70
     1
 71
     1
 10
-1.0311211859
 20
-0.4008297731
 11
1.0311211121
 21
1.1927210936
 12
0.0
 22
0.0
 32
0.0
 14
-0.984251969
 24
-0.35396063
 34
0.0
 15
0.984251969
 25
0.31496063
 35
0.0
146
0.0
 13
0.0
 23
0.0
 33
0.0
 16
1.0
 26
0.0
 36
0.0
 17
0.0
 27
1.0
 37
0.0
 76
     0
330
1B
331
2C2
  0
LAYOUT
  5
1AB
102
{ACAD_REACTORS
330
1A
102
}
330
1A
100
AcDbPlotSettings
  1

  2
none_device
  4
Letter_(8.50_x_11.00_Inches)
  6

 40
6.35
 41
6.35
 42
6.35001
 43
6.35001
 44
215.9
 45
279.4
 46
0.0
 47
0.0
 48
0.0
 49
0.0
140
0.0
141
0.0
142
1.0
143
0.1874765726
 70
   688
 72
     0
 73
     1
 74
     1
  7

 75
     0
147
5.3339997973
148
25.0000000126
149
8.990600002
100
AcDbLayout
  1
_Isometric
 70
     1
 71
     7
 10
0.0
 20
0.0
 11
0.0
 21
0.0
 12
0.0
 22
0.0
 32
0.0
 14
0.0
 24
0.0
 34
0.0
 15
0.0
 25
0.0
 35
0.0
146
0.0
 13
0.0
 23
0.0
 33
0.0
 16
1.0
 26
0.0
 36
0.0
 17
0.0
 27
1.0
 37
0.0
 76
     0
330
1AA
331
2CE
  0
LAYOUT
  5
FC
102
{ACAD_REACTORS
330
1A
102
}
330
1A
100
AcDbPlotSettings
  1

  2
none_device
  4
Letter_(8.50_x_11.00_Inches)
  6

 40
6.35
 41
6.35
 42
6.35001
 43
6.35001
 44
215.9
 45
279.4
 46
0.0
 47
0.0
 48
0.0
 49
0.0
140
0.0
141
0.0
142
1.0
143
0.1874765726
 70
   688
 72
     0
 73
     1
 74
     1
  7

 75
     0
147
5.3339997973
148
25.0000000126
149
8.990600002
100
AcDbLayout
  1
_Left
 70
     1
 71
     3
 10
0.0
 20
0.0
 11
0.0
 21
0.0
 12
0.0
 22
0.0
 32
0.0
 14
0.0
 24
0.0
 34
0.0
 15
0.0
 25
0.0
 35
0.0
146
0.0
 13
0.0
 23
0.0
 33
0.0
 16
1.0
 26
0.0
 36
0.0
 17
0.0
 27
1.0
 37
0.0
 76
     0
330
FB
331
2C6
  0
LAYOUT
  5
114
102
{ACAD_REACTORS
330
1A
102
}
330
1A
100
AcDbPlotSettings
  1

  2
none_device
  4
Letter_(8.50_x_11.00_Inches)
  6

 40
6.35
 41
6.35
 42
6.35001
 43
6.35001
 44
215.9
 45
279.4
 46
0.0
 47
0.0
 48
0.0
 49
0.0
140
0.0
141
0.0
142
1.0
143
0.1874765726
 70
   688
 72
     0
 73
     1
 74
     1
  7

 75
     0
147
5.3339997973
148
25.0000000126
149
8.990600002
100
AcDbLayout
  1
_Right
 70
     1
 71
     4
 10
0.0
 20
0.0
 11
0.0
 21
0.0
 12
0.0
 22
0.0
 32
0.0
 14
0.0
 24
0.0
 34
0.0
 15
0.0
 25
0.0
 35
0.0
146
0.0
 13
0.0
 23
0.0
 33
0.0
 16
1.0
 26
0.0
 36
0.0
 17
0.0
 27
1.0
 37
0.0
 76
     0
330
113
331
2C8
  0
LAYOUT
  5
134
102
{ACAD_REACTORS
330
1A
102
}
330
1A
100
AcDbPlotSettings
  1

  2
none_device
  4
Letter_(8.50_x_11.00_Inches)
  6

 40
6.35
 41
6.35
 42
6.35001
 43
6.35001
 44
215.9
 45
279.4
 46
0.0
 47
0.0
 48
0.0
 49
0.0
140
0.0
141
0.0
142
1.0
143
0.1874765726
 70
   688
 72
     0
 73
     1
 74
     1
  7

 75
     0
147
5.3339997973
148
25.0000000126
149
8.990600002
100
AcDbLayout
  1
_Top
 70
     1
 71
     5
 10
0.0
 20
0.0
 11
0.0
 21
0.0
 12
0.0
 22
0.0
 32
0.0
 14
0.0
 24
0.0
 34
0.0
 15
0.0
 25
0.0
 35
0.0
146
0.0
 13
0.0
 23
0.0
 33
0.0
 16
1.0
 26
0.0
 36
0.0
 17
0.0
 27
1.0
 37
0.0
 76
     0
330
133
331
2CA
  0
LAYOUT
  5
20C
102
{ACAD_REACTORS
330
1A
102
}
330
1A
100
AcDbPlotSettings
  1

  2
none_device
  4
Letter_(8.50_x_11.00_Inches)
  6

 40
6.35
 41
6.35
 42
6.35001
 43
6.35001
 44
215.9
 45
279.4
 46
0.0
 47
0.0
 48
0.0
 49
0.0
140
0.0
141
0.0
142
1.0
143
0.1874765726
 70
   688
 72
     0
 73
     1
 74
     1
  7

 75
     0
147
5.3339997973
148
25.0000000126
149
8.990600002
100
AcDbLayout
  1
_Trimetric
 70
     1
 71
     8
 10
0.0
 20
0.0
 11
0.0
 21
0.0
 12
0.0
 22
0.0
 32
0.0
 14
0.0
 24
0.0
 34
0.0
 15
0.0
 25
0.0
 35
0.0
146
0.0
 13
0.0
 23
0.0
 33
0.0
 16
1.0
 26
0.0
 36
0.0
 17
0.0
 27
1.0
 37
0.0
 76
     0
330
20B
331
2D0
  0
LAYOUT
  5
22
102
{ACAD_REACTORS
330
1A
102
}
330
1A
100
AcDbPlotSettings
  1

  2
none_device
  4
ANSI_A_(11.00_x_8.50_Inches)
  6

 40
6.35
 41
19.05
 42
6.35000508
 43
19.05000254
 44
279.4
 45
215.9
 46
133.34999746
 47
90.8817134216
 48
0.0
 49
0.0
140
0.0
141
0.0
142
4.9492656856
143
1.0
 70
  1696
 72
     0
 73
     0
 74
     0
  7

 75
     0
147
0.5913241897
148
-39.4088153714
149
0.0
100
AcDbLayout
  1
Model
 70
     1
 71
     0
 10
0.0
 20
0.0
 11
12.0
 21
9.0
 12
0.0
 22
0.0
 32
0.0
 14
-1.1001632052
 24
-0.7485520674
 34
0.0
 15
1.1001632052
 25
0.7170240515
 35
0.0
146
0.0
 13
0.0
 23
0.0
 33
0.0
 16
1.0
 26
0.0
 36
0.0
 17
0.0
 27
1.0
 37
0.0
 76
     0
330
1F
331
29
  0
MLINESTYLE
  5
18
102
{ACAD_REACTORS
330
17
102
}
330
17
100
AcDbMlineStyle
  2
Standard
 70
     0
  3

 62
   256
 51
90.0
 52
90.0
 71
     2
 49
0.5
 62
   256
  6
BYLAYER
 49
-0.5
 62
   256
  6
BYLAYER
  0
ACDBPLACEHOLDER
  5
F
102
{ACAD_REACTORS
330
E
102
}
330
E
  0
SCALE
  5
48
102
{ACAD_REACTORS
330
47
102
}
330
47
100
AcDbScale
 70
     0
300
1:1
140
1.0
141
1.0
290
     1
  0
SCALE
  5
49
102
{ACAD_REACTORS
330
47
102
}
330
47
100
AcDbScale
 70
     0
300
1:2
140
1.0
141
2.0
290
     0
  0
SCALE
  5
4A
102
{ACAD_REACTORS
330
47
102
}
330
47
100
AcDbScale
 70
     0
300
1:4
140
1.0
141
4.0
290
     0
  0
SCALE
  5
4B
102
{ACAD_REACTORS
330
47
102
}
330
47
100
AcDbScale
 70
     0
300
1:5
140
1.0
141
5.0
290
     0
  0
SCALE
  5
4C
102
{ACAD_REACTORS
330
47
102
}
330
47
100
AcDbScale
 70
     0
300
1:8
140
1.0
141
8.0
290
     0
  0
SCALE
  5
4D
102
{ACAD_REACTORS
330
47
102
}
330
47
100
AcDbScale
 70
     0
300
1:10
140
1.0
141
10.0
290
     0
  0
SCALE
  5
4E
102
{ACAD_REACTORS
330
47
102
}
330
47
100
AcDbScale
 70
     0
300
1:16
140
1.0
141
16.0
290
     0
  0
SCALE
  5
4F
102
{ACAD_REACTORS
330
47
102
}
330
47
100
AcDbScale
 70
     0
300
1:20
140
1.0
141
20.0
290
     0
  0
SCALE
  5
50
102
{ACAD_REACTORS
330
47
102
}
330
47
100
AcDbScale
 70
     0
300
1:30
140
1.0
141
30.0
290
     0
  0
SCALE
  5
51
102
{ACAD_REACTORS
330
47
102
}
330
47
100
AcDbScale
 70
     0
300
1:40
140
1.0
141
40.0
290
     0
  0
SCALE
  5
52
102
{ACAD_REACTORS
330
47
102
}
330
47
100
AcDbScale
 70
     0
300
1:50
140
1.0
141
50.0
290
     0
  0
SCALE
  5
53
102
{ACAD_REACTORS
330
47
102
}
330
47
100
AcDbScale
 70
     0
300
1:100
140
1.0
141
100.0
290
     0
  0
SCALE
  5
54
102
{ACAD_REACTORS
330
47
102
}
330
47
100
AcDbScale
 70
     0
300
2:1
140
2.0
141
1.0
290
     0
  0
SCALE
  5
55
102
{ACAD_REACTORS
330
47
102
}
330
47
100
AcDbScale
 70
     0
300
4:1
140
4.0
141
1.0
290
     0
  0
SCALE
  5
56
102
{ACAD_REACTORS
330
47
102
}
330
47
100
AcDbScale
 70
     0
300
8:1
140
8.0
141
1.0
290
     0
  0
SCALE
  5
57
102
{ACAD_REACTORS
330
47
102
}
330
47
100
AcDbScale
 70
     0
300
10:1
140
10.0
141
1.0
290
     0
  0
SCALE
  5
58
102
{ACAD_REACTORS
330
47
102
}
330
47
100
AcDbScale
 70
     0
300
100:1
140
100.0
141
1.0
290
     0
  0
SCALE
  5
59
102
{ACAD_REACTORS
330
47
102
}
330
47
100
AcDbScale
 70
     0
300
1/128" = 1'-0"
140
0.0078125
141
12.0
290
     0
  0
SCALE
  5
5A
102
{ACAD_REACTORS
330
47
102
}
330
47
100
AcDbScale
 70
     0
300
1/64" = 1'-0"
140
0.015625
141
12.0
290
     0
  0
SCALE
  5
5B
102
{ACAD_REACTORS
330
47
102
}
330
47
100
AcDbScale
 70
     0
300
1/32" = 1'-0"
140
0.03125
141
12.0
290
     0
  0
SCALE
  5
5C
102
{ACAD_REACTORS
330
47
102
}
330
47
100
AcDbScale
 70
     0
300
1/16" = 1'-0"
140
0.0625
141
12.0
290
     0
  0
SCALE
  5
5D
102
{ACAD_REACTORS
330
47
102
}
330
47
100
AcDbScale
 70
     0
300
3/32" = 1'-0"
140
0.09375
141
12.0
290
     0
  0
SCALE
  5
5E
102
{ACAD_REACTORS
330
47
102
}
330
47
100
AcDbScale
 70
     0
300
1/8" = 1'-0"
140
0.125
141
12.0
290
     0
  0
SCALE
  5
5F
102
{ACAD_REACTORS
330
47
102
}
330
47
100
AcDbScale
 70
     0
300
3/16" = 1'-0"
140
0.1875
141
12.0
290
     0
  0
SCALE
  5
60
102
{ACAD_REACTORS
330
47
102
}
330
47
100
AcDbScale
 70
     0
300
1/4" = 1'-0"
140
0.25
141
12.0
290
     0
  0
SCALE
  5
61
102
{ACAD_REACTORS
330
47
102
}
330
47
100
AcDbScale
 70
     0
300
3/8" = 1'-0"
140
0.375
141
12.0
290
     0
  0
SCALE
  5
62
102
{ACAD_REACTORS
330
47
102
}
330
47
100
AcDbScale
 70
     0
300
1/2" = 1'-0"
140
0.5
141
12.0
290
     0
  0
SCALE
  5
63
102
{ACAD_REACTORS
330
47
102
}
330
47
100
AcDbScale
 70
     0
300
3/4" = 1'-0"
140
0.75
141
12.0
290
     0
  0
SCALE
  5
64
102
{ACAD_REACTORS
330
47
102
}
330
47
100
AcDbScale
 70
     0
300
1" = 1'-0"
140
1.0
141
12.0
290
     0
  0
SCALE
  5
65
102
{ACAD_REACTORS
330
47
102
}
330
47
100
AcDbScale
 70
     0
300
1-1/2" = 1'-0"
140
1.5
141
12.0
290
     0
  0
SCALE
  5
66
102
{ACAD_REACTORS
330
47
102
}
330
47
100
AcDbScale
 70
     0
300
3" = 1'-0"
140
3.0
141
12.0
290
     0
  0
SCALE
  5
67
102
{ACAD_REACTORS
330
47
102
}
330
47
100
AcDbScale
 70
     0
300
6" = 1'-0"
140
6.0
141
12.0
290
     0
  0
SCALE
  5
68
102
{ACAD_REACTORS
330
47
102
}
330
47
100
AcDbScale
 70
     0
300
1'-0" = 1'-0"
140
12.0
141
12.0
290
     0
  0
ENDSEC
  0
EOF
