  0
SECTION
  2
HEADER
  9
$ACADVER
  1
AC1015
  9
$ACADMAINTVER
 70
     6
  9
$DWGCODEPAGE
  3
ANSI_1252
  9
$INSBASE
 10
0.0
 20
0.0
 30
0.0
  9
$EXTMIN
 10
-29.8558500712
 20
-30.0682967356
 30
0.0
  9
$EXTMAX
 10
28.6891115988
 20
28.9295242186
 30
0.0
  9
$LIMMIN
 10
0.0
 20
0.0
  9
$LIMMAX
 10
420.0
 20
297.0
  9
$ORTHOMODE
 70
     0
  9
$REGENMODE
 70
     1
  9
$FILLMODE
 70
     1
  9
$QTEXTMODE
 70
     0
  9
$MIRRTEXT
 70
     1
  9
$LTSCALE
 40
1.0
  9
$ATTMODE
 70
     1
  9
$TEXTSIZE
 40
3.5
  9
$TRACEWID
 40
1.0
  9
$TEXTSTYLE
  7
Standard
  9
$CLAYER
  8
0
  9
$CELTYPE
  6
ByLayer
  9
$CECOLOR
 62
   256
  9
$CELTSCALE
 40
1.0
  9
$DISPSILH
 70
     0
  9
$DIMSCALE
 40
1.0
  9
$DIMASZ
 40
3.302
  9
$DIMEXO
 40
0.0
  9
$DIMDLI
 40
3.75
  9
$DIMRND
 40
0.0
  9
$DIMDLE
 40
0.0
  9
$DIMEXE
 40
1.0
  9
$DIMTP
 40
0.0
  9
$DIMTM
 40
0.0
  9
$DIMTXT
 40
3.5
  9
$DIMCEN
 40
2.5
  9
$DIMTSZ
 40
0.0
  9
$DIMTOL
 70
     0
  9
$DIMLIM
 70
     0
  9
$DIMTIH
 70
     1
  9
$DIMTOH
 70
     1
  9
$DIMSE1
 70
     0
  9
$DIMSE2
 70
     0
  9
$DIMTAD
 70
     1
  9
$DIMZIN
 70
     1
  9
$DIMBLK
  1

  9
$DIMASO
 70
     1
  9
$DIMSHO
 70
     1
  9
$DIMPOST
  1

  9
$DIMAPOST
  1

  9
$DIMALT
 70
     0
  9
$DIMALTD
 70
     3
  9
$DIMALTF
 40
0.0393700787
  9
$DIMLFAC
 40
1.0
  9
$DIMTOFL
 70
     1
  9
$DIMTVP
 40
0.0
  9
$DIMTIX
 70
     0
  9
$DIMSOXD
 70
     0
  9
$DIMSAH
 70
     0
  9
$DIMBLK1
  1

  9
$DIMBLK2
  1

  9
$DIMSTYLE
  2
ISO-25
  9
$DIMCLRD
 70
     0
  9
$DIMCLRE
 70
     0
  9
$DIMCLRT
 70
     0
  9
$DIMTFAC
 40
1.0
  9
$DIMGAP
 40
1.524
  9
$DIMJUST
 70
     0
  9
$DIMSD1
 70
     0
  9
$DIMSD2
 70
     0
  9
$DIMTOLJ
 70
     0
  9
$DIMTZIN
 70
     1
  9
$DIMALTZ
 70
     0
  9
$DIMALTTZ
 70
     0
  9
$DIMUPT
 70
     0
  9
$DIMDEC
 70
     2
  9
$DIMTDEC
 70
     2
  9
$DIMALTU
 70
     2
  9
$DIMALTTD
 70
     3
  9
$DIMTXSTY
  7
Standard
  9
$DIMAUNIT
 70
     0
  9
$DIMADEC
 70
     2
  9
$DIMALTRND
 40
0.0
  9
$DIMAZIN
 70
     0
  9
$DIMDSEP
 70
    44
  9
$DIMATFIT
 70
     3
  9
$DIMFRAC
 70
     0
  9
$DIMLDRBLK
  1

  9
$DIMLUNIT
 70
     2
  9
$DIMLWD
 70
    -2
  9
$DIMLWE
 70
    -2
  9
$DIMTMOVE
 70
     0
  9
$LUNITS
 70
     2
  9
$LUPREC
 70
     2
  9
$SKETCHINC
 40
1.0
  9
$FILLETRAD
 40
10.0
  9
$AUNITS
 70
     0
  9
$AUPREC
 70
     2
  9
$MENU
  1
.
  9
$ELEVATION
 40
0.0
  9
$PELEVATION
 40
0.0
  9
$THICKNESS
 40
0.0
  9
$LIMCHECK
 70
     0
  9
$CHAMFERA
 40
0.0
  9
$CHAMFERB
 40
0.0
  9
$CHAMFERC
 40
0.0
  9
$CHAMFERD
 40
0.0
  9
$SKPOLY
 70
     0
  9
$TDCREATE
 40
2460454.597912662
  9
$TDUCREATE
 40
2460454.764579329
  9
$TDUPDATE
 40
2460454.597951424
  9
$TDUUPDATE
 40
2460454.76461809
  9
$TDINDWG
 40
0.0000000116
  9
$TDUSRTIMER
 40
0.0000000116
  9
$USRTIMER
 70
     1
  9
$ANGBASE
 50
0.0
  9
$ANGDIR
 70
     0
  9
$PDMODE
 70
     0
  9
$PDSIZE
 40
-1.0
  9
$PLINEWID
 40
0.0
  9
$SPLFRAME
 70
     0
  9
$SPLINETYPE
 70
     6
  9
$SPLINESEGS
 70
     8
  9
$HANDSEED
  5
2AA
  9
$SURFTAB1
 70
     6
  9
$SURFTAB2
 70
     6
  9
$SURFTYPE
 70
     6
  9
$SURFU
 70
     6
  9
$SURFV
 70
     6
  9
$UCSBASE
  2

  9
$UCSNAME
  2

  9
$UCSORG
 10
0.0
 20
0.0
 30
0.0
  9
$UCSXDIR
 10
1.0
 20
0.0
 30
0.0
  9
$UCSYDIR
 10
0.0
 20
1.0
 30
0.0
  9
$UCSORTHOREF
  2

  9
$UCSORTHOVIEW
 70
     0
  9
$UCSORGTOP
 10
0.0
 20
0.0
 30
0.0
  9
$UCSORGBOTTOM
 10
0.0
 20
0.0
 30
0.0
  9
$UCSORGLEFT
 10
0.0
 20
0.0
 30
0.0
  9
$UCSORGRIGHT
 10
0.0
 20
0.0
 30
0.0
  9
$UCSORGFRONT
 10
0.0
 20
0.0
 30
0.0
  9
$UCSORGBACK
 10
0.0
 20
0.0
 30
0.0
  9
$PUCSBASE
  2

  9
$PUCSNAME
  2

  9
$PUCSORG
 10
0.0
 20
0.0
 30
0.0
  9
$PUCSXDIR
 10
1.0
 20
0.0
 30
0.0
  9
$PUCSYDIR
 10
0.0
 20
1.0
 30
0.0
  9
$PUCSORTHOREF
  2

  9
$PUCSORTHOVIEW
 70
     0
  9
$PUCSORGTOP
 10
0.0
 20
0.0
 30
0.0
  9
$PUCSORGBOTTOM
 10
0.0
 20
0.0
 30
0.0
  9
$PUCSORGLEFT
 10
0.0
 20
0.0
 30
0.0
  9
$PUCSORGRIGHT
 10
0.0
 20
0.0
 30
0.0
  9
$PUCSORGFRONT
 10
0.0
 20
0.0
 30
0.0
  9
$PUCSORGBACK
 10
0.0
 20
0.0
 30
0.0
  9
$USERI1
 70
     0
  9
$USERI2
 70
     0
  9
$USERI3
 70
     0
  9
$USERI4
 70
     0
  9
$USERI5
 70
     0
  9
$USERR1
 40
0.0
  9
$USERR2
 40
0.0
  9
$USERR3
 40
0.0
  9
$USERR4
 40
0.0
  9
$USERR5
 40
0.0
  9
$WORLDVIEW
 70
     1
  9
$SHADEDGE
 70
     3
  9
$SHADEDIF
 70
    70
  9
$TILEMODE
 70
     1
  9
$MAXACTVP
 70
    64
  9
$PINSBASE
 10
0.0
 20
0.0
 30
0.0
  9
$PLIMCHECK
 70
     0
  9
$PEXTMIN
 10
-32.4384031666
 20
-32.4384031666
 30
0.0
  9
$PEXTMAX
 10
32.4384031666
 20
32.4384031666
 30
0.0
  9
$PLIMMIN
 10
-39.0924345854
 20
-34.9336649487
  9
$PLIMMAX
 10
59.7199319837
 20
34.9336649487
  9
$UNITMODE
 70
     0
  9
$VISRETAIN
 70
     1
  9
$PLINEGEN
 70
     0
  9
$PSLTSCALE
 70
     1
  9
$TREEDEPTH
 70
  3020
  9
$CMLSTYLE
  2
Standard
  9
$CMLJUST
 70
     0
  9
$CMLSCALE
 40
20.0
  9
$PROXYGRAPHICS
 70
     1
  9
$MEASUREMENT
 70
     1
  9
$CELWEIGHT
370
    -1
  9
$ENDCAPS
280
     0
  9
$JOINSTYLE
280
     0
  9
$LWDISPLAY
290
     1
  9
$INSUNITS
 70
     4
  9
$HYPERLINKBASE
  1

  9
$STYLESHEET
  1

  9
$XEDIT
290
     1
  9
$CEPSNTYPE
380
     0
  9
$PSTYLEMODE
290
     1
  9
$FINGERPRINTGUID
  2
{c697b505-4736-41f7-ad9e-001e09ac813f}
  9
$VERSIONGUID
  2
{FAEB1C32-E019-11D5-929B-00C0DF256EC4}
  9
$EXTNAMES
290
     1
  9
$PSVPSCALE
 40
0.0
  9
$OLESTARTUP
290
     0
  0
ENDSEC
  0
SECTION
  2
CLASSES
  0
CLASS
  1
ACDBDICTIONARYWDFLT
  2
AcDbDictionaryWithDefault
  3
ObjectDBX Classes
 90
        0
280
     0
281
     0
  0
CLASS
  1
VISUALSTYLE
  2
AcDbVisualStyle
  3
ObjectDBX Classes
 90
     4095
280
     0
281
     0
  0
CLASS
  1
MATERIAL
  2
AcDbMaterial
  3
ObjectDBX Classes
 90
     1153
280
     0
281
     0
  0
CLASS
  1
SCALE
  2
AcDbScale
  3
ObjectDBX Classes
 90
     1153
280
     0
281
     0
  0
CLASS
  1
TABLESTYLE
  2
AcDbTableStyle
  3
ObjectDBX Classes
 90
     4095
280
     0
281
     0
  0
CLASS
  1
MLEADERSTYLE
  2
AcDbMLeaderStyle
  3
ACDB_MLEADERSTYLE_CLASS
 90
     4095
280
     0
281
     0
  0
CLASS
  1
SUN
  2
AcDbSun
  3
SCENEOE
 90
     1153
280
     0
281
     0
  0
CLASS
  1
ACDBPLACEHOLDER
  2
AcDbPlaceHolder
  3
ObjectDBX Classes
 90
        0
280
     0
281
     0
  0
CLASS
  1
LAYOUT
  2
AcDbLayout
  3
ObjectDBX Classes
 90
        0
280
     0
281
     0
  0
ENDSEC
  0
SECTION
  2
TABLES
  0
TABLE
  2
VPORT
  5
8
330
0
100
AcDbSymbolTable
 70
     1
  0
VPORT
  5
29
330
8
100
AcDbSymbolTableRecord
100
AcDbViewportTableRecord
  2
*Active
 70
     0
 10
0.0
 20
0.0
 11
1.0
 21
1.0
 12
-0.5833692362
 22
-0.5693862585
 13
0.0
 23
0.0
 14
10.0
 24
10.0
 15
10.0
 25
10.0
 16
0.0
 26
0.0
 36
1.0
 17
0.0
 27
0.0
 37
0.0
 40
60.1777773733
 41
0.9923241354
 42
50.0
 43
0.0
 44
0.0
 50
0.0
 51
0.0
 71
     0
 72
   100
 73
     1
 74
     3
 75
     0
 76
     0
 77
     0
 78
     0
281
     0
 65
     1
110
0.0
120
0.0
130
0.0
111
1.0
121
0.0
131
0.0
112
0.0
122
1.0
132
0.0
 79
     0
146
0.0
  0
ENDTAB
  0
TABLE
  2
LTYPE
  5
5
330
0
100
AcDbSymbolTable
 70
     6
  0
LTYPE
  5
14
330
5
100
AcDbSymbolTableRecord
100
AcDbLinetypeTableRecord
  2
ByBlock
 70
     0
  3

 72
    65
 73
     0
 40
0.0
  0
LTYPE
  5
15
330
5
100
AcDbSymbolTableRecord
100
AcDbLinetypeTableRecord
  2
ByLayer
 70
     0
  3

 72
    65
 73
     0
 40
0.0
  0
LTYPE
  5
16
330
5
100
AcDbSymbolTableRecord
100
AcDbLinetypeTableRecord
  2
Continuous
 70
     0
  3
Solid line
 72
    65
 73
     0
 40
0.0
  0
LTYPE
  5
6E
330
5
100
AcDbSymbolTableRecord
100
AcDbLinetypeTableRecord
  2
HIDDEN
 70
     0
  3
Hidden __ __ __ __ __ __ __ __ __ __ __ __ __ __
 72
    65
 73
     2
 40
1.905
 49
1.27
 74
     0
 49
-0.635
 74
     0
  0
LTYPE
  5
6F
330
5
100
AcDbSymbolTableRecord
100
AcDbLinetypeTableRecord
  2
PHANTOM
 70
     0
  3
Phantom ______  __  __  ______  __  __  ______
 72
    65
 73
     6
 40
12.7
 49
6.35
 74
     0
 49
-1.27
 74
     0
 49
1.27
 74
     0
 49
-1.27
 74
     0
 49
1.27
 74
     0
 49
-1.27
 74
     0
  0
LTYPE
  5
70
330
5
100
AcDbSymbolTableRecord
100
AcDbLinetypeTableRecord
  2
CENTER
 70
     0
  3
Center ____ _ ____ _ ____ _ ____ _ ____ _ ____
 72
    65
 73
     4
 40
10.16
 49
6.35
 74
     0
 49
-1.27
 74
     0
 49
1.27
 74
     0
 49
-1.27
 74
     0
  0
LTYPE
  5
71
330
5
100
AcDbSymbolTableRecord
100
AcDbLinetypeTableRecord
  2
CENTERX2
 70
     0
  3
Center (2x) ________  __  ________  __  _____
 72
    65
 73
     4
 40
20.32
 49
12.7
 74
     0
 49
-2.54
 74
     0
 49
2.54
 74
     0
 49
-2.54
 74
     0
  0
LTYPE
  5
72
330
5
100
AcDbSymbolTableRecord
100
AcDbLinetypeTableRecord
  2
DOT2
 70
     0
  3
Dot (.5x) ........................................
 72
    65
 73
     2
 40
0.635
 49
0.0
 74
     0
 49
-0.635
 74
     0
  0
ENDTAB
  0
TABLE
  2
LAYER
  5
2
330
0
100
AcDbSymbolTable
 70
     1
  0
LAYER
  5
10
330
2
100
AcDbSymbolTableRecord
100
AcDbLayerTableRecord
  2
0
 70
     0
 62
     7
  6
Continuous
370
    -3
390
F
  0
ENDTAB
  0
TABLE
  2
STYLE
  5
3
330
0
100
AcDbSymbolTable
 70
     1
  0
STYLE
  5
11
330
3
100
AcDbSymbolTableRecord
100
AcDbTextStyleTableRecord
  2
Standard
 70
     0
 40
0.0
 41
1.0
 50
0.0
 71
     0
 42
3.5
  3
txt
  4

  0
ENDTAB
  0
TABLE
  2
VIEW
  5
6
330
0
100
AcDbSymbolTable
 70
     0
  0
ENDTAB
  0
TABLE
  2
UCS
  5
7
330
0
100
AcDbSymbolTable
 70
     0
  0
ENDTAB
  0
TABLE
  2
APPID
  5
9
330
0
100
AcDbSymbolTable
 70
     1
  0
APPID
  5
12
330
9
100
AcDbSymbolTableRecord
100
AcDbRegAppTableRecord
  2
ACAD
 70
     0
  0
ENDTAB
  0
TABLE
  2
DIMSTYLE
  5
A
330
0
100
AcDbSymbolTable
 70
     1
100
AcDbDimStyleTable
  0
DIMSTYLE
105
27
330
A
100
AcDbSymbolTableRecord
100
AcDbDimStyleTableRecord
  2
ISO-25
 70
     0
 41
2.5
 42
0.625
 43
3.75
 44
1.25
 73
     0
 74
     0
 77
     1
 78
     8
140
2.5
141
2.5
143
0.0393700787
147
0.625
171
     3
172
     1
178
     0
271
     2
272
     2
274
     3
278
    44
283
     0
284
     8
340
11
  0
ENDTAB
  0
TABLE
  2
BLOCK_RECORD
  5
1
330
0
100
AcDbSymbolTable
 70
     8
  0
BLOCK_RECORD
  5
1F
330
1
100
AcDbSymbolTableRecord
100
AcDbBlockTableRecord
  2
*Model_Space
340
22
  0
BLOCK_RECORD
  5
1B
330
1
100
AcDbSymbolTableRecord
100
AcDbBlockTableRecord
  2
*Paper_Space
340
1E
  0
BLOCK_RECORD
  5
23
330
1
100
AcDbSymbolTableRecord
100
AcDbBlockTableRecord
  2
*Paper_Space0
340
26
  0
BLOCK_RECORD
  5
117
330
1
100
AcDbSymbolTableRecord
100
AcDbBlockTableRecord
  2
*Paper_Space1
340
118
  0
BLOCK_RECORD
  5
134
330
1
100
AcDbSymbolTableRecord
100
AcDbBlockTableRecord
  2
*Paper_Space2
340
135
  0
BLOCK_RECORD
  5
14F
330
1
100
AcDbSymbolTableRecord
100
AcDbBlockTableRecord
  2
*Paper_Space3
340
150
  0
BLOCK_RECORD
  5
169
330
1
100
AcDbSymbolTableRecord
100
AcDbBlockTableRecord
  2
*Paper_Space4
340
16A
  0
BLOCK_RECORD
  5
183
330
1
100
AcDbSymbolTableRecord
100
AcDbBlockTableRecord
  2
*Paper_Space5
340
184
  0
BLOCK_RECORD
  5
1DC
330
1
100
AcDbSymbolTableRecord
100
AcDbBlockTableRecord
  2
*Paper_Space6
340
1DD
  0
BLOCK_RECORD
  5
236
330
1
100
AcDbSymbolTableRecord
100
AcDbBlockTableRecord
  2
*Paper_Space7
340
237
  0
ENDTAB
  0
ENDSEC
  0
SECTION
  2
BLOCKS
  0
BLOCK
  5
20
330
1F
100
AcDbEntity
  8
0
100
AcDbBlockBegin
  2
*Model_Space
 70
     0
 10
0.0
 20
0.0
 30
0.0
  3
*Model_Space
  1

  0
ENDBLK
  5
21
330
1F
100
AcDbEntity
  8
0
100
AcDbBlockEnd
  0
BLOCK
  5
1C
330
1B
100
AcDbEntity
 67
     1
  8
0
100
AcDbBlockBegin
  2
*Paper_Space
 70
     0
 10
0.0
 20
0.0
 30
0.0
  3
*Paper_Space
  1

  0
ENDBLK
  5
1D
330
1B
100
AcDbEntity
 67
     1
  8
0
100
AcDbBlockEnd
  0
BLOCK
  5
24
330
23
100
AcDbEntity
  8
0
100
AcDbBlockBegin
  2
*Paper_Space0
 70
     0
 10
0.0
 20
0.0
 30
0.0
  3
*Paper_Space0
  1

  0
LINE
  5
106
330
23
100
AcDbEntity
  8
0
  6
Continuous
 62
     7
370
    25
100
AcDbLine
 10
2.0
 20
-31.0
 30
0.0
 11
2.0
 21
-32.4384031666
 31
0.0
  0
LINE
  5
107
330
23
100
AcDbEntity
  8
0
  6
Continuous
 62
     7
370
    25
100
AcDbLine
 10
-2.0
 20
-32.4384031666
 30
0.0
 11
-2.0
 21
-31.0
 31
0.0
  0
LINE
  5
108
330
23
100
AcDbEntity
  8
0
  6
Continuous
 62
     7
370
    25
100
AcDbLine
 10
-31.0
 20
-2.0
 30
0.0
 11
-32.4384031666
 21
-2.0
 31
0.0
  0
LINE
  5
109
330
23
100
AcDbEntity
  8
0
  6
Continuous
 62
     7
370
    25
100
AcDbLine
 10
-32.4384031666
 20
2.0
 30
0.0
 11
-31.0
 21
2.0
 31
0.0
  0
LINE
  5
10A
330
23
100
AcDbEntity
  8
0
  6
Continuous
 62
     7
370
    25
100
AcDbLine
 10
-2.0
 20
31.0
 30
0.0
 11
-2.0
 21
32.4384031666
 31
0.0
  0
LINE
  5
10B
330
23
100
AcDbEntity
  8
0
  6
Continuous
 62
     7
370
    25
100
AcDbLine
 10
2.0
 20
32.4384031666
 30
0.0
 11
2.0
 21
31.0
 31
0.0
  0
LINE
  5
10C
330
23
100
AcDbEntity
  8
0
  6
Continuous
 62
     7
370
    25
100
AcDbLine
 10
31.0
 20
2.0
 30
0.0
 11
32.4384031666
 21
2.0
 31
0.0
  0
LINE
  5
10D
330
23
100
AcDbEntity
  8
0
  6
Continuous
 62
     7
370
    25
100
AcDbLine
 10
32.4384031666
 20
-2.0
 30
0.0
 11
31.0
 21
-2.0
 31
0.0
  0
ARC
  5
10E
330
23
100
AcDbEntity
  8
0
  6
Continuous
 62
     7
370
    25
100
AcDbCircle
 10
0.0
 20
-31.0
 30
0.0
 40
2.000000000000001
100
AcDbArc
 50
0.0
 51
180.0
  0
ARC
  5
10F
330
23
100
AcDbEntity
  8
0
  6
Continuous
 62
     7
370
    25
100
AcDbCircle
 10
0.0
 20
0.0
 30
0.0
 40
32.49999999999994
100
AcDbArc
 50
183.5281233413
 51
266.4718766587
  0
ARC
  5
110
330
23
100
AcDbEntity
  8
0
  6
Continuous
 62
     7
370
    25
100
AcDbCircle
 10
-31.0
 20
0.0
 30
0.0
 40
2.0
100
AcDbArc
 50
270.0
 51
90.0
  0
ARC
  5
111
330
23
100
AcDbEntity
  8
0
  6
Continuous
 62
     7
370
    25
100
AcDbCircle
 10
0.0
 20
0.0
 30
0.0
 40
32.50000000000005
100
AcDbArc
 50
93.5281233413
 51
176.4718766587
  0
ARC
  5
112
330
23
100
AcDbEntity
  8
0
  6
Continuous
 62
     7
370
    25
100
AcDbCircle
 10
0.0
 20
31.0
 30
0.0
 40
2.0
100
AcDbArc
 50
180.0
 51
0.0
  0
ARC
  5
113
330
23
100
AcDbEntity
  8
0
  6
Continuous
 62
     7
370
    25
100
AcDbCircle
 10
0.0
 20
0.0
 30
0.0
 40
32.49999999999994
100
AcDbArc
 50
3.5281233413
 51
86.4718766587
  0
ARC
  5
114
330
23
100
AcDbEntity
  8
0
  6
Continuous
 62
     7
370
    25
100
AcDbCircle
 10
31.0
 20
0.0
 30
0.0
 40
2.000000000000004
100
AcDbArc
 50
90.0
 51
270.0
  0
ARC
  5
115
330
23
100
AcDbEntity
  8
0
  6
Continuous
 62
     7
370
    25
100
AcDbCircle
 10
0.0
 20
0.0
 30
0.0
 40
32.49999999999998
100
AcDbArc
 50
273.5281233413
 51
356.4718766587
  0
ARC
  5
116
330
23
100
AcDbEntity
  8
0
  6
Continuous
 62
     7
370
    25
100
AcDbCircle
 10
0.0
 20
0.0
 30
0.0
 40
10.7
100
AcDbArc
 50
0.0
 51
180.0
  0
VIEWPORT
  5
299
330
23
100
AcDbEntity
  8
0
100
AcDbViewport
 10
0.0
 20
0.0
 30
0.0
 40
205.6
 41
156.0
 68
     1
 69
     1
 12
-0.5833692362
 22
-0.5693862585
 13
0.0
 23
0.0
 14
10.0
 24
10.0
 15
10.0
 25
10.0
 16
0.0
 26
0.0
 36
1.0
 17
0.0
 27
0.0
 37
0.0
 42
50.0
 43
0.0
 44
0.0
 45
60.1777773733
 50
0.0
 51
0.0
 72
   100
 90
   557152
  1

281
     0
 71
     1
 74
     0
110
0.0
120
0.0
130
0.0
111
1.0
121
0.0
131
0.0
112
0.0
122
1.0
132
0.0
 79
     0
146
0.0
  0
ENDBLK
  5
25
330
23
100
AcDbEntity
  8
0
100
AcDbBlockEnd
  0
BLOCK
  5
119
330
117
100
AcDbEntity
  8
0
100
AcDbBlockBegin
  2
*Paper_Space1
 70
     0
 10
0.0
 20
0.0
 30
0.0
  3
*Paper_Space1
  1

  0
LINE
  5
12B
330
117
100
AcDbEntity
  8
0
  6
Continuous
 62
     7
370
    25
100
AcDbLine
 10
2.5
 20
-26.5
 30
0.0
 11
2.95
 21
-26.5
 31
0.0
  0
LINE
  5
12C
330
117
100
AcDbEntity
  8
0
  6
Continuous
 62
     7
370
    25
100
AcDbLine
 10
2.95
 20
26.5
 30
0.0
 11
2.5
 21
26.5
 31
0.0
  0
LINE
  5
12D
330
117
100
AcDbEntity
  8
0
  6
Continuous
 62
     7
370
    25
100
AcDbLine
 10
0.0
 20
-32.4384031666
 30
0.0
 11
2.5
 21
-32.4384031666
 31
0.0
  0
LINE
  5
12E
330
117
100
AcDbEntity
  8
0
  6
Continuous
 62
     7
370
    25
100
AcDbLine
 10
2.5
 20
-2.0
 30
0.0
 11
0.0
 21
-2.0
 31
0.0
  0
LINE
  5
12F
330
117
100
AcDbEntity
  8
0
  6
Continuous
 62
     7
370
    25
100
AcDbLine
 10
2.5
 20
32.4384031666
 30
0.0
 11
0.0
 21
32.4384031666
 31
0.0
  0
LINE
  5
130
330
117
100
AcDbEntity
  8
0
  6
Continuous
 62
     7
370
    25
100
AcDbLine
 10
2.5
 20
32.4384031666
 30
0.0
 11
2.5
 21
-32.4384031666
 31
0.0
  0
LINE
  5
131
330
117
100
AcDbEntity
  8
0
  6
Continuous
 62
     7
370
    25
100
AcDbLine
 10
0.0
 20
2.0
 30
0.0
 11
2.5
 21
2.0
 31
0.0
  0
LINE
  5
132
330
117
100
AcDbEntity
  8
0
  6
Continuous
 62
     7
370
    25
100
AcDbLine
 10
0.0
 20
32.4384031666
 30
0.0
 11
0.0
 21
-32.4384031666
 31
0.0
  0
LINE
  5
133
330
117
100
AcDbEntity
  8
0
  6
Continuous
 62
     7
370
    25
100
AcDbLine
 10
2.95
 20
26.5
 30
0.0
 11
2.95
 21
-26.5
 31
0.0
  0
VIEWPORT
  5
29B
330
117
100
AcDbEntity
  8
0
100
AcDbViewport
 10
0.0
 20
0.0
 30
0.0
 40
205.6
 41
156.0
 68
     1
 69
     1
 12
-0.5833692362
 22
-0.5693862585
 13
0.0
 23
0.0
 14
10.0
 24
10.0
 15
10.0
 25
10.0
 16
0.0
 26
0.0
 36
1.0
 17
0.0
 27
0.0
 37
0.0
 42
50.0
 43
0.0
 44
0.0
 45
60.1777773733
 50
0.0
 51
0.0
 72
   100
 90
   557152
  1

281
     0
 71
     1
 74
     0
110
0.0
120
0.0
130
0.0
111
1.0
121
0.0
131
0.0
112
0.0
122
1.0
132
0.0
 79
     0
146
0.0
  0
ENDBLK
  5
11A
330
117
100
AcDbEntity
  8
0
100
AcDbBlockEnd
  0
BLOCK
  5
136
330
134
100
AcDbEntity
  8
0
100
AcDbBlockBegin
  2
*Paper_Space2
 70
     0
 10
0.0
 20
0.0
 30
0.0
  3
*Paper_Space2
  1

  0
LINE
  5
146
330
134
100
AcDbEntity
  8
0
  6
Continuous
 62
     7
370
    25
100
AcDbLine
 10
-2.95
 20
-26.5
 30
0.0
 11
-2.5
 21
-26.5
 31
0.0
  0
LINE
  5
147
330
134
100
AcDbEntity
  8
0
  6
Continuous
 62
     7
370
    25
100
AcDbLine
 10
-2.5
 20
26.5
 30
0.0
 11
-2.95
 21
26.5
 31
0.0
  0
LINE
  5
148
330
134
100
AcDbEntity
  8
0
  6
Continuous
 62
     7
370
    25
100
AcDbLine
 10
-2.5
 20
-32.4384031666
 30
0.0
 11
0.0
 21
-32.4384031666
 31
0.0
  0
LINE
  5
149
330
134
100
AcDbEntity
  8
0
  6
Continuous
 62
     7
370
    25
100
AcDbLine
 10
0.0
 20
-2.0
 30
0.0
 11
-2.5
 21
-2.0
 31
0.0
  0
LINE
  5
14A
330
134
100
AcDbEntity
  8
0
  6
Continuous
 62
     7
370
    25
100
AcDbLine
 10
0.0
 20
32.4384031666
 30
0.0
 11
-2.5
 21
32.4384031666
 31
0.0
  0
LINE
  5
14B
330
134
100
AcDbEntity
  8
0
  6
Continuous
 62
     7
370
    25
100
AcDbLine
 10
-2.5
 20
2.0
 30
0.0
 11
0.0
 21
2.0
 31
0.0
  0
LINE
  5
14C
330
134
100
AcDbEntity
  8
0
  6
Continuous
 62
     7
370
    25
100
AcDbLine
 10
-2.5
 20
-32.4384031666
 30
0.0
 11
-2.5
 21
32.4384031666
 31
0.0
  0
LINE
  5
14D
330
134
100
AcDbEntity
  8
0
  6
Continuous
 62
     7
370
    25
100
AcDbLine
 10
0.0
 20
-32.4384031666
 30
0.0
 11
0.0
 21
32.4384031666
 31
0.0
  0
LINE
  5
14E
330
134
100
AcDbEntity
  8
0
  6
Continuous
 62
     7
370
    25
100
AcDbLine
 10
-2.95
 20
-26.5
 30
0.0
 11
-2.95
 21
26.5
 31
0.0
  0
VIEWPORT
  5
29D
330
134
100
AcDbEntity
  8
0
100
AcDbViewport
 10
0.0
 20
0.0
 30
0.0
 40
205.6
 41
156.0
 68
     1
 69
     1
 12
-0.5833692362
 22
-0.5693862585
 13
0.0
 23
0.0
 14
10.0
 24
10.0
 15
10.0
 25
10.0
 16
0.0
 26
0.0
 36
1.0
 17
0.0
 27
0.0
 37
0.0
 42
50.0
 43
0.0
 44
0.0
 45
60.1777773733
 50
0.0
 51
0.0
 72
   100
 90
   557152
  1

281
     0
 71
     1
 74
     0
110
0.0
120
0.0
130
0.0
111
1.0
121
0.0
131
0.0
112
0.0
122
1.0
132
0.0
 79
     0
146
0.0
  0
ENDBLK
  5
137
330
134
100
AcDbEntity
  8
0
100
AcDbBlockEnd
  0
BLOCK
  5
151
330
14F
100
AcDbEntity
  8
0
100
AcDbBlockBegin
  2
*Paper_Space3
 70
     0
 10
0.0
 20
0.0
 30
0.0
  3
*Paper_Space3
  1

  0
LINE
  5
160
330
14F
100
AcDbEntity
  8
0
  6
Continuous
 62
     7
370
    25
100
AcDbLine
 10
-2.0
 20
-2.5
 30
0.0
 11
-2.0
 21
0.0
 31
0.0
  0
LINE
  5
161
330
14F
100
AcDbEntity
  8
0
  6
Continuous
 62
     7
370
    25
100
AcDbLine
 10
-32.4384031666
 20
0.0
 30
0.0
 11
-32.4384031666
 21
-2.5
 31
0.0
  0
LINE
  5
162
330
14F
100
AcDbEntity
  8
0
  6
Continuous
 62
     7
370
    25
100
AcDbLine
 10
2.0
 20
0.0
 30
0.0
 11
2.0
 21
-2.5
 31
0.0
  0
LINE
  5
163
330
14F
100
AcDbEntity
  8
0
  6
Continuous
 62
     7
370
    25
100
AcDbLine
 10
32.4384031666
 20
-2.5
 30
0.0
 11
32.4384031666
 21
0.0
 31
0.0
  0
LINE
  5
164
330
14F
100
AcDbEntity
  8
0
  6
Continuous
 62
     7
370
    25
100
AcDbLine
 10
32.4384031666
 20
-2.5
 30
0.0
 11
-32.4384031666
 21
-2.5
 31
0.0
  0
LINE
  5
165
330
14F
100
AcDbEntity
  8
0
  6
Continuous
 62
     7
370
    25
100
AcDbLine
 10
32.4384031666
 20
0.0
 30
0.0
 11
-32.4384031666
 21
0.0
 31
0.0
  0
LINE
  5
166
330
14F
100
AcDbEntity
  8
0
  6
Continuous
 62
     7
370
    25
100
AcDbLine
 10
-26.5
 20
-2.95
 30
0.0
 11
-26.5
 21
-2.5
 31
0.0
  0
LINE
  5
167
330
14F
100
AcDbEntity
  8
0
  6
Continuous
 62
     7
370
    25
100
AcDbLine
 10
26.5
 20
-2.95
 30
0.0
 11
26.5
 21
-2.5
 31
0.0
  0
LINE
  5
168
330
14F
100
AcDbEntity
  8
0
  6
Continuous
 62
     7
370
    25
100
AcDbLine
 10
26.5
 20
-2.95
 30
0.0
 11
-26.5
 21
-2.95
 31
0.0
  0
VIEWPORT
  5
29F
330
14F
100
AcDbEntity
  8
0
100
AcDbViewport
 10
0.0
 20
0.0
 30
0.0
 40
205.6
 41
156.0
 68
     1
 69
     1
 12
-0.5833692362
 22
-0.5693862585
 13
0.0
 23
0.0
 14
10.0
 24
10.0
 15
10.0
 25
10.0
 16
0.0
 26
0.0
 36
1.0
 17
0.0
 27
0.0
 37
0.0
 42
50.0
 43
0.0
 44
0.0
 45
60.1777773733
 50
0.0
 51
0.0
 72
   100
 90
   557152
  1

281
     0
 71
     1
 74
     0
110
0.0
120
0.0
130
0.0
111
1.0
121
0.0
131
0.0
112
0.0
122
1.0
132
0.0
 79
     0
146
0.0
  0
ENDBLK
  5
152
330
14F
100
AcDbEntity
  8
0
100
AcDbBlockEnd
  0
BLOCK
  5
16B
330
169
100
AcDbEntity
  8
0
100
AcDbBlockBegin
  2
*Paper_Space4
 70
     0
 10
0.0
 20
0.0
 30
0.0
  3
*Paper_Space4
  1

  0
LINE
  5
17A
330
169
100
AcDbEntity
  8
0
  6
Continuous
 62
     7
370
    25
100
AcDbLine
 10
-2.0
 20
0.0
 30
0.0
 11
-2.0
 21
2.5
 31
0.0
  0
LINE
  5
17B
330
169
100
AcDbEntity
  8
0
  6
Continuous
 62
     7
370
    25
100
AcDbLine
 10
-32.4384031666
 20
2.5
 30
0.0
 11
-32.4384031666
 21
0.0
 31
0.0
  0
LINE
  5
17C
330
169
100
AcDbEntity
  8
0
  6
Continuous
 62
     7
370
    25
100
AcDbLine
 10
32.4384031666
 20
0.0
 30
0.0
 11
32.4384031666
 21
2.5
 31
0.0
  0
LINE
  5
17D
330
169
100
AcDbEntity
  8
0
  6
Continuous
 62
     7
370
    25
100
AcDbLine
 10
2.0
 20
2.5
 30
0.0
 11
2.0
 21
0.0
 31
0.0
  0
LINE
  5
17E
330
169
100
AcDbEntity
  8
0
  6
Continuous
 62
     7
370
    25
100
AcDbLine
 10
-32.4384031666
 20
2.5
 30
0.0
 11
32.4384031666
 21
2.5
 31
0.0
  0
LINE
  5
17F
330
169
100
AcDbEntity
  8
0
  6
Continuous
 62
     7
370
    25
100
AcDbLine
 10
-32.4384031666
 20
0.0
 30
0.0
 11
32.4384031666
 21
0.0
 31
0.0
  0
LINE
  5
180
330
169
100
AcDbEntity
  8
0
  6
Continuous
 62
     7
370
    25
100
AcDbLine
 10
-26.5
 20
2.95
 30
0.0
 11
-26.5
 21
2.5
 31
0.0
  0
LINE
  5
181
330
169
100
AcDbEntity
  8
0
  6
Continuous
 62
     7
370
    25
100
AcDbLine
 10
-26.5
 20
2.95
 30
0.0
 11
26.5
 21
2.95
 31
0.0
  0
LINE
  5
182
330
169
100
AcDbEntity
  8
0
  6
Continuous
 62
     7
370
    25
100
AcDbLine
 10
26.5
 20
2.95
 30
0.0
 11
26.5
 21
2.5
 31
0.0
  0
VIEWPORT
  5
2A1
330
169
100
AcDbEntity
  8
0
100
AcDbViewport
 10
0.0
 20
0.0
 30
0.0
 40
205.6
 41
156.0
 68
     1
 69
     1
 12
-0.5833692362
 22
-0.5693862585
 13
0.0
 23
0.0
 14
10.0
 24
10.0
 15
10.0
 25
10.0
 16
0.0
 26
0.0
 36
1.0
 17
0.0
 27
0.0
 37
0.0
 42
50.0
 43
0.0
 44
0.0
 45
60.1777773733
 50
0.0
 51
0.0
 72
   100
 90
   557152
  1

281
     0
 71
     1
 74
     0
110
0.0
120
0.0
130
0.0
111
1.0
121
0.0
131
0.0
112
0.0
122
1.0
132
0.0
 79
     0
146
0.0
  0
ENDBLK
  5
16C
330
169
100
AcDbEntity
  8
0
100
AcDbBlockEnd
  0
BLOCK
  5
185
330
183
100
AcDbEntity
  8
0
100
AcDbBlockBegin
  2
*Paper_Space5
 70
     0
 10
0.0
 20
0.0
 30
0.0
  3
*Paper_Space5
  1

  0
LWPOLYLINE
  5
18E
330
183
100
AcDbEntity
  8
0
  6
Continuous
 62
     7
370
    25
100
AcDbPolyline
 90
       33
 70
   128
 43
0.0
 10
-3.1819805153
 20
26.28317803
 10
-4.2178408476
 20
26.7802148795
 10
-5.2486878386
 20
27.2203658858
 10
-6.2724121694
 20
27.6027304119
 10
-7.2869190952
 20
27.9265260635
 10
-8.2901327319
 20
28.19109029
 10
-9.2800003038
 20
28.3958817399
 10
-10.254496344
 20
28.5404813692
 10
-11.2116268385
 20
28.6245932979
 10
-12.1494333071
 20
28.6480454163
 10
-13.0659968101
 20
28.6107897366
 10
-13.9594418753
 20
28.5129024915
 10
-14.8279403353
 20
28.3545839778
 10
-15.6697150688
 20
28.1361581468
 10
-16.4830436362
 20
27.8580719415
 10
-17.2662618046
 20
27.5208943819
 10
-18.017766953
 20
27.1253154006
 10
-18.7360213515
 20
26.6721444314
 10
-19.4195553082
 20
26.1623087528
 10
-20.0669701756
 20
25.5968515904
 10
-20.6769412137
 20
24.9769299828
 10
-21.2482202996
 20
24.3038124135
 10
-21.779638482
 20
23.5788762156
 10
-22.2701083732
 20
22.8036047537
 10
-22.7186263736
 20
21.9795843881
 10
-23.1242747256
 20
21.1085012294
 10
-23.4862233917
 20
20.1921376878
 10
-23.8037317525
 20
19.2323688265
 10
-24.0761501223
 20
18.2311585245
 10
-24.3029210788
 20
17.1905554583
 10
-24.4835806031
 20
16.1126889098
 10
-24.6177590298
 20
14.9997644097
 10
-24.7051818029
 20
13.8540592239
  0
LWPOLYLINE
  5
190
330
183
100
AcDbEntity
  8
0
  6
Continuous
 62
     7
370
    25
100
AcDbPolyline
 90
       18
 70
   128
 43
0.0
 10
-3.1819805153
 20
25.1086631405
 10
-3.157900842
 20
24.79468428
 10
-3.0864818263
 20
24.463595794
 10
-2.9701555573
 20
24.1266725037
 10
-2.8128833864
 20
23.7953879278
 10
-2.6200210289
 20
23.481023565
 10
-2.398136181
 20
23.1942847167
 10
-2.154784865
 20
22.9449359305
 10
-1.8982541183
 20
22.7414684803
 10
-1.6372797876
 20
22.5908112061
 10
-1.3807490409
 20
22.4980945605
 10
-1.137397725
 20
22.4664758979
 10
-0.915512877
 20
22.4970319538
 10
-0.7226505195
 20
22.5887221783
 10
-0.5653783487
 20
22.7384241709
 10
-0.4490520796
 20
22.9410400098
 10
-0.3776330639
 20
23.1896698555
 10
-0.3535533906
 20
23.4758469169
  0
LWPOLYLINE
  5
194
330
183
100
AcDbEntity
  8
0
  6
Continuous
 62
     7
370
    25
100
AcDbPolyline
 90
       18
 70
   128
 43
0.0
 10
20.1525432638
 20
-12.0417542493
 10
19.8926822036
 20
-11.9195459704
 10
19.6416704002
 20
-11.8571119839
 10
19.4080557594
 20
-11.8565784044
 10
19.1997937477
 20
-11.9179634021
 10
19.023976478
 20
-12.0391765848
 10
18.8865911966
 20
-12.2160901827
 10
18.7923163946
 20
-12.4426796156
 10
18.7443624872
 20
-12.711228652
 10
18.7443624872
 20
-13.0125921766
 10
18.7923163946
 20
-13.336507616
 10
18.8865911966
 20
-13.6719444184
 10
19.023976478
 20
-14.0074796858
 10
19.1997937477
 20
-14.3316871672
 10
19.4080557594
 20
-14.6335263655
 10
19.6416704002
 20
-14.9027185089
 10
19.8926822036
 20
-15.1300965819
 10
20.1525432638
 20
-15.3079174968
  0
LWPOLYLINE
  5
196
330
183
100
AcDbEntity
  8
0
  6
Continuous
 62
     7
370
    25
100
AcDbPolyline
 90
       33
 70
   128
 43
0.0
 10
-0.3535533906
 20
-28.3241983095
 10
0.6823069416
 20
-28.8212351591
 10
1.7131539327
 20
-29.2613861654
 10
2.7368782635
 20
-29.6437506915
 10
3.7513851892
 20
-29.9675463431
 10
4.754598826
 20
-30.2321105695
 10
5.7444663979
 20
-30.4369020195
 10
6.718962438
 20
-30.5815016487
 10
7.6760929326
 20
-30.6656135774
 10
8.6138994012
 20
-30.6890656958
 10
9.5304629042
 20
-30.6518100162
 10
10.4239079693
 20
-30.5539227711
 10
11.2924064294
 20
-30.3956042574
 10
12.1341811629
 20
-30.1771784264
 10
12.9475097302
 20
-29.8990922211
 10
13.7307278986
 20
-29.5619146614
 10
14.482233047
 20
-29.1663356802
 10
15.2004874456
 20
-28.713164711
 10
15.8840214022
 20
-28.2033290324
 10
16.5314362697
 20
-27.63787187
 10
17.1414073078
 20
-27.0179502624
 10
17.7126863936
 20
-26.344832693
 10
18.2441045761
 20
-25.6198964952
 10
18.7345744673
 20
-24.8446250333
 10
19.1830924676
 20
-24.0206046677
 10
19.5887408197
 20
-23.1495215089
 10
19.9506894858
 20
-22.2331579674
 10
20.2681978466
 20
-21.2733891061
 10
20.5406162164
 20
-20.2721788041
 10
20.7673871728
 20
-19.2315757378
 10
20.9480466972
 20
-18.1537091894
 10
21.0822251239
 20
-17.0407846892
 10
21.169647897
 20
-15.8950795035
  0
LWPOLYLINE
  5
198
330
183
100
AcDbEntity
  8
0
  6
Continuous
 62
     7
370
    25
100
AcDbPolyline
 90
       18
 70
   128
 43
0.0
 10
-0.3535533906
 20
-27.1496834201
 10
-0.3776330639
 20
-26.8357045596
 10
-0.4490520796
 20
-26.5046160736
 10
-0.5653783487
 20
-26.1676927833
 10
-0.7226505195
 20
-25.8364082073
 10
-0.915512877
 20
-25.5220438445
 10
-1.137397725
 20
-25.2353049963
 10
-1.3807490409
 20
-24.9859562101
 10
-1.6372797876
 20
-24.7824887599
 10
-1.8982541183
 20
-24.6318314856
 10
-2.154784865
 20
-24.5391148401
 10
-2.398136181
 20
-24.5074961774
 10
-2.6200210289
 20
-24.5380522333
 10
-2.8128833864
 20
-24.6297424579
 10
-2.9701555573
 20
-24.7794444505
 10
-3.0864818263
 20
-24.9820602893
 10
-3.157900842
 20
-25.230690135
 10
-3.1819805153
 20
-25.5168671964
  0
LWPOLYLINE
  5
19D
330
183
100
AcDbEntity
  8
0
  6
Continuous
 62
     7
370
    25
100
AcDbPolyline
 90
       37
 70
   128
 43
0.0
 10
-4.1649919826
 20
-21.5087402688
 10
-4.0690391607
 20
-21.5778713427
 10
-3.1506836894
 20
-22.2108580988
 10
-2.2290983521
 20
-22.7943538154
 10
-1.3064355539
 20
-23.3269957113
 10
-0.3848502165
 20
-23.8075397764
 10
0.5335052548
 20
-24.2348636781
 10
1.4464859982
 20
-24.6079693814
 10
2.3519597048
 20
-24.9259854807
 10
3.247811599
 20
-25.1881692346
 10
4.1319493771
 20
-25.393908301
 10
5.0023080943
 20
-25.5427221665
 10
5.8568549876
 20
-25.6342632697
 10
6.693594223
 20
-25.6683178119
 10
7.5105715573
 20
-25.6448062573
 10
8.3058789022
 20
-25.5637835181
 10
9.0776587803
 20
-25.4254388266
 10
9.8241086642
 20
-25.2300952935
 10
10.5434851854
 20
-24.9782091524
 10
11.2341082068
 20
-24.6703686952
 10
11.8943647463
 20
-24.3072928976
 10
12.5227127442
 20
-23.8898297398
 10
13.1176846647
 20
-23.4189542264
 10
13.6778909231
 20
-22.895766109
 10
14.2020231319
 20
-22.3214873177
 10
14.688857156
 20
-21.6974591072
 10
15.1372559719
 20
-21.0251389243
 10
15.5461723236
 20
-20.306097004
 10
15.9146511677
 20
-19.542012702
 10
16.2418319051
 20
-18.7346705725
 10
16.5269503898
 20
-17.8859562005
 10
16.7693407145
 20
-16.9978517978
 10
16.9684367653
 20
-16.0724315733
 10
17.1237735442
 20
-15.1118568889
 10
17.2349882549
 20
-14.1183712113
 10
17.3018211503
 20
-13.0942948722
 10
17.3241161391
 20
-12.0420196494
  0
LWPOLYLINE
  5
19E
330
183
100
AcDbEntity
  8
0
  6
Continuous
 62
     7
370
    25
100
AcDbPolyline
 90
       66
 70
   128
 43
0.0
 10
17.3241161391
 20
-12.0420196494
 10
17.3018211503
 20
-10.9640031805
 10
17.2349882549
 20
-9.8627632228
 10
17.1237735442
 20
-8.7408717734
 10
16.9684367653
 20
-7.6009490616
 10
16.7693407145
 20
-6.4456574298
 10
16.5269503898
 20
-5.2776951152
 10
16.2418319051
 20
-4.0997899478
 10
15.9146511677
 20
-2.9146929797
 10
15.5461723236
 20
-1.7251720598
 10
15.1372559719
 20
-0.5340053694
 10
14.688857156
 20
0.6560250666
 10
14.2020231319
 20
1.842139877
 10
13.6778909231
 20
3.0215688356
 10
13.1176846647
 20
4.1915573314
 10
12.5227127442
 20
5.3493728022
 10
11.8943647463
 20
6.4923111162
 10
11.2341082068
 20
7.6177028881
 10
10.5434851854
 20
8.7229197131
 10
9.8241086642
 20
9.8053803063
 10
9.0776587803
 20
10.8625565307
 10
8.3058789022
 20
11.8919793024
 10
7.5105715573
 20
12.8912443566
 10
6.693594223
 20
13.8580178636
 10
5.8568549876
 20
14.790041879
 10
5.0023080943
 20
15.6851396176
 10
4.1319493771
 20
16.5412205371
 10
3.247811599
 20
17.356285221
 10
2.3519597048
 20
18.1284300477
 10
1.4464859982
 20
18.8558516374
 10
0.5335052548
 20
19.5368510631
 10
-0.3848502165
 20
20.1698378193
 10
-1.3064355539
 20
20.7533335359
 10
-2.2290983521
 20
21.2859754317
 10
-3.1506836894
 20
21.7665194969
 10
-4.0690391607
 20
22.1938433985
 10
-4.9820199041
 20
22.5669491018
 10
-5.8874936108
 20
22.8849652011
 10
-6.7833455049
 20
23.1471489551
 10
-7.667483283
 20
23.3528880214
 10
-8.5378420002
 20
23.501701887
 10
-9.3923888935
 20
23.5932429901
 10
-10.2291281289
 20
23.6272975324
 10
-11.0461054633
 20
23.6037859777
 10
-11.8414128081
 20
23.5227632385
 10
-12.6131926863
 20
23.3844185471
 10
-13.3596425701
 20
23.1890750139
 10
-14.0790190913
 20
22.9371888729
 10
-14.7696421127
 20
22.6293484157
 10
-15.4298986523
 20
22.266272618
 10
-16.0582466502
 20
21.8488094602
 10
-16.6532185706
 20
21.3779339468
 10
-17.213424829
 20
20.8547458294
 10
-17.7375570378
 20
20.2804670381
 10
-18.2243910619
 20
19.6564388276
 10
-18.6727898779
 20
18.9841186448
 10
-19.0817062295
 20
18.2650767244
 10
-19.4501850737
 20
17.5009924224
 10
-19.777365811
 20
16.6936502929
 10
-20.0624842958
 20
15.844935921
 10
-20.3048746204
 20
14.9568315182
 10
-20.5039706712
 20
14.0314112938
 10
-20.6593074501
 20
13.0708366094
 10
-20.7705221608
 20
12.0773509317
 10
-20.8373550562
 20
11.0532745926
 10
-20.859650045
 20
10.0009993698
  0
LWPOLYLINE
  5
1A2
330
183
100
AcDbEntity
  8
0
  6
Continuous
 62
     7
370
    25
100
AcDbPolyline
 90
       17
 70
   128
 43
0.0
 10
-15.2312682256
 20
22.3831391669
 10
-15.3591879742
 20
22.3070930236
 10
-15.9875359721
 20
21.8896298658
 10
-16.5825078925
 20
21.4187543524
 10
-17.1427141509
 20
20.895566235
 10
-17.6668463597
 20
20.3212874437
 10
-18.1536803838
 20
19.6972592332
 10
-18.6020791998
 20
19.0249390504
 10
-19.0109955514
 20
18.30589713
 10
-19.3794743956
 20
17.541812828
 10
-19.7066551329
 20
16.7344706985
 10
-19.9917736176
 20
15.8857563265
 10
-20.2341639423
 20
14.9976519238
 10
-20.4332599931
 20
14.0722316994
 10
-20.588596772
 20
13.111657015
 10
-20.6998114827
 20
12.1181713373
 10
-20.7336143184
 20
11.6870560747
  0
LWPOLYLINE
  5
1A3
330
183
100
AcDbEntity
  8
0
  6
Continuous
 62
     7
370
    25
100
AcDbPolyline
 90
       16
 70
   128
 43
0.0
 10
-0.2477529916
 20
-23.7993416054
 10
0.6042159329
 20
-24.1940432725
 10
1.5171966763
 20
-24.5671489758
 10
2.422670383
 20
-24.8851650751
 10
3.3185222771
 20
-25.147348829
 10
4.2026600552
 20
-25.3530878954
 10
5.0730187724
 20
-25.501901761
 10
5.9275656657
 20
-25.5934428641
 10
6.7643049011
 20
-25.6274974063
 10
7.5812822354
 20
-25.6039858517
 10
8.3765895803
 20
-25.5229631125
 10
9.1483694585
 20
-25.3846184211
 10
9.8948193423
 20
-25.1892748879
 10
10.6141958635
 20
-24.9373887468
 10
11.3048188849
 20
-24.6295482896
 10
11.7664449842
 20
-24.3833390486
  0
LWPOLYLINE
  5
1A5
330
183
100
AcDbEntity
  8
0
  6
Continuous
 62
     7
370
    25
100
AcDbPolyline
 90
       32
 70
   128
 43
0.0
 10
-9.2630988335
 20
3.3880936641
 10
-9.2408985604
 20
2.7064679162
 10
-9.1744280211
 20
2.0032103296
 10
-9.0640772911
 20
1.2824478993
 10
-8.9104939524
 20
0.5484103458
 10
-8.7145792932
 20
-0.1945947065
 10
-8.4774830185
 20
-0.9422070087
 10
-8.2005965035
 20
-1.6900392744
 10
-7.8855446284
 20
-2.4337029265
 10
-7.534176243
 20
-3.1688338511
 10
-7.1485533165
 20
-3.8911180075
 10
-6.7309388377
 20
-4.5963167451
 10
-6.2837835344
 20
-5.2802916773
 10
-5.8097114917
 20
-5.9390289673
 10
-5.3115047528
 20
-6.5686628826
 10
-4.7920869931
 20
-7.1654984812
 10
-4.2545063624
 20
-7.7260332943
 10
-3.7019175977
 20
-8.2469778809
 10
-3.1375635096
 20
-8.7252751309
 10
-2.5647559522
 20
-9.1581182059
 10
-1.9868563881
 20
-9.5429670107
 10
-1.4072561616
 20
-9.8775630993
 10
-0.8293565975
 20
-10.1599429289
 10
-0.2565490401
 20
-10.3884493825
 10
0.307805048
 20
-10.5617414932
 10
0.8603938127
 20
-10.678802314
 10
1.3979744434
 20
-10.7389448855
 10
1.9173922031
 20
-10.7418162672
 10
2.415598942
 20
-10.6873996087
 10
2.8896709847
 20
-10.5760142485
 10
3.336826288
 20
-10.4083138403
 10
3.4545203954
 20
-10.3525466265
  0
LWPOLYLINE
  5
1A9
330
183
100
AcDbEntity
  8
0
  6
Continuous
 62
     7
370
    25
100
AcDbPolyline
 90
       18
 70
   128
 43
0.0
 10
16.2486794053
 20
-28.1465880274
 10
16.25
 20
-28.1458255404
 10
16.9682543986
 20
-27.6926545712
 10
17.6517883552
 20
-27.1828188926
 10
18.2992032227
 20
-26.6173617302
 10
18.9091742607
 20
-25.9974401226
 10
19.4804533466
 20
-25.3243225533
 10
20.0118715291
 20
-24.5993863554
 10
20.5023414202
 20
-23.8241148935
 10
20.9508594206
 20
-23.0000945279
 10
21.3565077727
 20
-22.1290113692
 10
21.7184564388
 20
-21.2126478276
 10
22.0359647995
 20
-20.2528789663
 10
22.3083831694
 20
-19.2516686643
 10
22.5351541258
 20
-18.2110655981
 10
22.7158136501
 20
-17.1331990496
 10
22.8499920768
 20
-16.0202745494
 10
22.93741485
 20
-14.8745693637
  0
LWPOLYLINE
  5
1AD
330
183
100
AcDbEntity
  8
0
  6
Continuous
 62
     7
370
    25
100
AcDbPolyline
 90
       17
 70
   128
 43
0.0
 10
-1.4142135624
 20
27.3036881698
 10
-2.4500738946
 20
27.8007250193
 10
-3.4809208856
 20
28.2408760256
 10
-4.5046452164
 20
28.6232405517
 10
-5.5191521422
 20
28.9470362033
 10
-6.5223657789
 20
29.2116004297
 10
-7.5122333509
 20
29.4163918797
 10
-8.486729391
 20
29.5609915089
 10
-9.4438598856
 20
29.6451034377
 10
-10.3816663541
 20
29.6685555561
 10
-11.2982298571
 20
29.6312998764
 10
-12.1916749223
 20
29.5334126313
 10
-13.0601733824
 20
29.3750941176
 10
-13.9019481158
 20
29.1566682866
 10
-14.7152766832
 20
28.8785820813
 10
-15.4984948516
 20
28.5414045216
 10
-16.2486794053
 20
28.1465880274
  0
LWPOLYLINE
  5
1AF
330
183
100
AcDbEntity
  8
0
  6
Continuous
 62
     7
370
    25
100
AcDbPolyline
 90
       30
 70
   128
 43
0.0
 10
-7.5660425587
 20
4.3677833983
 10
-7.5438422856
 20
3.6861576504
 10
-7.4773717462
 20
2.9829000638
 10
-7.3670210163
 20
2.2621376335
 10
-7.2134376776
 20
1.52810008
 10
-7.0175230183
 20
0.7850950276
 10
-6.7804267436
 20
0.0374827255
 10
-6.5035402286
 20
-0.7103495402
 10
-6.1884883536
 20
-1.4540131923
 10
-5.8371199681
 20
-2.1891441169
 10
-5.4514970416
 20
-2.9114282733
 10
-5.0338825628
 20
-3.6166270109
 10
-4.5867272595
 20
-4.3006019431
 10
-4.1126552168
 20
-4.9593392331
 10
-3.614448478
 20
-5.5889731484
 10
-3.0950307183
 20
-6.185808747
 10
-2.5574500876
 20
-6.7463435601
 10
-2.0048613229
 20
-7.2672881467
 10
-1.4405072347
 20
-7.7455853967
 10
-0.8676996773
 20
-8.1784284717
 10
-0.2898001132
 20
-8.5632772765
 10
0.2898001132
 20
-8.8978733651
 10
0.8676996773
 20
-9.1802531948
 10
1.4405072347
 20
-9.4087596483
 10
2.0048613229
 20
-9.582051759
 10
2.5574500876
 20
-9.6991125798
 10
3.0950307183
 20
-9.7592551513
 10
3.614448478
 20
-9.762126533
 10
4.1126552168
 20
-9.7077098745
 10
4.2039584238
 20
-9.6910540577
  0
LWPOLYLINE
  5
1B4
330
183
100
AcDbEntity
  8
0
  6
Continuous
 62
     7
370
    25
100
AcDbPolyline
 90
       49
 70
   128
 43
0.0
 10
17.0412734266
 20
-11.7970972158
 10
17.0187022878
 20
-10.722324571
 10
16.9510432474
 20
-9.6240810655
 10
16.8384593018
 20
-8.5050124641
 10
16.6812216757
 20
-7.3678147012
 10
16.4797091682
 20
-6.2152273856
 10
16.2344072407
 20
-5.0500272013
 10
15.945906847
 20
-3.8750212175
 10
15.6149030098
 20
-2.6930401265
 10
15.2421931463
 20
-1.5069314244
 10
14.8286751472
 20
-0.3195525509
 10
14.3753452137
 20
0.8662359944
 10
13.8832954572
 20
2.0475775429
 10
13.3537112687
 20
3.2216261393
 10
12.7878684629
 20
4.3855533978
 10
12.1871302047
 20
5.5365553157
 10
11.5529437252
 20
6.6718590285
 10
10.886836835
 20
7.7887294901
 10
10.1904142442
 20
8.8844760618
 10
9.4653536957
 20
9.9564589941
 10
8.7134019238
 20
11.0020957862
 10
7.9363704463
 20
12.0188674075
 10
7.1361312
 20
13.0043243661
 10
6.3146120314
 20
13.9560926099
 10
5.4737920521
 20
14.8718792458
 10
4.6156968711
 20
15.7494780636
 10
3.7423937148
 20
16.5867748509
 10
2.8559864471
 20
17.3817524863
 10
1.9586105007
 20
18.1324957992
 10
1.0524277327
 20
18.8371961831
 10
0.139621217
 20
19.4941559531
 10
-0.7776100156
 20
20.1017924355
 10
-1.6970562748
 20
20.6586417808
 10
-2.6165025341
 20
21.1633624902
 10
-3.5337337667
 20
21.6147386473
 10
-4.4465402824
 20
22.0116828474
 10
-5.3527230503
 20
22.3532388172
 10
-6.2500989968
 20
22.6385837183
 10
-7.1365062645
 20
22.86703013
 10
-8.0098094208
 20
23.0380277048
 10
-8.8679046018
 20
23.1511644946
 10
-9.7087245811
 20
23.2061679429
 10
-10.5302437497
 20
23.2029055417
 10
-11.330482996
 20
23.1413851502
 10
-12.1075144735
 20
23.0217549767
 10
-12.8594662453
 20
22.8443032205
 10
-13.5845267939
 20
22.6094573786
 10
-14.2809493847
 20
22.3177832152
 10
-14.9459794823
 20
21.9706051189
  0
LWPOLYLINE
  5
1B5
330
183
100
AcDbEntity
  8
0
  6
Continuous
 62
     7
370
    25
100
AcDbPolyline
 90
       65
 70
   128
 43
0.0
 10
16.6523646969
 20
-12.0216094466
 10
16.6297935582
 20
-10.9468368018
 10
16.5621345177
 20
-9.8485932963
 10
16.4495505721
 20
-8.7295246949
 10
16.292312946
 20
-7.5923269319
 10
16.0908004386
 20
-6.4397396164
 10
15.8454985111
 20
-5.274539432
 10
15.5569981173
 20
-4.0995334482
 10
15.2259942801
 20
-2.9175523573
 10
14.8532844166
 20
-1.7314436551
 10
14.4397664176
 20
-0.5440647816
 10
13.986436484
 20
0.6417237636
 10
13.4943867276
 20
1.8230653121
 10
12.9648025391
 20
2.9971139086
 10
12.3989597333
 20
4.1610411671
 10
11.7982214751
 20
5.3120430849
 10
11.1640349955
 20
6.4473467977
 10
10.4979281054
 20
7.5642172594
 10
9.8015055145
 20
8.659963831
 10
9.076444966
 20
9.7319467633
 10
8.3244931941
 20
10.7775835554
 10
7.5474617166
 20
11.7943551768
 10
6.7472224703
 20
12.7798121354
 10
5.9257033017
 20
13.7315803792
 10
5.0848833224
 20
14.6473670151
 10
4.2267881414
 20
15.5249658329
 10
3.3534849852
 20
16.3622626201
 10
2.4670777174
 20
17.1572402556
 10
1.569701771
 20
17.9079835685
 10
0.6635190031
 20
18.6126839523
 10
-0.2492875126
 20
19.2696437223
 10
-1.1665187453
 20
19.8772802047
 10
-2.0859650045
 20
20.43412955
 10
-3.0054112637
 20
20.9388502595
 10
-3.9226424964
 20
21.3902264166
 10
-4.8354490121
 20
21.7871706167
 10
-5.74163178
 20
22.1287265864
 10
-6.6390077264
 20
22.4140714875
 10
-7.5254149942
 20
22.6425178992
 10
-8.3987181504
 20
22.813515474
 10
-9.2568133314
 20
22.9266522638
 10
-10.0976333107
 20
22.9816557121
 10
-10.9191524793
 20
22.9783933109
 10
-11.7193917256
 20
22.9168729195
 10
-12.4964232031
 20
22.7972427459
 10
-13.248374975
 20
22.6197909898
 10
-13.9734355235
 20
22.3849451479
 10
-14.6698581144
 20
22.0932709844
 10
-15.3359650045
 20
21.745471168
 10
-15.9701514841
 20
21.3423835788
 10
-16.5708897423
 20
20.8849792903
 10
-17.1367325481
 20
20.3743602293
 10
-17.6663167366
 20
19.8117565219
 10
-18.158366493
 20
19.1985235297
 10
-18.6116964266
 20
18.5361385848
 10
-19.0252144256
 20
17.8261974304
 10
-19.3979242891
 20
17.070410377
 10
-19.7289281263
 20
16.2705981818
 10
-20.0174285201
 20
15.4286876625
 10
-20.2627304476
 20
14.5467070551
 10
-20.464242955
 20
13.6267811283
 10
-20.6214805811
 20
12.6711260642
 10
-20.7340645267
 20
11.6820441196
 10
-20.8017235672
 20
10.6619180794
 10
-20.8242947059
 20
9.6132055167
  0
LWPOLYLINE
  5
1B6
330
183
100
AcDbEntity
  8
0
  6
Continuous
 62
     7
370
    25
100
AcDbPolyline
 90
       65
 70
   128
 43
0.0
 10
-20.8242947059
 20
9.6132055167
 10
-20.8017235672
 20
8.5384328719
 10
-20.7340645267
 20
7.4401893664
 10
-20.6214805811
 20
6.321120765
 10
-20.464242955
 20
5.183923002
 10
-20.2627304476
 20
4.0313356865
 10
-20.0174285201
 20
2.8661355022
 10
-19.7289281263
 20
1.6911295183
 10
-19.3979242891
 20
0.5091484274
 10
-19.0252144256
 20
-0.6769602747
 10
-18.6116964266
 20
-1.8643391483
 10
-18.158366493
 20
-3.0501276935
 10
-17.6663167366
 20
-4.231469242
 10
-17.1367325481
 20
-5.4055178384
 10
-16.5708897423
 20
-6.5694450969
 10
-15.9701514841
 20
-7.7204470148
 10
-15.3359650045
 20
-8.8557507276
 10
-14.6698581144
 20
-9.9726211892
 10
-13.9734355235
 20
-11.0683677609
 10
-13.248374975
 20
-12.1403506932
 10
-12.4964232031
 20
-13.1859874853
 10
-11.7193917256
 20
-14.2027591066
 10
-10.9191524793
 20
-15.1882160652
 10
-10.0976333107
 20
-16.139984309
 10
-9.2568133314
 20
-17.0557709449
 10
-8.3987181504
 20
-17.9333697627
 10
-7.5254149942
 20
-18.77066655
 10
-6.6390077264
 20
-19.5656441855
 10
-5.74163178
 20
-20.3163874983
 10
-4.8354490121
 20
-21.0210878822
 10
-3.9226424964
 20
-21.6780476522
 10
-3.0054112637
 20
-22.2856841346
 10
-2.0859650045
 20
-22.8425334799
 10
-1.1665187453
 20
-23.3472541893
 10
-0.2492875126
 20
-23.7986303464
 10
0.6635190031
 20
-24.1955745465
 10
1.569701771
 20
-24.5371305163
 10
2.4670777174
 20
-24.8224754174
 10
3.3534849852
 20
-25.0509218291
 10
4.2267881414
 20
-25.2219194039
 10
5.0848833224
 20
-25.3350561937
 10
5.9257033017
 20
-25.390059642
 10
6.7472224703
 20
-25.3867972408
 10
7.5474617166
 20
-25.3252768494
 10
8.3244931941
 20
-25.2056466758
 10
9.076444966
 20
-25.0281949197
 10
9.8015055145
 20
-24.7933490778
 10
10.4979281054
 20
-24.5016749143
 10
11.1640349955
 20
-24.1538750979
 10
11.7982214751
 20
-23.7507875087
 10
12.3989597333
 20
-23.2933832201
 10
12.9648025391
 20
-22.7827641591
 10
13.4943867276
 20
-22.2201604518
 10
13.986436484
 20
-21.6069274596
 10
14.4397664176
 20
-20.9445425146
 10
14.8532844166
 20
-20.2346013603
 10
15.2259942801
 20
-19.4788143069
 10
15.5569981173
 20
-18.6790021117
 10
15.8454985111
 20
-17.8370915923
 10
16.0908004386
 20
-16.955110985
 10
16.292312946
 20
-16.0351850582
 10
16.4495505721
 20
-15.0795299941
 10
16.5621345177
 20
-14.0904480495
 10
16.6297935582
 20
-13.0703220093
 10
16.6523646969
 20
-12.0216094466
  0
LWPOLYLINE
  5
1B7
330
183
100
AcDbEntity
  8
0
  6
Continuous
 62
     7
370
    25
100
AcDbPolyline
 90
       42
 70
   128
 43
0.0
 10
5.4800775542
 20
-5.5719853632
 10
5.4578772811
 20
-4.8903596154
 10
5.3914067417
 20
-4.1871020287
 10
5.2810560118
 20
-3.4663395984
 10
5.1274726731
 20
-2.7323020449
 10
4.9315580138
 20
-1.9892969926
 10
4.6944617391
 20
-1.2416846904
 10
4.4175752241
 20
-0.4938524248
 10
4.1025233491
 20
0.2498112274
 10
3.7511549636
 20
0.9849421519
 10
3.3655320371
 20
1.7072263083
 10
2.9479175583
 20
2.4124250459
 10
2.500762255
 20
3.0963999782
 10
2.0266902123
 20
3.7551372681
 10
1.5284834735
 20
4.3847711835
 10
1.0090657138
 20
4.981606782
 10
0.4714850831
 20
5.5421415952
 10
-0.0811036816
 20
6.0630861818
 10
-0.6454577698
 20
6.5413834318
 10
-1.2182653272
 20
6.9742265068
 10
-1.7961648913
 20
7.3590753115
 10
-2.3757651177
 20
7.6936714002
 10
-2.9536646818
 20
7.9760512298
 10
-3.5264722392
 20
8.2045576833
 10
-4.0908263274
 20
8.377849794
 10
-4.6434150921
 20
8.4949106149
 10
-5.1809957228
 20
8.5550531864
 10
-5.7004134825
 20
8.5579245681
 10
-6.1986202213
 20
8.5035079096
 10
-6.672692264
 20
8.3921225494
 10
-7.1198475673
 20
8.2244221412
 10
-7.5374620461
 20
8.0013908176
 10
-7.9230849726
 20
7.724337415
 10
-8.2744533581
 20
7.3948877932
 10
-8.5895052331
 20
7.0149752933
 10
-8.8663917481
 20
6.5868293931
 10
-9.1034880228
 20
6.1129626229
 10
-9.2994026821
 20
5.5961558214
 10
-9.4529860208
 20
5.0394418163
 10
-9.5633367507
 20
4.4460876269
 10
-9.6298072901
 20
3.8195752914
 10
-9.6520075632
 20
3.1635814333
  0
LWPOLYLINE
  5
1B8
330
183
100
AcDbEntity
  8
0
  6
Continuous
 62
     7
370
    25
100
AcDbPolyline
 90
       42
 70
   128
 43
0.0
 10
-9.6520075632
 20
3.1635814333
 10
-9.6298072901
 20
2.4819556855
 10
-9.5633367507
 20
1.7786980988
 10
-9.4529860208
 20
1.0579356685
 10
-9.2994026821
 20
0.3238981151
 10
-9.1034880228
 20
-0.4191069373
 10
-8.8663917481
 20
-1.1667192394
 10
-8.5895052331
 20
-1.9145515051
 10
-8.2744533581
 20
-2.6582151573
 10
-7.9230849726
 20
-3.3933460818
 10
-7.5374620461
 20
-4.1156302382
 10
-7.1198475673
 20
-4.8208289758
 10
-6.672692264
 20
-5.504803908
 10
-6.1986202213
 20
-6.163541198
 10
-5.7004134825
 20
-6.7931751134
 10
-5.1809957228
 20
-7.3900107119
 10
-4.6434150921
 20
-7.9505455251
 10
-4.0908263274
 20
-8.4714901116
 10
-3.5264722392
 20
-8.9497873617
 10
-2.9536646818
 20
-9.3826304367
 10
-2.3757651177
 20
-9.7674792414
 10
-1.7961648913
 20
-10.10207533
 10
-1.2182653272
 20
-10.3844551597
 10
-0.6454577698
 20
-10.6129616132
 10
-0.0811036816
 20
-10.7862537239
 10
0.4714850831
 20
-10.9033145447
 10
1.0090657138
 20
-10.9634571163
 10
1.5284834735
 20
-10.966328498
 10
2.0266902123
 20
-10.9119118395
 10
2.500762255
 20
-10.8005264793
 10
2.9479175583
 20
-10.632826071
 10
3.3655320371
 20
-10.4097947474
 10
3.7511549636
 20
-10.1327413449
 10
4.1025233491
 20
-9.8032917231
 10
4.4175752241
 20
-9.4233792232
 10
4.6944617391
 20
-8.995233323
 10
4.9315580138
 20
-8.5213665528
 10
5.1274726731
 20
-8.0045597513
 10
5.2810560118
 20
-7.4478457462
 10
5.3914067417
 20
-6.8544915568
 10
5.4578772811
 20
-6.2279792213
 10
5.4800775542
 20
-5.5719853632
  0
LWPOLYLINE
  5
1B9
330
183
100
AcDbEntity
  8
0
  6
Continuous
 62
     7
370
    25
100
AcDbPolyline
 90
       18
 70
   128
 43
0.0
 10
11.5518669326
 20
-23.9299845873
 10
11.5529437252
 20
-23.9293628671
 10
12.1871302047
 20
-23.526275278
 10
12.7878684629
 20
-23.0688709894
 10
13.3537112687
 20
-22.5582519284
 10
13.8832954572
 20
-21.995648221
 10
14.3753452137
 20
-21.3824152288
 10
14.8286751472
 20
-20.7200302839
 10
15.2421931463
 20
-20.0100891295
 10
15.6149030098
 20
-19.2543020761
 10
15.945906847
 20
-18.4544898809
 10
16.2344072407
 20
-17.6125793616
 10
16.4797091682
 20
-16.7305987542
 10
16.6812216757
 20
-15.8106728275
 10
16.8384593018
 20
-14.8550177634
 10
16.9510432474
 20
-13.8659358187
 10
17.0187022878
 20
-12.8458097785
 10
17.0412734266
 20
-11.7970972158
  0
LWPOLYLINE
  5
1BB
330
183
100
AcDbEntity
  8
0
  6
Continuous
 62
     7
370
    25
100
AcDbPolyline
 90
       32
 70
   128
 43
0.0
 10
-9.2630988335
 20
3.3880936641
 10
-9.2408985604
 20
2.7064679162
 10
-9.1744280211
 20
2.0032103296
 10
-9.0640772911
 20
1.2824478993
 10
-8.9104939524
 20
0.5484103458
 10
-8.7145792932
 20
-0.1945947065
 10
-8.4774830185
 20
-0.9422070087
 10
-8.2005965035
 20
-1.6900392744
 10
-7.8855446284
 20
-2.4337029265
 10
-7.534176243
 20
-3.1688338511
 10
-7.1485533165
 20
-3.8911180075
 10
-6.7309388377
 20
-4.5963167451
 10
-6.2837835344
 20
-5.2802916773
 10
-5.8097114917
 20
-5.9390289673
 10
-5.3115047528
 20
-6.5686628826
 10
-4.7920869931
 20
-7.1654984812
 10
-4.2545063624
 20
-7.7260332943
 10
-3.7019175977
 20
-8.2469778809
 10
-3.1375635096
 20
-8.7252751309
 10
-2.5647559522
 20
-9.1581182059
 10
-1.9868563881
 20
-9.5429670107
 10
-1.4072561616
 20
-9.8775630993
 10
-0.8293565975
 20
-10.1599429289
 10
-0.2565490401
 20
-10.3884493825
 10
0.307805048
 20
-10.5617414932
 10
0.8603938127
 20
-10.678802314
 10
1.3979744434
 20
-10.7389448855
 10
1.9173922031
 20
-10.7418162672
 10
2.415598942
 20
-10.6873996087
 10
2.8896709847
 20
-10.5760142485
 10
3.336826288
 20
-10.4083138403
 10
3.4545203954
 20
-10.3525466265
  0
LINE
  5
1BC
330
183
100
AcDbEntity
  8
0
  6
Continuous
 62
     7
370
    25
100
AcDbLine
 10
14.4809124524
 20
-29.1670981672
 30
0.0
 11
16.2486794053
 21
-28.1465880274
 31
0.0
  0
LINE
  5
1BD
330
183
100
AcDbEntity
  8
0
  6
Continuous
 62
     7
370
    25
100
AcDbLine
 10
-16.2486794053
 20
28.1465880274
 30
0.0
 11
-18.0164463583
 21
27.1260778876
 31
0.0
  0
LINE
  5
1BE
330
183
100
AcDbEntity
  8
0
  6
Continuous
 62
     7
370
    25
100
AcDbLine
 10
-14.9459794823
 20
21.9706051189
 30
0.0
 11
-15.3348882119
 21
21.7460928881
 31
0.0
  0
LINE
  5
1BF
330
183
100
AcDbEntity
  8
0
  6
Continuous
 62
     7
370
    25
100
AcDbLine
 10
11.1629582029
 20
-24.154496818
 30
0.0
 11
11.5518669326
 21
-23.9299845873
 31
0.0
  0
LINE
  5
1C0
330
183
100
AcDbEntity
  8
0
  6
Continuous
 62
     7
370
    25
100
AcDbLine
 10
-23.6880771697
 20
13.2668972172
 30
0.0
 11
-24.7051818029
 21
13.8540592239
 31
0.0
  0
LINE
  5
1C1
330
183
100
AcDbEntity
  8
0
  6
Continuous
 62
     7
370
    25
100
AcDbLine
 10
-3.1819805153
 20
26.28317803
 30
0.0
 11
-3.1819805153
 21
25.1086631405
 31
0.0
  0
LINE
  5
1C2
330
183
100
AcDbEntity
  8
0
  6
Continuous
 62
     7
370
    25
100
AcDbLine
 10
-0.3535533906
 20
23.4758469169
 30
0.0
 11
-0.3535533906
 21
24.6503618063
 31
0.0
  0
LINE
  5
1C3
330
183
100
AcDbEntity
  8
0
  6
Continuous
 62
     7
370
    25
100
AcDbLine
 10
21.169647897
 20
-12.6289162559
 30
0.0
 11
20.1525432638
 21
-12.0417542493
 31
0.0
  0
LINE
  5
1C4
330
183
100
AcDbEntity
  8
0
  6
Continuous
 62
     7
370
    25
100
AcDbLine
 10
20.1525432638
 20
-15.3079174968
 30
0.0
 11
21.169647897
 21
-15.8950795035
 31
0.0
  0
LINE
  5
1C5
330
183
100
AcDbEntity
  8
0
  6
Continuous
 62
     7
370
    25
100
AcDbLine
 10
-0.3535533906
 20
-28.3241983095
 30
0.0
 11
-0.3535533906
 21
-27.1496834201
 31
0.0
  0
LINE
  5
1C6
330
183
100
AcDbEntity
  8
0
  6
Continuous
 62
     7
370
    25
100
AcDbLine
 10
-3.1819805153
 20
-25.5168671964
 30
0.0
 11
-3.1819805153
 21
-26.6913820859
 31
0.0
  0
LINE
  5
1C7
330
183
100
AcDbEntity
  8
0
  6
Continuous
 62
     7
370
    25
100
AcDbLine
 10
-24.7051818029
 20
10.5878959764
 30
0.0
 11
-23.6880771697
 21
10.0007339697
 31
0.0
  0
LINE
  5
1C8
330
183
100
AcDbEntity
  8
0
  6
Continuous
 62
     7
370
    25
100
AcDbLine
 10
1.4142135624
 20
25.6708719461
 30
0.0
 11
-0.3535533906
 21
24.6503618063
 31
0.0
  0
LINE
  5
1C9
330
183
100
AcDbEntity
  8
0
  6
Continuous
 62
     7
370
    25
100
AcDbLine
 10
21.169647897
 20
-12.6289162559
 30
0.0
 11
22.93741485
 21
-11.6084061161
 31
0.0
  0
LINE
  5
1CA
330
183
100
AcDbEntity
  8
0
  6
Continuous
 62
     7
370
    25
100
AcDbLine
 10
22.93741485
 20
-14.8745693637
 30
0.0
 11
21.169647897
 21
-15.8950795035
 31
0.0
  0
LINE
  5
1CB
330
183
100
AcDbEntity
  8
0
  6
Continuous
 62
     7
370
    25
100
AcDbLine
 10
21.9203102168
 20
-14.287407357
 30
0.0
 11
22.93741485
 21
-14.8745693637
 31
0.0
  0
LINE
  5
1CC
330
183
100
AcDbEntity
  8
0
  6
Continuous
 62
     7
370
    25
100
AcDbLine
 10
-3.1819805153
 20
26.28317803
 30
0.0
 11
-1.4142135624
 21
27.3036881698
 31
0.0
  0
LINE
  5
1CD
330
183
100
AcDbEntity
  8
0
  6
Continuous
 62
     7
370
    25
100
AcDbLine
 10
-1.4142135624
 20
27.3036881698
 30
0.0
 11
-1.4142135624
 21
26.1291732803
 31
0.0
  0
LINE
  5
1CE
330
183
100
AcDbEntity
  8
0
  6
Continuous
 62
     7
370
    25
100
AcDbLine
 10
-1.4142135624
 20
-25.6708719461
 30
0.0
 11
-3.1819805153
 21
-26.6913820859
 31
0.0
  0
LINE
  5
1CF
330
183
100
AcDbEntity
  8
0
  6
Continuous
 62
     7
370
    25
100
AcDbLine
 10
-1.4142135624
 20
-24.9561528532
 30
0.0
 11
-1.4142135624
 21
-25.6708719461
 31
0.0
  0
LINE
  5
1D0
330
183
100
AcDbEntity
  8
0
  6
Continuous
 62
     7
370
    25
100
AcDbLine
 10
-24.7051818029
 20
10.5878959764
 30
0.0
 11
-22.93741485
 21
11.6084061161
 31
0.0
  0
LINE
  5
1D1
330
183
100
AcDbEntity
  8
0
  6
Continuous
 62
     7
370
    25
100
AcDbLine
 10
-22.93741485
 20
11.6084061161
 30
0.0
 11
-22.3186966306
 21
11.2512276908
 31
0.0
  0
ARC
  5
1D2
330
183
100
AcDbEntity
  8
0
  6
Continuous
 62
     7
370
    25
100
AcDbCircle
 10
-23.1360123422
 20
10.6775530878
 30
0.0
 40
0.8734183948569563
100
AcDbArc
 50
230.7967147643
 51
9.2140369905
  0
ARC
  5
1D3
330
183
100
AcDbEntity
  8
0
  6
Continuous
 62
     7
370
    25
100
AcDbCircle
 10
-25.3442958101
 20
10.6776857771
 30
0.0
 40
3.073609615144139
100
AcDbArc
 50
2.6054784857
 51
57.39452166
  0
ARC
  5
1D4
330
183
100
AcDbEntity
  8
0
  6
Continuous
 62
     7
370
    25
100
AcDbCircle
 10
-29.4894765964
 20
-17.024123427
 30
0.0
 40
50.84943205695126
100
AcDbArc
 50
4.9585893429
 51
55.0414108027
  0
ARC
  5
1D5
330
183
100
AcDbEntity
  8
0
  6
Continuous
 62
     7
370
    25
100
AcDbCircle
 10
25.9539426905
 20
14.9831031474
 30
0.0
 40
50.84943205695108
100
AcDbArc
 50
184.9585893429
 51
235.0414108027
  0
ARC
  5
1D6
330
183
100
AcDbEntity
  8
0
  6
Continuous
 62
     7
370
    25
100
AcDbCircle
 10
7.1394055265
 20
10.0509134562
 30
0.0
 40
27.99910006256349
100
AcDbArc
 50
180.1021414258
 51
185.9483274085
  0
ARC
  5
1D7
330
183
100
AcDbEntity
  8
0
  6
Continuous
 62
     7
370
    25
100
AcDbCircle
 10
-27.7217096434
 20
-16.0036132872
 30
0.0
 40
50.84943205695127
100
AcDbArc
 50
4.9585893429
 51
55.0414108027
  0
ARC
  5
1D8
330
183
100
AcDbEntity
  8
0
  6
Continuous
 62
     7
370
    25
100
AcDbCircle
 10
-3.7757238386
 20
3.8824565775
 30
0.0
 40
5.509598807997278
100
AcDbArc
 50
128.9266407443
 51
185.1479345994
  0
ARC
  5
1D9
330
183
100
AcDbEntity
  8
0
  6
Continuous
 62
     7
370
    25
100
AcDbCircle
 10
23.6313641162
 20
-11.6519816624
 30
0.0
 40
3.142160727718692
100
AcDbArc
 50
191.3755407419
 51
237.0062938537
  0
ARC
  5
1DA
330
183
100
AcDbEntity
  8
0
  6
Continuous
 62
     7
370
    25
100
AcDbCircle
 10
1.7237824335
 20
26.2933192483
 30
0.0
 40
3.142286232840899
100
AcDbArc
 50
182.9943655869
 51
228.6169003522
  0
ARC
  5
1DB
330
183
100
AcDbEntity
  8
0
  6
Continuous
 62
     7
370
    25
100
AcDbCircle
 10
-1.3888498995
 20
4.7112517531
 30
0.0
 40
6.186734167512623
100
AcDbArc
 50
142.3907136004
 51
183.1825208025
  0
VIEWPORT
  5
2A3
330
183
100
AcDbEntity
  8
0
100
AcDbViewport
 10
0.0
 20
0.0
 30
0.0
 40
205.6
 41
156.0
 68
     1
 69
     1
 12
-0.5833692362
 22
-0.5693862585
 13
0.0
 23
0.0
 14
10.0
 24
10.0
 15
10.0
 25
10.0
 16
0.0
 26
0.0
 36
1.0
 17
0.0
 27
0.0
 37
0.0
 42
50.0
 43
0.0
 44
0.0
 45
60.1777773733
 50
0.0
 51
0.0
 72
   100
 90
   557152
  1

281
     0
 71
     1
 74
     0
110
0.0
120
0.0
130
0.0
111
1.0
121
0.0
131
0.0
112
0.0
122
1.0
132
0.0
 79
     0
146
0.0
  0
ENDBLK
  5
186
330
183
100
AcDbEntity
  8
0
100
AcDbBlockEnd
  0
BLOCK
  5
1DE
330
1DC
100
AcDbEntity
  8
0
100
AcDbBlockBegin
  2
*Paper_Space6
 70
     0
 10
0.0
 20
0.0
 30
0.0
  3
*Paper_Space6
  1

  0
LWPOLYLINE
  5
1E7
330
1DC
100
AcDbEntity
  8
0
  6
Continuous
 62
     7
370
    25
100
AcDbPolyline
 90
       33
 70
   128
 43
0.0
 10
-2.9355747157
 20
27.1470977538
 10
-4.2311833475
 20
27.3932409922
 10
-5.5205215123
 20
27.5810020249
 10
-6.8009509663
 20
27.7099966553
 10
-8.0698516947
 20
27.7799609345
 10
-9.324627273
 20
27.7907517016
 10
-10.5627101792
 20
27.7423468766
 10
-11.7815670483
 20
27.6348455054
 10
-12.9787038552
 20
27.4684675573
 10
-14.1516710187
 20
27.243553475
 10
-15.2980684134
 20
26.9605634774
 10
-16.4155502809
 20
26.6200766189
 10
-17.5018300298
 20
26.2227896036
 10
-18.5546849146
 20
25.7695153602
 10
-19.5719605836
 20
25.2611813784
 10
-20.5515754873
 20
24.6988278113
 10
-21.4915251377
 20
24.0836053466
 10
-22.3898862099
 20
23.4167728527
 10
-23.2448204774
 20
22.6996948021
 10
-24.0545785737
 20
21.9338384799
 10
-24.8175035719
 20
21.1207709813
 10
-25.5320343748
 20
20.2621560051
 10
-26.1967089094
 20
19.3597504492
 10
-26.8101671189
 20
18.4154008158
 10
-27.3711537449
 20
17.4310394332
 10
-27.8785208967
 20
16.4086805016
 10
-28.3312303996
 20
15.3504159717
 10
-28.7283559195
 20
14.2584112646
 10
-29.069084858
 20
13.1349008402
 10
-29.3527200156
 20
11.9821836256
 10
-29.5786810181
 20
10.8026183106
 10
-29.7465055041
 20
9.5986185218
 10
-29.8558500712
 20
8.3726478837
  0
LWPOLYLINE
  5
1E9
330
1DC
100
AcDbEntity
  8
0
  6
Continuous
 62
     7
370
    25
100
AcDbPolyline
 90
       18
 70
   128
 43
0.0
 10
-2.9355747157
 20
25.9141455941
 10
-2.9054569173
 20
25.5909520655
 10
-2.8161291476
 20
25.2623937603
 10
-2.6706333567
 20
24.9396593377
 10
-2.4739242293
 20
24.6337391312
 10
-2.2327004587
 20
24.3550508866
 10
-1.9551766311
 20
24.1130849978
 10
-1.6508034876
 20
23.916081323
 10
-1.3299460907
 20
23.7707485861
 10
-1.003530854
 20
23.682035919
 10
-0.682673457
 20
23.6529643252
 10
-0.3783003136
 20
23.6845238031
 10
-0.100776486
 20
23.7756396324
 10
0.1404472846
 20
23.9232089729
 10
0.3371564121
 20
24.1222065276
 10
0.482652203
 20
24.3658556736
 10
0.5719799726
 20
24.6458592313
 10
0.602097771
 20
24.9526820154
  0
LWPOLYLINE
  5
1EB
330
1DC
100
AcDbEntity
  8
0
  6
Continuous
 62
     7
370
    25
100
AcDbPolyline
 90
       33
 70
   128
 43
0.0
 10
27.5223731265
 20
-7.2215237149
 10
27.4130285595
 20
-5.936118056
 10
27.2452040735
 20
-4.6408960687
 10
27.019243071
 20
-3.3385080363
 10
26.7356079133
 20
-2.0316189051
 10
26.3948789748
 20
-0.7229028316
 10
25.997753455
 20
0.5849622894
 10
25.5450439521
 20
1.8893003042
 10
25.0376768003
 20
3.1874422764
 10
24.4766901742
 20
4.476731948
 10
23.8632319648
 20
5.7545311744
 10
23.1985574301
 20
7.0182253228
 10
22.4840266272
 20
8.2652286224
 10
21.721101629
 20
9.4929894549
 10
20.9113435327
 20
10.6989955763
 10
20.0564092652
 20
11.8807792566
 10
19.1580481931
 20
13.0359223303
 10
18.2180985426
 20
14.1620611436
 10
17.238483639
 20
15.2568913911
 10
16.22120797
 20
16.3181728314
 10
15.1683530852
 20
17.3437338703
 10
14.0820733362
 20
18.3314760048
 10
12.9645914687
 20
19.279378117
 10
11.8181940741
 20
20.1855006096
 10
10.6452269106
 20
21.0479893748
 10
9.4480901036
 20
21.8650795881
 10
8.2292332346
 20
22.6350993194
 10
6.9911503283
 20
23.3564729544
 10
5.7363747501
 20
24.0277244184
 10
4.4674740216
 20
24.6474801967
 10
3.1870445677
 20
25.214472145
 10
1.8977064029
 20
25.7275400843
 10
0.602097771
 20
26.185634175
  0
LWPOLYLINE
  5
1ED
330
1DC
100
AcDbEntity
  8
0
  6
Continuous
 62
     7
370
    25
100
AcDbPolyline
 90
       18
 70
   128
 43
0.0
 10
26.2502232997
 20
-6.8757806508
 10
25.9252004929
 20
-6.8166362207
 10
25.6112459479
 20
-6.8178854919
 10
25.3190510103
 20
-6.8794859221
 10
25.0585660282
 20
-6.9993397824
 10
24.8386615052
 20
-7.1733655934
 10
24.6668260262
 20
-7.3956371149
 10
24.5489112422
 20
-7.6585851567
 10
24.4889325999
 20
-7.9532553387
 10
24.4889325999
 20
-8.2696130211
 10
24.5489112422
 20
-8.5968850227
 10
24.6668260262
 20
-8.9239264879
 10
24.8386615052
 20
-9.2396004117
 10
25.0585660282
 20
-9.5331568975
 10
25.3190510103
 20
-9.7945992311
 10
25.6112459479
 20
-10.0150243073
 10
25.9252004929
 20
-10.1869258148
 10
26.2502232997
 20
-10.3044498536
  0
LWPOLYLINE
  5
1EF
330
1DC
100
AcDbEntity
  8
0
  6
Continuous
 62
     7
370
    25
100
AcDbPolyline
 90
       33
 70
   128
 43
0.0
 10
0.602097771
 20
-29.4246427878
 10
1.8977064029
 20
-29.6707860262
 10
3.1870445677
 20
-29.8585470589
 10
4.4674740216
 20
-29.9875416893
 10
5.7363747501
 20
-30.0575059685
 10
6.9911503283
 20
-30.0682967356
 10
8.2292332346
 20
-30.0198919106
 10
9.4480901036
 20
-29.9123905394
 10
10.6452269106
 20
-29.7460125914
 10
11.8181940741
 20
-29.521098509
 10
12.9645914687
 20
-29.2381085115
 10
14.0820733362
 20
-28.8976216529
 10
15.1683530852
 20
-28.5003346376
 10
16.22120797
 20
-28.0470603942
 10
17.238483639
 20
-27.5387264124
 10
18.2180985426
 20
-26.9763728453
 10
19.1580481931
 20
-26.3611503806
 10
20.0564092652
 20
-25.6943178867
 10
20.9113435327
 20
-24.9772398361
 10
21.721101629
 20
-24.2113835139
 10
22.4840266272
 20
-23.3983160153
 10
23.1985574301
 20
-22.5397010391
 10
23.8632319648
 20
-21.6372954832
 10
24.4766901742
 20
-20.6929458499
 10
25.0376768003
 20
-19.7085844672
 10
25.5450439521
 20
-18.6862255356
 10
25.997753455
 20
-17.6279610058
 10
26.3948789748
 20
-16.5359562987
 10
26.7356079133
 20
-15.4124458743
 10
27.019243071
 20
-14.2597286596
 10
27.2452040735
 20
-13.0801633446
 10
27.4130285595
 20
-11.8761635559
 10
27.5223731265
 20
-10.6501929177
  0
LWPOLYLINE
  5
1F1
330
1DC
100
AcDbEntity
  8
0
  6
Continuous
 62
     7
370
    25
100
AcDbPolyline
 90
       18
 70
   128
 43
0.0
 10
0.602097771
 20
-28.1916906281
 10
0.5719799726
 20
-27.8684970995
 10
0.482652203
 20
-27.5399387943
 10
0.3371564121
 20
-27.2172043717
 10
0.1404472846
 20
-26.9112841652
 10
-0.100776486
 20
-26.6325959206
 10
-0.3783003136
 20
-26.3906300319
 10
-0.682673457
 20
-26.1936263571
 10
-1.003530854
 20
-26.0482936201
 10
-1.3299460907
 20
-25.959580953
 10
-1.6508034876
 20
-25.9305093593
 10
-1.9551766311
 20
-25.9620688371
 10
-2.2327004587
 20
-26.0531846665
 10
-2.4739242293
 20
-26.2007540069
 10
-2.6706333567
 20
-26.3997515617
 10
-2.8161291476
 20
-26.6434007076
 10
-2.9054569173
 20
-26.9234042653
 10
-2.9355747157
 20
-27.2302270494
  0
LWPOLYLINE
  5
1F3
330
1DC
100
AcDbEntity
  8
0
  6
Continuous
 62
     7
370
    25
100
AcDbPolyline
 90
       33
 70
   128
 43
0.0
 10
-29.8558500712
 20
4.9439786808
 10
-29.7465055041
 20
3.658573022
 10
-29.5786810181
 20
2.3633510347
 10
-29.3527200156
 20
1.0609630023
 10
-29.069084858
 20
-0.2459261289
 10
-28.7283559195
 20
-1.5546422024
 10
-28.3312303996
 20
-2.8625073234
 10
-27.8785208967
 20
-4.1668453382
 10
-27.3711537449
 20
-5.4649873104
 10
-26.8101671189
 20
-6.754276982
 10
-26.1967089094
 20
-8.0320762084
 10
-25.5320343748
 20
-9.2957703569
 10
-24.8175035719
 20
-10.5427736564
 10
-24.0545785737
 20
-11.770534489
 10
-23.2448204774
 20
-12.9765406103
 10
-22.3898862099
 20
-14.1583242907
 10
-21.4915251377
 20
-15.3134673643
 10
-20.5515754873
 20
-16.4396061776
 10
-19.5719605836
 20
-17.5344364252
 10
-18.5546849146
 20
-18.5957178654
 10
-17.5018300298
 20
-19.6212789043
 10
-16.4155502809
 20
-20.6090210388
 10
-15.2980684134
 20
-21.556923151
 10
-14.1516710187
 20
-22.4630456437
 10
-12.9787038552
 20
-23.3255344088
 10
-11.7815670483
 20
-24.1426246221
 10
-10.5627101792
 20
-24.9126443534
 10
-9.324627273
 20
-25.6340179884
 10
-8.0698516947
 20
-26.3052694524
 10
-6.8009509663
 20
-26.9250252307
 10
-5.5205215123
 20
-27.492017179
 10
-4.2311833475
 20
-28.0050851183
 10
-2.9355747157
 20
-28.4631792091
  0
LWPOLYLINE
  5
1F5
330
1DC
100
AcDbEntity
  8
0
  6
Continuous
 62
     7
370
    25
100
AcDbPolyline
 90
       66
 70
   128
 43
0.0
 10
-25.0460277576
 20
5.3511066395
 10
-25.0181421643
 20
4.2253864066
 10
-24.9345505125
 20
3.087137932
 10
-24.7954480345
 20
1.9390196478
 10
-24.6011596104
 20
0.7837130373
 10
-24.3521390098
 20
-0.3760836272
 10
-24.048967832
 20
-1.537661587
 10
-23.6923541473
 20
-2.6983079229
 10
-23.2831308435
 20
-3.8553118916
 10
-22.8222536805
 20
-5.0059712567
 10
-22.3107990583
 20
-6.1475985999
 10
-21.7499615029
 20
-7.2775275978
 10
-21.1410508764
 20
-8.3931192487
 10
-20.4854893177
 20
-9.4917680367
 10
-19.7848079213
 20
-10.5709080166
 10
-19.0406431611
 20
-11.628018807
 10
-18.2547330682
 20
-12.6606314767
 10
-17.4289131722
 20
-13.6663343109
 10
-16.5651122136
 20
-14.6427784441
 10
-15.6653476397
 20
-15.5876833457
 10
-14.7317208923
 20
-16.4988421466
 10
-13.7664124999
 20
-17.3741267932
 10
-12.771676985
 20
-18.2114930175
 10
-11.7498375985
 20
-19.0089851121
 10
-10.7032808936
 20
-19.7647404971
 10
-9.634451152
 20
-20.4769940709
 10
-8.5458446751
 20
-21.1440823322
 10
-7.4400039537
 20
-21.7644472655
 10
-6.3195117301
 20
-22.3366399797
 10
-5.1869849659
 20
-22.8593240922
 10
-4.0450687296
 20
-23.3312788501
 10
-2.8964300197
 20
-23.7514019811
 10
-1.743751535
 20
-24.1187122683
 10
-0.5897254096
 20
-24.4323518414
 10
0.5629530751
 20
-24.6915881807
 10
1.711591785
 20
-24.8958158276
 10
2.8535080212
 20
-25.0445577991
 10
3.9860347855
 20
-25.1374667014
 10
5.1065270091
 20
-25.1743255415
 10
6.2123677304
 20
-25.1550482338
 10
7.3009742073
 20
-25.0796798013
 10
8.3698039489
 20
-24.9483962706
 10
9.4163606538
 20
-24.7615042603
 10
10.4382000403
 20
-24.5194402655
 10
11.4329355552
 20
-24.2227696378
 10
12.3982439476
 20
-23.8721852653
 10
13.3318706951
 20
-23.4685059539
 10
14.231635269
 20
-23.0126745154
 10
15.0954362275
 20
-22.5057555653
 10
15.9212561235
 20
-21.9489330362
 10
16.7071662164
 20
-21.3435074129
 10
17.4513309767
 20
-20.6908926951
 10
18.1520123731
 20
-19.9926130947
 10
18.8075739317
 20
-19.2502994761
 10
19.4164845582
 20
-18.465685547
 10
19.9773221137
 20
-17.6406038096
 10
20.4887767358
 20
-16.7769812807
 10
20.9496538988
 20
-15.8768349906
 10
21.3588772027
 20
-14.9422672727
 10
21.7154908874
 20
-13.9754608532
 10
22.0186620652
 20
-12.9786737533
 10
22.2676826657
 20
-11.9542340155
 10
22.4619710898
 20
-10.9045342662
 10
22.6010735679
 20
-9.8320261278
 10
22.6846652197
 20
-8.7392144929
 10
22.712550813
 20
-7.6286516735
  0
LWPOLYLINE
  5
1F6
330
1DC
100
AcDbEntity
  8
0
  6
Continuous
 62
     7
370
    25
100
AcDbPolyline
 90
       66
 70
   128
 43
0.0
 10
22.712550813
 20
-7.6286516735
 10
22.6846652197
 20
-6.5029314406
 10
22.6010735679
 20
-5.364682966
 10
22.4619710898
 20
-4.2165646818
 10
22.2676826657
 20
-3.0612580713
 10
22.0186620652
 20
-1.9014614068
 10
21.7154908874
 20
-0.739883447
 10
21.3588772027
 20
0.4207628889
 10
20.9496538988
 20
1.5777668576
 10
20.4887767358
 20
2.7284262227
 10
19.9773221137
 20
3.8700535659
 10
19.4164845582
 20
4.9999825638
 10
18.8075739317
 20
6.1155742147
 10
18.1520123731
 20
7.2142230027
 10
17.4513309767
 20
8.2933629826
 10
16.7071662164
 20
9.350473773
 10
15.9212561235
 20
10.3830864427
 10
15.0954362275
 20
11.3887892769
 10
14.231635269
 20
12.3652334101
 10
13.3318706951
 20
13.3101383117
 10
12.3982439476
 20
14.2212971126
 10
11.4329355552
 20
15.0965817591
 10
10.4382000403
 20
15.9339479835
 10
9.4163606538
 20
16.7314400781
 10
8.3698039489
 20
17.4871954631
 10
7.3009742073
 20
18.1994490369
 10
6.2123677304
 20
18.8665372982
 10
5.1065270091
 20
19.4869022314
 10
3.9860347855
 20
20.0590949456
 10
2.8535080212
 20
20.5817790582
 10
1.711591785
 20
21.053733816
 10
0.5629530751
 20
21.4738569471
 10
-0.5897254096
 20
21.8411672343
 10
-1.743751535
 20
22.1548068074
 10
-2.8964300197
 20
22.4140431466
 10
-4.0450687296
 20
22.6182707936
 10
-5.1869849659
 20
22.7670127651
 10
-6.3195117301
 20
22.8599216674
 10
-7.4400039537
 20
22.8967805075
 10
-8.5458446751
 20
22.8775031998
 10
-9.634451152
 20
22.8021347673
 10
-10.7032808936
 20
22.6708512365
 10
-11.7498375985
 20
22.4839592263
 10
-12.771676985
 20
22.2418952315
 10
-13.7664124999
 20
21.9452246038
 10
-14.7317208923
 20
21.5946402313
 10
-15.6653476397
 20
21.1909609199
 10
-16.5651122136
 20
20.7351294814
 10
-17.4289131722
 20
20.2282105312
 10
-18.2547330682
 20
19.6713880021
 10
-19.0406431611
 20
19.0659623789
 10
-19.7848079213
 20
18.4133476611
 10
-20.4854893177
 20
17.7150680607
 10
-21.1410508764
 20
16.972754442
 10
-21.7499615029
 20
16.1881405129
 10
-22.3107990583
 20
15.3630587756
 10
-22.8222536805
 20
14.4994362467
 10
-23.2831308435
 20
13.5992899566
 10
-23.6923541473
 20
12.6647222387
 10
-24.048967832
 20
11.6979158192
 10
-24.3521390098
 20
10.7011287193
 10
-24.6011596104
 20
9.6766889815
 10
-24.7954480345
 20
8.6269892322
 10
-24.9345505125
 20
7.5544810938
 10
-25.0181421643
 20
6.4616694588
 10
-25.0460277576
 20
5.3511066395
  0
LWPOLYLINE
  5
1F8
330
1DC
100
AcDbEntity
  8
0
  6
Continuous
 62
     7
370
    25
100
AcDbPolyline
 90
       33
 70
   128
 43
0.0
 10
28.6891115988
 20
-6.0827511979
 10
28.5797670318
 20
-4.797345539
 10
28.4119425458
 20
-3.5021235517
 10
28.1859815433
 20
-2.1997355193
 10
27.9023463857
 20
-0.8928463881
 10
27.5616174471
 20
0.4158696854
 10
27.1644919273
 20
1.7237348064
 10
26.7117824244
 20
3.0280728212
 10
26.2044152726
 20
4.3262147934
 10
25.6434286466
 20
5.615504465
 10
25.0299704371
 20
6.8933036914
 10
24.3652959024
 20
8.1569978398
 10
23.6507650995
 20
9.4040011394
 10
22.8878401014
 20
10.631761972
 10
22.078082005
 20
11.8377680933
 10
21.2231477375
 20
13.0195517736
 10
20.3247866654
 20
14.1746948473
 10
19.384837015
 20
15.3008336606
 10
18.4052221113
 20
16.3956639081
 10
17.3879464423
 20
17.4569453484
 10
16.3350915575
 20
18.4825063873
 10
15.2488118086
 20
19.4702485218
 10
14.1313299411
 20
20.418150634
 10
12.9849325464
 20
21.3242731266
 10
11.8119653829
 20
22.1867618918
 10
10.6148285759
 20
23.0038521051
 10
9.3959717069
 20
23.7738718364
 10
8.1578888006
 20
24.4952454714
 10
6.9031132224
 20
25.1664969354
 10
5.634212494
 20
25.7862527137
 10
4.35378304
 20
26.353244662
 10
3.0644448752
 20
26.8663126013
 10
1.7688362434
 20
27.324406692
  0
LWPOLYLINE
  5
1FB
330
1DC
100
AcDbEntity
  8
0
  6
Continuous
 62
     7
370
    25
100
AcDbPolyline
 90
       53
 70
   128
 43
0.0
 10
-24.9993582187
 20
5.3966575401
 10
-24.9714726254
 20
4.2709373073
 10
-24.8878809737
 20
3.1326888327
 10
-24.7487784956
 20
1.9845705484
 10
-24.5544900715
 20
0.829263938
 10
-24.3054694709
 20
-0.3305327265
 10
-24.0022982932
 20
-1.4921106863
 10
-23.6456846084
 20
-2.6527570222
 10
-23.2364613046
 20
-3.8097609909
 10
-22.7755841416
 20
-4.960420356
 10
-22.2641295194
 20
-6.1020476992
 10
-21.703291964
 20
-7.2319766971
 10
-21.0943813375
 20
-8.347568348
 10
-20.4388197788
 20
-9.446217136
 10
-19.7381383824
 20
-10.5253571159
 10
-18.9939736222
 20
-11.5824679063
 10
-18.2080635293
 20
-12.615080576
 10
-17.3822436333
 20
-13.6207834102
 10
-16.5184426747
 20
-14.5972275434
 10
-15.6186781008
 20
-15.542132445
 10
-14.6850513534
 20
-16.4532912459
 10
-13.719742961
 20
-17.3285758925
 10
-12.7250074461
 20
-18.1659421169
 10
-11.7031680596
 20
-18.9634342114
 10
-10.6566113547
 20
-19.7191895965
 10
-9.5877816131
 20
-20.4314431702
 10
-8.4991751362
 20
-21.0985314315
 10
-7.3933344148
 20
-21.7188963648
 10
-6.2728421912
 20
-22.291089079
 10
-5.140315427
 20
-22.8137731915
 10
-3.9983991907
 20
-23.2857279494
 10
-2.8497604808
 20
-23.7058510804
 10
-1.6970819961
 20
-24.0731613676
 10
-0.5430558707
 20
-24.3868009407
 10
0.609622614
 20
-24.64603728
 10
1.7582613239
 20
-24.8502649269
 10
2.9001775601
 20
-24.9990068985
 10
4.0327043244
 20
-25.0919158008
 10
5.153196548
 20
-25.1287746408
 10
6.2590372693
 20
-25.1094973331
 10
7.3476437462
 20
-25.0341289006
 10
8.4164734878
 20
-24.9028453699
 10
9.4630301927
 20
-24.7159533596
 10
10.4848695792
 20
-24.4738893648
 10
11.4796050941
 20
-24.1772187372
 10
12.4449134865
 20
-23.8266343646
 10
13.378540234
 20
-23.4229550532
 10
14.2783048079
 20
-22.9671236147
 10
15.1421057664
 20
-22.4602046646
 10
15.9679256624
 20
-21.9033821355
 10
16.7538357553
 20
-21.2979565122
 10
17.4980005156
 20
-20.6453417945
 10
17.7154826513
 20
-20.4380196171
  0
LWPOLYLINE
  5
1FD
330
1DC
100
AcDbEntity
  8
0
  6
Continuous
 62
     7
370
    25
100
AcDbPolyline
 90
       34
 70
   128
 43
0.0
 10
-10.5833428354
 20
1.4786934568
 10
-10.5555757083
 20
0.7690609209
 10
-10.4724372756
 20
0.0484997705
 10
-10.3344154267
 20
-0.6787614549
 10
-10.1423201286
 20
-1.4084548973
 10
-9.8972786729
 20
-2.1362984255
 10
-9.6007290604
 20
-2.8580207643
 10
-9.2544115621
 20
-3.5693865599
 10
-8.8603585068
 20
-4.266221235
 10
-8.4208823545
 20
-4.9444354866
 10
-7.9385621259
 20
-5.6000492839
 10
-7.4162282681
 20
-6.2292152244
 10
-6.8569460437
 20
-6.8282411121
 10
-6.2639975433
 20
-7.3936116251
 10
-5.6408624244
 20
-7.9220089442
 10
-4.9911974917
 20
-8.4103322239
 10
-4.3188152373
 20
-8.855715789
 10
-3.6276614677
 20
-9.2555459518
 10
-2.921792148
 20
-9.6074763497
 10
-2.2053496
 20
-9.9094417153
 10
-1.4825381935
 20
-10.1596699957
 10
-0.7575996733
 20
-10.356692752
 10
-0.0347882669
 20
-10.4993537761
 10
0.6816542811
 20
-10.5868158766
 10
1.3875236008
 20
-10.618565791
 10
2.0786773704
 20
-10.5944171981
 10
2.7510596248
 20
-10.5145118116
 10
3.4007245575
 20
-10.3793185481
 10
4.0238596764
 20
-10.1896307753
 10
4.6168081769
 20
-9.9465616565
 10
5.1760904012
 20
-9.651537618
 10
5.6984242591
 20
-9.3062899781
 10
6.1807444876
 20
-8.9128447873
 10
6.2234792971
 20
-8.8738705848
  0
LWPOLYLINE
  5
200
330
1DC
100
AcDbEntity
  8
0
  6
Continuous
 62
     7
370
    25
100
AcDbPolyline
 90
       20
 70
   128
 43
0.0
 10
-1.7688362434
 20
28.2858702708
 10
-3.0644448752
 20
28.5320135092
 10
-4.35378304
 20
28.7197745419
 10
-5.634212494
 20
28.8487691723
 10
-6.9031132224
 20
28.9187334515
 10
-8.1578888006
 20
28.9295242186
 10
-9.3959717069
 20
28.8811193936
 10
-10.6148285759
 20
28.7736180224
 10
-11.8119653829
 20
28.6072400744
 10
-12.9849325464
 20
28.382325992
 10
-14.1313299411
 20
28.0993359945
 10
-15.2488118086
 20
27.7588491359
 10
-16.3350915575
 20
27.3615621206
 10
-17.3879464423
 20
26.9082878772
 10
-18.4052221113
 20
26.3999538954
 10
-19.384837015
 20
25.8376003283
 10
-20.3247866654
 20
25.2223778636
 10
-21.2231477375
 20
24.5555453697
 10
-22.078082005
 20
23.8384673191
 10
-22.7005401561
 20
23.2580196195
  0
LWPOLYLINE
  5
207
330
1DC
100
AcDbEntity
  8
0
  6
Continuous
 62
     7
370
    25
100
AcDbPolyline
 90
       32
 70
   128
 43
0.0
 10
-9.4632739019
 20
2.5719150731
 10
-9.4355067749
 20
1.8622825372
 10
-9.3523683422
 20
1.1417213869
 10
-9.2143464932
 20
0.4144601614
 10
-9.0222511951
 20
-0.315233281
 10
-8.7772097395
 20
-1.0430768092
 10
-8.480660127
 20
-1.764799148
 10
-8.1343426287
 20
-2.4761649435
 10
-7.7402895734
 20
-3.1729996186
 10
-7.300813421
 20
-3.8512138703
 10
-6.8184931925
 20
-4.5068276676
 10
-6.2961593347
 20
-5.1359936081
 10
-5.7368771103
 20
-5.7350194958
 10
-5.1439286099
 20
-6.3003900087
 10
-4.520793491
 20
-6.8287873278
 10
-3.8711285582
 20
-7.3171106076
 10
-3.1987463039
 20
-7.7624941727
 10
-2.5075925342
 20
-8.1623243354
 10
-1.8017232145
 20
-8.5142547333
 10
-1.0852806666
 20
-8.8162200989
 10
-0.3624692601
 20
-9.0664483794
 10
0.3624692601
 20
-9.2634711356
 10
1.0852806666
 20
-9.4061321598
 10
1.8017232145
 20
-9.4935942602
 10
2.5075925342
 20
-9.5253441746
 10
3.1987463039
 20
-9.5011955818
 10
3.8711285582
 20
-9.4212901953
 10
4.520793491
 20
-9.2860969318
 10
5.1439286099
 20
-9.0964091589
 10
5.7368771103
 20
-8.8533400402
 10
6.2961593347
 20
-8.5583160016
 10
6.7326054914
 20
-8.2751012998
  0
LWPOLYLINE
  5
208
330
1DC
100
AcDbEntity
  8
0
  6
Continuous
 62
     7
370
    25
100
AcDbPolyline
 90
        3
 70
   128
 43
0.0
 10
-27.416961772
 20
5.7370081338
 10
-27.0718789397
 20
5.6761624729
 10
-26.8224633864
 20
5.6751628027
  0
LWPOLYLINE
  5
20E
330
1DC
100
AcDbEntity
  8
0
  6
Continuous
 62
     7
370
    25
100
AcDbPolyline
 90
       52
 70
   128
 43
0.0
 10
22.317011291
 20
-7.4629178255
 10
22.2887803015
 20
-6.3406762896
 10
22.2041553437
 20
-5.2057931758
 10
22.0633402868
 20
-4.0610025169
 10
21.8666743663
 20
-2.9090622139
 10
21.6146313679
 20
-1.7527473918
 10
21.3078184851
 20
-0.5948437144
 10
20.9469748571
 20
0.561859327
 10
20.5329697878
 20
1.7145751335
 10
20.0668006515
 20
2.8605267116
 10
19.5495904908
 20
3.9969533637
 10
18.98258531
 20
5.1211173385
 10
18.3671510743
 20
6.2303104264
 10
17.7047704188
 20
7.3218604841
 10
16.9970390764
 20
8.393137872
 10
16.2456620339
 20
9.4415617889
 10
15.4524494245
 20
10.46460649
 10
14.6193121668
 20
11.4598073707
 10
13.7482573614
 20
12.4247669051
 10
12.8413834556
 20
13.3571604211
 10
11.9008751882
 20
14.2547417011
 10
10.9289983258
 20
15.1153483932
 10
9.9280942051
 20
15.9369072203
 10
8.9005740917
 20
16.7174389755
 10
7.8489133715
 20
17.4550632892
 10
6.7756455873
 20
18.14800316
 10
5.6833563353
 20
18.794589235
 10
4.5746770359
 20
19.3932638316
 10
3.4522785947
 20
19.9425846904
 10
2.3188649677
 20
20.4412284493
 10
1.1771666478
 20
20.8879938318
 10
0.0299340862
 20
21.281804541
 10
-1.1200689334
 20
21.6217118523
 10
-2.2700719531
 20
21.9068968993
 10
-3.4173045147
 20
22.1366726462
 10
-4.5590028346
 20
22.3104855431
 10
-5.6924164615
 20
22.4279168596
 10
-6.8148149028
 20
22.4886836933
 10
-7.9234942022
 20
22.4926396515
 10
-9.0157834542
 20
22.4397752041
 10
-10.0890512383
 20
22.3302177061
 10
-11.1407119585
 20
22.1642310911
 10
-12.168232072
 20
21.9422152354
 10
-13.1691361927
 20
21.6647049947
 10
-14.141013055
 20
21.3323689155
 10
-15.0815213225
 20
20.9460076243
 10
-15.9883952282
 20
20.5065518996
 10
-16.8594500336
 20
20.0150604285
 10
-17.6925872914
 20
19.4727172571
 10
-18.4857999008
 20
18.8808289376
 10
-19.2371769432
 20
18.2408213808
 10
-19.6297401377
 20
17.8710097657
  0
LWPOLYLINE
  5
20F
330
1DC
100
AcDbEntity
  8
0
  6
Continuous
 62
     7
370
    25
100
AcDbPolyline
 90
       65
 70
   128
 43
0.0
 10
22.0603288271
 20
-7.7134477792
 10
22.0320978376
 20
-6.5912062433
 10
21.9474728798
 20
-5.4563231296
 10
21.8066578228
 20
-4.3115324707
 10
21.6099919024
 20
-3.1595921677
 10
21.357948904
 20
-2.0032773456
 10
21.0511360212
 20
-0.8453736682
 10
20.6902923932
 20
0.3113293733
 10
20.2762873239
 20
1.4640451797
 10
19.8101181876
 20
2.6099967579
 10
19.2929080268
 20
3.74642341
 10
18.725902846
 20
4.8705873847
 10
18.1104686104
 20
5.9797804726
 10
17.4480879549
 20
7.0713305304
 10
16.7403566125
 20
8.1426079182
 10
15.98897957
 20
9.1910318352
 10
15.1957669606
 20
10.2140765362
 10
14.3626297029
 20
11.209277417
 10
13.4915748975
 20
12.1742369514
 10
12.5847009917
 20
13.1066304674
 10
11.6441927243
 20
14.0042117474
 10
10.6723158619
 20
14.8648184394
 10
9.6714117412
 20
15.6863772666
 10
8.6438916278
 20
16.4669090217
 10
7.5922309076
 20
17.2045333355
 10
6.5189631234
 20
17.8974732063
 10
5.4266738714
 20
18.5440592812
 10
4.317994572
 20
19.1427338779
 10
3.1955961308
 20
19.6920547367
 10
2.0621825038
 20
20.1906984956
 10
0.9204841839
 20
20.6374638781
 10
-0.2267483777
 20
21.0312745872
 10
-1.3767513973
 20
21.3711818985
 10
-2.526754417
 20
21.6563669455
 10
-3.6739869786
 20
21.8861426924
 10
-4.8156852985
 20
22.0599555894
 10
-5.9490989254
 20
22.1773869059
 10
-7.0714973667
 20
22.2381537395
 10
-8.1801766661
 20
22.2421096978
 10
-9.2724659181
 20
22.1892452504
 10
-10.3457337023
 20
22.0796877524
 10
-11.3973944224
 20
21.9137011374
 10
-12.4249145359
 20
21.6916852817
 10
-13.4258186566
 20
21.414175041
 10
-14.3976955189
 20
21.0818389617
 10
-15.3382037864
 20
20.6954776706
 10
-16.2450776921
 20
20.2560219458
 10
-17.1161324975
 20
19.7645304747
 10
-17.9492697553
 20
19.2221873034
 10
-18.7424823647
 20
18.6302989838
 10
-19.4938594071
 20
17.990291427
 10
-20.2015907495
 20
17.3037064672
 10
-20.8639714051
 20
16.5721981476
 10
-21.4794056407
 20
15.7975287359
 10
-22.0464108215
 20
14.9815644785
 10
-22.5636209823
 20
14.1262711049
 10
-23.0297901185
 20
13.2337090916
 10
-23.4437951879
 20
12.3060286987
 10
-23.8046388159
 20
11.3454647896
 10
-24.1114516987
 20
10.3543314468
 10
-24.3634946971
 20
9.3350163974
 10
-24.5601606175
 20
8.2899752607
 10
-24.7009756745
 20
7.2217256322
 10
-24.7856006322
 20
6.1328410188
 10
-24.8138316218
 20
5.0259446391
  0
LWPOLYLINE
  5
210
330
1DC
100
AcDbEntity
  8
0
  6
Continuous
 62
     7
370
    25
100
AcDbPolyline
 90
       65
 70
   128
 43
0.0
 10
-24.8138316218
 20
5.0259446391
 10
-24.7856006322
 20
3.9037031032
 10
-24.7009756745
 20
2.7688199894
 10
-24.5601606175
 20
1.6240293305
 10
-24.3634946971
 20
0.4720890275
 10
-24.1114516987
 20
-0.6842257946
 10
-23.8046388159
 20
-1.842129472
 10
-23.4437951879
 20
-2.9988325134
 10
-23.0297901185
 20
-4.1515483199
 10
-22.5636209823
 20
-5.297499898
 10
-22.0464108215
 20
-6.4339265501
 10
-21.4794056407
 20
-7.5580905249
 10
-20.8639714051
 20
-8.6672836128
 10
-20.2015907495
 20
-9.7588336705
 10
-19.4938594071
 20
-10.8301110584
 10
-18.7424823647
 20
-11.8785349754
 10
-17.9492697553
 20
-12.9015796764
 10
-17.1161324975
 20
-13.8967805571
 10
-16.2450776921
 20
-14.8617400915
 10
-15.3382037864
 20
-15.7941336075
 10
-14.3976955189
 20
-16.6917148875
 10
-13.4258186566
 20
-17.5523215796
 10
-12.4249145359
 20
-18.3738804067
 10
-11.3973944224
 20
-19.1544121619
 10
-10.3457337023
 20
-19.8920364756
 10
-9.2724659181
 20
-20.5849763464
 10
-8.1801766661
 20
-21.2315624214
 10
-7.0714973667
 20
-21.830237018
 10
-5.9490989254
 20
-22.3795578768
 10
-4.8156852985
 20
-22.8782016357
 10
-3.6739869786
 20
-23.3249670182
 10
-2.526754417
 20
-23.7187777274
 10
-1.3767513973
 20
-24.0586850387
 10
-0.2267483777
 20
-24.3438700857
 10
0.9204841839
 20
-24.5736458326
 10
2.0621825038
 20
-24.7474587295
 10
3.1955961308
 20
-24.864890046
 10
4.317994572
 20
-24.9256568797
 10
5.4266738714
 20
-24.9296128379
 10
6.5189631234
 20
-24.8767483905
 10
7.5922309076
 20
-24.7671908925
 10
8.6438916278
 20
-24.6012042775
 10
9.6714117412
 20
-24.3791884218
 10
10.6723158619
 20
-24.1016781811
 10
11.6441927243
 20
-23.7693421019
 10
12.5847009917
 20
-23.3829808107
 10
13.4915748975
 20
-22.943525086
 10
14.3626297029
 20
-22.4520336149
 10
15.1957669606
 20
-21.9096904435
 10
15.98897957
 20
-21.317802124
 10
16.7403566125
 20
-20.6777945672
 10
17.4480879549
 20
-19.9912096073
 10
18.1104686104
 20
-19.2597012877
 10
18.725902846
 20
-18.485031876
 10
19.2929080268
 20
-17.6690676187
 10
19.8101181876
 20
-16.813774245
 10
20.2762873239
 20
-15.9212122317
 10
20.6902923932
 20
-14.9935318388
 10
21.0511360212
 20
-14.0329679297
 10
21.357948904
 20
-13.041834587
 10
21.6099919024
 20
-12.0225195376
 10
21.8066578228
 20
-10.9774784008
 10
21.9474728798
 20
-9.9092287723
 10
22.0320978376
 20
-8.820344159
 10
22.0603288271
 20
-7.7134477792
  0
LWPOLYLINE
  5
211
330
1DC
100
AcDbEntity
  8
0
  6
Continuous
 62
     7
370
    25
100
AcDbPolyline
 90
       42
 70
   128
 43
0.0
 10
8.0865225046
 20
-3.9156666432
 10
8.0587553775
 20
-3.2060341073
 10
7.9756169448
 20
-2.4854729569
 10
7.8375950959
 20
-1.7582117315
 10
7.6454997978
 20
-1.0285182891
 10
7.4004583422
 20
-0.3006747609
 10
7.1039087297
 20
0.4210475779
 10
6.7575912314
 20
1.1324133735
 10
6.363538176
 20
1.8292480486
 10
5.9240620237
 20
2.5074623002
 10
5.4417417952
 20
3.1630760975
 10
4.9194079373
 20
3.792242038
 10
4.360125713
 20
4.3912679257
 10
3.7671772125
 20
4.9566384387
 10
3.1440420936
 20
5.4850357578
 10
2.4943771609
 20
5.9733590375
 10
1.8219949065
 20
6.4187426026
 10
1.1308411369
 20
6.8185727654
 10
0.4249718172
 20
7.1705031633
 10
-0.2914707308
 20
7.4724685289
 10
-1.0142821372
 20
7.7226968093
 10
-1.7392206574
 20
7.9197195656
 10
-2.4620320639
 20
8.0623805897
 10
-3.1784746119
 20
8.1498426902
 10
-3.8843439316
 20
8.1815926045
 10
-4.5754977012
 20
8.1574440117
 10
-5.2478799556
 20
8.0775386252
 10
-5.8975448883
 20
7.9423453617
 10
-6.5206800072
 20
7.7526575889
 10
-7.1136285076
 20
7.5095884701
 10
-7.672910732
 20
7.2145644316
 10
-8.1952445899
 20
6.8693167917
 10
-8.6775648184
 20
6.4758716009
 10
-9.1170409707
 20
6.036537752
 10
-9.5110940261
 20
5.5538934307
 10
-9.8574115244
 20
5.0307709858
 10
-10.1539611369
 20
4.4702403078
 10
-10.3990025925
 20
3.8755908137
 10
-10.5910978906
 20
3.2503121431
 10
-10.7291197395
 20
2.5980736798
 10
-10.8122581722
 20
1.9227030186
 10
-10.8400252993
 20
1.228163503
  0
LWPOLYLINE
  5
212
330
1DC
100
AcDbEntity
  8
0
  6
Continuous
 62
     7
370
    25
100
AcDbPolyline
 90
       42
 70
   128
 43
0.0
 10
-10.8400252993
 20
1.228163503
 10
-10.8122581722
 20
0.5185309671
 10
-10.7291197395
 20
-0.2020301832
 10
-10.5910978906
 20
-0.9292914086
 10
-10.3990025925
 20
-1.6589848511
 10
-10.1539611369
 20
-2.3868283793
 10
-9.8574115244
 20
-3.108550718
 10
-9.5110940261
 20
-3.8199165136
 10
-9.1170409707
 20
-4.5167511887
 10
-8.6775648184
 20
-5.1949654404
 10
-8.1952445899
 20
-5.8505792377
 10
-7.672910732
 20
-6.4797451781
 10
-7.1136285076
 20
-7.0787710659
 10
-6.5206800072
 20
-7.6441415788
 10
-5.8975448883
 20
-8.1725388979
 10
-5.2478799556
 20
-8.6608621776
 10
-4.5754977012
 20
-9.1062457428
 10
-3.8843439316
 20
-9.5060759055
 10
-3.1784746119
 20
-9.8580063034
 10
-2.4620320639
 20
-10.159971669
 10
-1.7392206574
 20
-10.4101999495
 10
-1.0142821372
 20
-10.6072227057
 10
-0.2914707308
 20
-10.7498837299
 10
0.4249718172
 20
-10.8373458303
 10
1.1308411369
 20
-10.8690957447
 10
1.8219949065
 20
-10.8449471519
 10
2.4943771609
 20
-10.7650417654
 10
3.1440420936
 20
-10.6298485018
 10
3.7671772125
 20
-10.440160729
 10
4.360125713
 20
-10.1970916102
 10
4.9194079373
 20
-9.9020675717
 10
5.4417417952
 20
-9.5568199318
 10
5.9240620237
 20
-9.163374741
 10
6.363538176
 20
-8.7240408921
 10
6.7575912314
 20
-8.2413965708
 10
7.1039087297
 20
-7.7182741259
 10
7.4004583422
 20
-7.157743448
 10
7.6454997978
 20
-6.5630939538
 10
7.8375950959
 20
-5.9378152832
 10
7.9756169448
 20
-5.28557682
 10
8.0587553775
 20
-4.6102061588
 10
8.0865225046
 20
-3.9156666432
  0
LWPOLYLINE
  5
215
330
1DC
100
AcDbEntity
  8
0
  6
Continuous
 62
     7
370
    25
100
AcDbPolyline
 90
       34
 70
   128
 43
0.0
 10
-10.5833428354
 20
1.4786934568
 10
-10.5555757083
 20
0.7690609209
 10
-10.4724372756
 20
0.0484997705
 10
-10.3344154267
 20
-0.6787614549
 10
-10.1423201286
 20
-1.4084548973
 10
-9.8972786729
 20
-2.1362984255
 10
-9.6007290604
 20
-2.8580207643
 10
-9.2544115621
 20
-3.5693865599
 10
-8.8603585068
 20
-4.266221235
 10
-8.4208823545
 20
-4.9444354866
 10
-7.9385621259
 20
-5.6000492839
 10
-7.4162282681
 20
-6.2292152244
 10
-6.8569460437
 20
-6.8282411121
 10
-6.2639975433
 20
-7.3936116251
 10
-5.6408624244
 20
-7.9220089442
 10
-4.9911974917
 20
-8.4103322239
 10
-4.3188152373
 20
-8.855715789
 10
-3.6276614677
 20
-9.2555459518
 10
-2.921792148
 20
-9.6074763497
 10
-2.2053496
 20
-9.9094417153
 10
-1.4825381935
 20
-10.1596699957
 10
-0.7575996733
 20
-10.356692752
 10
-0.0347882669
 20
-10.4993537761
 10
0.6816542811
 20
-10.5868158766
 10
1.3875236008
 20
-10.618565791
 10
2.0786773704
 20
-10.5944171981
 10
2.7510596248
 20
-10.5145118116
 10
3.4007245575
 20
-10.3793185481
 10
4.0238596764
 20
-10.1896307753
 10
4.6168081769
 20
-9.9465616565
 10
5.1760904012
 20
-9.651537618
 10
5.6984242591
 20
-9.3062899781
 10
6.1807444876
 20
-8.9128447873
 10
6.2234792971
 20
-8.8738705848
  0
LINE
  5
216
330
1DC
100
AcDbEntity
  8
0
  6
Continuous
 62
     7
370
    25
100
AcDbLine
 10
-22.7005401561
 20
23.2580196195
 30
0.0
 11
-23.8672786285
 21
22.1192471025
 31
0.0
  0
LINE
  5
217
330
1DC
100
AcDbEntity
  8
0
  6
Continuous
 62
     7
370
    25
100
AcDbLine
 10
21.5338016838
 20
-24.3967921365
 30
0.0
 11
22.7005401561
 21
-23.2580196195
 31
0.0
  0
LINE
  5
218
330
1DC
100
AcDbEntity
  8
0
  6
Continuous
 62
     7
370
    25
100
AcDbLine
 10
-19.6297401377
 20
17.8710097657
 30
0.0
 11
-19.8864226016
 21
17.6204798119
 31
0.0
  0
LINE
  5
219
330
1DC
100
AcDbEntity
  8
0
  6
Continuous
 62
     7
370
    25
100
AcDbLine
 10
17.1329198069
 20
-20.3079829521
 30
0.0
 11
17.3896022708
 21
-20.0574529984
 31
0.0
  0
LINE
  5
21A
330
1DC
100
AcDbEntity
  8
0
  6
Continuous
 62
     7
370
    25
100
AcDbLine
 10
-28.5837002443
 20
8.0269048196
 30
0.0
 11
-29.8558500712
 21
8.3726478837
 31
0.0
  0
LINE
  5
21B
330
1DC
100
AcDbEntity
  8
0
  6
Continuous
 62
     7
370
    25
100
AcDbLine
 10
-2.9355747157
 20
27.1470977538
 30
0.0
 11
-2.9355747157
 21
25.9141455941
 31
0.0
  0
LINE
  5
21C
330
1DC
100
AcDbEntity
  8
0
  6
Continuous
 62
     7
370
    25
100
AcDbLine
 10
0.602097771
 20
24.9526820154
 30
0.0
 11
0.602097771
 21
26.185634175
 31
0.0
  0
LINE
  5
21D
330
1DC
100
AcDbEntity
  8
0
  6
Continuous
 62
     7
370
    25
100
AcDbLine
 10
27.5223731265
 20
-7.2215237149
 30
0.0
 11
26.2502232997
 21
-6.8757806508
 31
0.0
  0
LINE
  5
21E
330
1DC
100
AcDbEntity
  8
0
  6
Continuous
 62
     7
370
    25
100
AcDbLine
 10
26.2502232997
 20
-10.3044498536
 30
0.0
 11
27.5223731265
 21
-10.6501929177
 31
0.0
  0
LINE
  5
21F
330
1DC
100
AcDbEntity
  8
0
  6
Continuous
 62
     7
370
    25
100
AcDbLine
 10
0.602097771
 20
-29.4246427878
 30
0.0
 11
0.602097771
 21
-28.1916906281
 31
0.0
  0
LINE
  5
220
330
1DC
100
AcDbEntity
  8
0
  6
Continuous
 62
     7
370
    25
100
AcDbLine
 10
-2.9355747157
 20
-27.2302270494
 30
0.0
 11
-2.9355747157
 21
-28.4631792091
 31
0.0
  0
LINE
  5
221
330
1DC
100
AcDbEntity
  8
0
  6
Continuous
 62
     7
370
    25
100
AcDbLine
 10
-29.8558500712
 20
4.9439786808
 30
0.0
 11
-28.5837002443
 21
4.5982356168
 31
0.0
  0
LINE
  5
222
330
1DC
100
AcDbEntity
  8
0
  6
Continuous
 62
     7
370
    25
100
AcDbLine
 10
1.7688362434
 20
27.324406692
 30
0.0
 11
0.602097771
 21
26.185634175
 31
0.0
  0
LINE
  5
223
330
1DC
100
AcDbEntity
  8
0
  6
Continuous
 62
     7
370
    25
100
AcDbLine
 10
27.5223731265
 20
-7.2215237149
 30
0.0
 11
28.6891115988
 21
-6.0827511979
 31
0.0
  0
LINE
  5
224
330
1DC
100
AcDbEntity
  8
0
  6
Continuous
 62
     7
370
    25
100
AcDbLine
 10
-2.9355747157
 20
27.1470977538
 30
0.0
 11
-1.7688362434
 21
28.2858702708
 31
0.0
  0
LINE
  5
225
330
1DC
100
AcDbEntity
  8
0
  6
Continuous
 62
     7
370
    25
100
AcDbLine
 10
-1.7688362434
 20
28.2858702708
 30
0.0
 11
-1.7688362434
 21
27.0529181111
 31
0.0
  0
LINE
  5
226
330
1DC
100
AcDbEntity
  8
0
  6
Continuous
 62
     7
370
    25
100
AcDbLine
 10
28.6891115988
 20
-9.5114204007
 30
0.0
 11
27.5223731265
 21
-10.6501929177
 31
0.0
  0
LINE
  5
227
330
1DC
100
AcDbEntity
  8
0
  6
Continuous
 62
     7
370
    25
100
AcDbLine
 10
27.416961772
 20
-9.1656773366
 30
0.0
 11
28.6891115988
 21
-9.5114204007
 31
0.0
  0
LINE
  5
228
330
1DC
100
AcDbEntity
  8
0
  6
Continuous
 62
     7
370
    25
100
AcDbLine
 10
-29.8558500712
 20
4.9439786808
 30
0.0
 11
-28.6891115988
 21
6.0827511979
 31
0.0
  0
LINE
  5
229
330
1DC
100
AcDbEntity
  8
0
  6
Continuous
 62
     7
370
    25
100
AcDbLine
 10
-28.6891115988
 20
6.0827511979
 30
0.0
 11
-27.416961772
 21
5.7370081338
 31
0.0
  0
LINE
  5
22A
330
1DC
100
AcDbEntity
  8
0
  6
Continuous
 62
     7
370
    25
100
AcDbLine
 10
-1.761236858
 20
-25.9347789063
 30
0.0
 11
-1.7688362434
 21
-26.0914545324
 31
0.0
  0
LINE
  5
22B
330
1DC
100
AcDbEntity
  8
0
  6
Continuous
 62
     7
370
    25
100
AcDbLine
 10
-1.7688362434
 20
-27.324406692
 30
0.0
 11
-2.9355747157
 21
-28.4631792091
 31
0.0
  0
LINE
  5
22C
330
1DC
100
AcDbEntity
  8
0
  6
Continuous
 62
     7
370
    25
100
AcDbLine
 10
-1.7688362434
 20
-26.0914545324
 30
0.0
 11
-1.7688362434
 21
-27.324406692
 31
0.0
  0
ARC
  5
22D
330
1DC
100
AcDbEntity
  8
0
  6
Continuous
 62
     7
370
    25
100
AcDbCircle
 10
-28.1148505367
 20
5.8109115338
 30
0.0
 40
1.300154963088901
100
AcDbArc
 50
248.862298024
 51
0.9222550965
  0
ARC
  5
22E
330
1DC
100
AcDbEntity
  8
0
  6
Continuous
 62
     7
370
    25
100
AcDbCircle
 10
-29.2396083906
 20
5.6881404064
 30
0.0
 40
2.428998657233027
100
AcDbArc
 50
3.391562315
 51
74.3338098233
  0
ARC
  5
22F
330
1DC
100
AcDbEntity
  8
0
  6
Continuous
 62
     7
370
    25
100
AcDbCircle
 10
-7.3985330891
 20
5.9097801093
 30
0.0
 40
17.60830315547512
100
AcDbArc
 50
135.7075590017
 51
181.6698894798
  0
ARC
  5
230
330
1DC
100
AcDbEntity
  8
0
  6
Continuous
 62
     7
370
    25
100
AcDbCircle
 10
-3.5757273835
 20
1.6747055214
 30
0.0
 40
7.010356271354755
100
AcDbArc
 50
137.2103999625
 51
181.6022192648
  0
ARC
  5
231
330
1DC
100
AcDbEntity
  8
0
  6
Continuous
 62
     7
370
    25
100
AcDbCircle
 10
0.577204826
 20
27.1437411388
 30
0.0
 40
2.347798441416487
100
AcDbArc
 50
182.2170024656
 51
270.4220366288
  0
ARC
  5
232
330
1DC
100
AcDbEntity
  8
0
  6
Continuous
 62
     7
370
    25
100
AcDbCircle
 10
28.0135768933
 20
-6.8834952796
 30
0.0
 40
2.35887781458275
100
AcDbArc
 50
178.3101837901
 51
255.349435303
  0
ARC
  5
233
330
1DC
100
AcDbEntity
  8
0
  6
Continuous
 62
     7
370
    25
100
AcDbCircle
 10
7.9713697283
 20
-8.6636697582
 30
0.0
 40
20.73507919841096
100
AcDbArc
 50
315.2634265924
 51
357.6568174304
  0
ARC
  5
234
330
1DC
100
AcDbEntity
  8
0
  6
Continuous
 62
     7
370
    25
100
AcDbCircle
 10
-2.3000450325
 20
2.7371804167
 30
0.0
 40
7.16513506296086
100
AcDbArc
 50
144.1717130997
 51
181.3216563816
  0
ARC
  5
235
330
1DC
100
AcDbEntity
  8
0
  6
Continuous
 62
     7
370
    25
100
AcDbCircle
 10
5.0621333915
 20
-7.9733770718
 30
0.0
 40
17.26242682737156
100
AcDbArc
 50
315.5712431145
 51
1.6945140313
  0
VIEWPORT
  5
2A5
330
1DC
100
AcDbEntity
  8
0
100
AcDbViewport
 10
0.0
 20
0.0
 30
0.0
 40
205.6
 41
156.0
 68
     1
 69
     1
 12
-0.5833692362
 22
-0.5693862585
 13
0.0
 23
0.0
 14
10.0
 24
10.0
 15
10.0
 25
10.0
 16
0.0
 26
0.0
 36
1.0
 17
0.0
 27
0.0
 37
0.0
 42
50.0
 43
0.0
 44
0.0
 45
60.1777773733
 50
0.0
 51
0.0
 72
   100
 90
   557152
  1

281
     0
 71
     1
 74
     0
110
0.0
120
0.0
130
0.0
111
1.0
121
0.0
131
0.0
112
0.0
122
1.0
132
0.0
 79
     0
146
0.0
  0
ENDBLK
  5
1DF
330
1DC
100
AcDbEntity
  8
0
100
AcDbBlockEnd
  0
BLOCK
  5
238
330
236
100
AcDbEntity
  8
0
100
AcDbBlockBegin
  2
*Paper_Space7
 70
     0
 10
0.0
 20
0.0
 30
0.0
  3
*Paper_Space7
  1

  0
LWPOLYLINE
  5
243
330
236
100
AcDbEntity
  8
0
  6
Continuous
 62
     7
370
    25
100
AcDbPolyline
 90
       18
 70
   128
 43
0.0
 10
-2.7547121697
 20
28.6832705948
 10
-2.7228577561
 20
28.3327759023
 10
-2.6283792789
 20
27.9861903284
 10
-2.4744940895
 20
27.6553164292
 10
-2.2664425633
 20
27.3514217184
 10
-2.0113096457
 20
27.0848549659
 10
-1.717783582
 20
26.8646937828
 10
-1.3958600504
 20
26.6984354941
 10
-1.0565017707
 20
26.5917418265
 10
-0.7112651819
 20
26.5482461047
 10
-0.3719069021
 20
26.5694295235
 10
-0.0499833705
 20
26.6545707069
 10
0.2435426931
 20
26.8007702741
 10
0.4986756108
 20
27.0030495741
 10
0.7067271369
 20
27.254520228
 10
0.8606123263
 20
27.5466187042
 10
0.9550908035
 20
27.8693979395
 10
0.9869452172
 20
28.2118660742
  0
LWPOLYLINE
  5
247
330
236
100
AcDbEntity
  8
0
  6
Continuous
 62
     7
370
    25
100
AcDbPolyline
 90
       18
 70
   128
 43
0.0
 10
28.1139612722
 20
-2.5472789066
 10
27.7701974018
 20
-2.5360749611
 10
27.4381399978
 20
-2.5894650147
 10
27.1290968767
 20
-2.7056309334
 10
26.8535921314
 20
-2.8806168259
 10
26.6210077455
 20
-3.1084637577
 10
26.4392641014
 20
-3.3814126747
 10
26.3145502608
 20
-3.690168629
 10
26.2511132041
 20
-4.0242173067
 10
26.2511132041
 20
-4.372183081
 10
26.3145502608
 20
-4.7222163945
 10
26.4392641014
 20
-5.0623972828
 10
26.6210077455
 20
-5.3811412936
 10
26.8535921314
 20
-5.6675939819
 10
27.1290968767
 20
-5.912000545
 10
27.4381399978
 20
-6.1060380105
 10
27.7701974018
 20
-6.2430986652
 10
28.1139612722
 20
-6.3185150731
  0
LWPOLYLINE
  5
24B
330
236
100
AcDbEntity
  8
0
  6
Continuous
 62
     7
370
    25
100
AcDbPolyline
 90
       18
 70
   128
 43
0.0
 10
0.9869452172
 20
-30.2422945056
 10
0.9550908035
 20
-29.8917998131
 10
0.8606123263
 20
-29.5452142393
 10
0.7067271369
 20
-29.21434034
 10
0.4986756108
 20
-28.9104456292
 10
0.2435426931
 20
-28.6438788768
 10
-0.0499833705
 20
-28.4237176937
 10
-0.3719069021
 20
-28.257459405
 10
-0.7112651819
 20
-28.1507657373
 10
-1.0565017707
 20
-28.1072700156
 10
-1.3958600504
 20
-28.1284534343
 10
-1.717783582
 20
-28.2135946178
 10
-2.0113096457
 20
-28.3597941849
 10
-2.2664425633
 20
-28.5620734849
 10
-2.4744940895
 20
-28.8135441388
 10
-2.6283792789
 20
-29.105642615
 10
-2.7228577561
 20
-29.4284218504
 10
-2.7547121697
 20
-29.770889985
  0
LWPOLYLINE
  5
24F
330
236
100
AcDbEntity
  8
0
  6
Continuous
 62
     7
370
    25
100
AcDbPolyline
 90
       66
 70
   128
 43
0.0
 10
-26.1400708378
 20
2.4024685584
 10
-26.1105773399
 20
1.1688948687
 10
-26.0221657296
 20
-0.0692294155
 10
-25.8750424963
 20
-1.3090125974
 10
-25.6695512531
 20
-2.5475591061
 10
-25.4061719344
 20
-3.7819762587
 10
-25.0855196747
 20
-5.0093810168
 10
-24.7083433723
 20
-6.2269067197
 10
-24.2755239399
 20
-7.4317097798
 10
-23.7880722473
 20
-8.6209763236
 10
-23.2471267606
 20
-9.791928764
 10
-22.653950883
 20
-10.9418322874
 10
-22.0099300042
 20
-12.0680012408
 10
-21.3165682649
 20
-13.1678054044
 10
-20.5754850435
 20
-14.2386761346
 10
-19.7884111742
 20
-15.2781123632
 10
-18.9571849046
 20
-16.2836864388
 10
-18.083747602
 20
-17.2530497966
 10
-17.1701392198
 20
-18.1839384433
 10
-16.2184935327
 20
-19.0741782456
 10
-15.2310331532
 20
-19.921690007
 10
-14.2100643409
 20
-20.7244943247
 10
-13.1579716157
 20
-21.4807162119
 10
-12.077212189
 20
-22.1885894773
 10
-10.9703102244
 20
-22.8464608502
 10
-9.8398509427
 20
-23.4527938414
 10
-8.6884745841
 20
-24.0061723323
 10
-7.5188702413
 20
-24.5053038816
 10
-6.3337695795
 20
-24.9490227445
 10
-5.1359404562
 20
-25.3362925951
 10
-3.9281804567
 20
-25.6662089467
 10
-2.7133103607
 20
-25.9380012643
 10
-1.4941675533
 20
-26.1510347643
 10
-0.2735993992
 20
-26.3048118973
 10
0.9455434081
 20
-26.3989735095
 10
2.1604135042
 20
-26.4332996822
 10
3.3681735036
 20
-26.407710245
 10
4.5660026269
 20
-26.3222649632
 10
5.7511032888
 20
-26.1771633982
 10
6.9207076316
 20
-25.9727444414
 10
8.0720839902
 20
-25.7094855228
 10
9.2025432718
 20
-25.3880014958
 10
10.3094452364
 20
-25.0090432013
 10
11.3902046632
 20
-24.5734957139
 10
12.4422973884
 20
-24.0823762748
 10
13.4632662007
 20
-23.5368319164
 10
14.4507265801
 20
-22.9381367828
 10
15.4023722672
 20
-22.2876891542
 10
16.3159806494
 20
-21.5870081811
 10
17.189417952
 20
-20.8377303365
 10
18.0206442217
 20
-20.0416055934
 10
18.8077180909
 20
-19.2004933382
 10
19.5488013123
 20
-18.3163580273
 10
20.2421630516
 20
-17.3912645999
 10
20.8861839304
 20
-16.4273736545
 10
21.479359808
 20
-15.426936403
 10
22.0203052947
 20
-14.3922894131
 10
22.5077569873
 20
-13.3258491506
 10
22.9405764197
 20
-12.2301063363
 10
23.3177527221
 20
-11.1076201282
 10
23.6384049818
 20
-9.961012145
 10
23.9017843005
 20
-8.7929603426
 10
24.1072755437
 20
-7.6061927602
 10
24.254398777
 20
-6.4034811485
 10
24.3428103874
 20
-5.1876344961
 10
24.3723038853
 20
-3.9614924693
  0
LWPOLYLINE
  5
250
330
236
100
AcDbEntity
  8
0
  6
Continuous
 62
     7
370
    25
100
AcDbPolyline
 90
       66
 70
   128
 43
0.0
 10
24.3723038853
 20
-3.9614924693
 10
24.3428103874
 20
-2.7279187795
 10
24.254398777
 20
-1.4897944954
 10
24.1072755437
 20
-0.2500113134
 10
23.9017843005
 20
0.9885351952
 10
23.6384049818
 20
2.2229523479
 10
23.3177527221
 20
3.450357106
 10
22.9405764197
 20
4.6678828089
 10
22.5077569873
 20
5.872685869
 10
22.0203052947
 20
7.0619524128
 10
21.479359808
 20
8.2329048532
 10
20.8861839304
 20
9.3828083766
 10
20.2421630516
 20
10.5089773299
 10
19.5488013123
 20
11.6087814935
 10
18.8077180909
 20
12.6796522238
 10
18.0206442217
 20
13.7190884524
 10
17.189417952
 20
14.724662528
 10
16.3159806494
 20
15.6940258857
 10
15.4023722672
 20
16.6249145325
 10
14.4507265801
 20
17.5151543347
 10
13.4632662007
 20
18.3626660962
 10
12.4422973884
 20
19.1654704139
 10
11.3902046632
 20
19.921692301
 10
10.3094452364
 20
20.6295655665
 10
9.2025432718
 20
21.2874369393
 10
8.0720839902
 20
21.8937699306
 10
6.9207076316
 20
22.4471484215
 10
5.7511032888
 20
22.9462799708
 10
4.5660026269
 20
23.3899988337
 10
3.3681735036
 20
23.7772686843
 10
2.1604135042
 20
24.1071850358
 10
0.9455434081
 20
24.3789773534
 10
-0.2735993992
 20
24.5920108535
 10
-1.4941675533
 20
24.7457879865
 10
-2.7133103607
 20
24.8399495987
 10
-3.9281804567
 20
24.8742757714
 10
-5.1359404562
 20
24.8486863342
 10
-6.3337695795
 20
24.7632410523
 10
-7.5188702413
 20
24.6181394873
 10
-8.6884745841
 20
24.4137205306
 10
-9.8398509427
 20
24.150461612
 10
-10.9703102244
 20
23.828977585
 10
-12.077212189
 20
23.4500192905
 10
-13.1579716157
 20
23.014471803
 10
-14.2100643409
 20
22.523352364
 10
-15.2310331532
 20
21.9778080056
 10
-16.2184935327
 20
21.379112872
 10
-17.1701392198
 20
20.7286652434
 10
-18.083747602
 20
20.0279842703
 10
-18.9571849046
 20
19.2787064257
 10
-19.7884111742
 20
18.4825816826
 10
-20.5754850435
 20
17.6414694273
 10
-21.3165682649
 20
16.7573341165
 10
-22.0099300042
 20
15.8322406891
 10
-22.653950883
 20
14.8683497437
 10
-23.2471267606
 20
13.8679124922
 10
-23.7880722473
 20
12.8332655022
 10
-24.2755239399
 20
11.7668252398
 10
-24.7083433723
 20
10.6710824255
 10
-25.0855196747
 20
9.5485962174
 10
-25.4061719344
 20
8.4019882341
 10
-25.6695512531
 20
7.2339364317
 10
-25.8750424963
 20
6.0471688494
 10
-26.0221657296
 20
4.8444572376
 10
-26.1105773399
 20
3.6286105852
 10
-26.1400708378
 20
2.4024685584
  0
LWPOLYLINE
  5
255
330
236
100
AcDbEntity
  8
0
  6
Continuous
 62
     7
370
    25
100
AcDbPolyline
 90
       50
 70
   128
 43
0.0
 10
-26.1047154988
 20
2.4336490367
 10
-26.0752220009
 20
1.2000753469
 10
-25.9868103905
 20
-0.0380489373
 10
-25.8396871572
 20
-1.2778321192
 10
-25.634195914
 20
-2.5163786279
 10
-25.3708165953
 20
-3.7507957805
 10
-25.0501643356
 20
-4.9782005386
 10
-24.6729880332
 20
-6.1957262415
 10
-24.2401686008
 20
-7.4005293016
 10
-23.7527169083
 20
-8.5897958454
 10
-23.2117714215
 20
-9.7607482858
 10
-22.6185955439
 20
-10.9106518092
 10
-21.9745746652
 20
-12.0368207626
 10
-21.2812129258
 20
-13.1366249262
 10
-20.5401297044
 20
-14.2074956564
 10
-19.7530558352
 20
-15.246931885
 10
-18.9218295655
 20
-16.2525059606
 10
-18.0483922629
 20
-17.2218693183
 10
-17.1347838807
 20
-18.1527579651
 10
-16.1831381936
 20
-19.0429977674
 10
-15.1956778142
 20
-19.8905095288
 10
-14.1747090019
 20
-20.6933138465
 10
-13.1226162767
 20
-21.4495357336
 10
-12.0418568499
 20
-22.1574089991
 10
-10.9349548853
 20
-22.815280372
 10
-9.8044956037
 20
-23.4216133632
 10
-8.6531192451
 20
-23.9749918541
 10
-7.4835149023
 20
-24.4741234034
 10
-6.2984142405
 20
-24.9178422663
 10
-5.1005851171
 20
-25.3051121169
 10
-3.8928251177
 20
-25.6350284685
 10
-2.6779550216
 20
-25.906820786
 10
-1.4588122143
 20
-26.1198542861
 10
-0.2382440602
 20
-26.2736314191
 10
0.9808987472
 20
-26.3677930313
 10
2.1957688432
 20
-26.402119204
 10
3.4035288427
 20
-26.3765297668
 10
4.601357966
 20
-26.2910844849
 10
5.7864586278
 20
-26.1459829199
 10
6.9560629706
 20
-25.9415639632
 10
8.1074393292
 20
-25.6783050446
 10
9.2378986109
 20
-25.3568210176
 10
10.3448005755
 20
-24.9778627231
 10
11.4255600022
 20
-24.5423152356
 10
12.4776527274
 20
-24.0511957966
 10
13.4986215397
 20
-23.5056514382
 10
14.4860819191
 20
-22.9069563046
 10
15.4377276063
 20
-22.256508676
 10
16.3513359885
 20
-21.5558277029
 10
17.0102932127
 20
-20.998331477
  0
LWPOLYLINE
  5
257
330
236
100
AcDbEntity
  8
0
  6
Continuous
 62
     7
370
    25
100
AcDbPolyline
 90
       32
 70
   128
 43
0.0
 10
-10.8574616472
 20
0.5126756153
 10
-10.8280934463
 20
-0.2632576366
 10
-10.740161188
 20
-1.0420374947
 10
-10.5941808938
 20
-1.8190937691
 10
-10.3910092339
 20
-2.5898663847
 10
-10.1318385006
 20
-3.3498321411
 10
-9.8181896108
 20
-4.0945312572
 10
-9.4519031807
 20
-4.8195935424
 10
-9.035128725
 20
-5.520764043
 10
-8.5703120417
 20
-6.1939280116
 10
-8.0601808601
 20
-6.8351350543
 10
-7.5077288326
 20
-7.4406223134
 10
-6.9161979676
 20
-8.0068365488
 10
-6.2890596034
 20
-8.5304549902
 10
-5.6299940371
 20
-9.0084048364
 10
-4.9428689277
 20
-9.4378812876
 10
-4.2317165985
 20
-9.8163640054
 10
-3.5007103741
 20
-10.1416319025
 10
-2.7541400897
 20
-10.4117761776
 10
-1.9963869167
 20
-10.6252115167
 10
-1.231897652
 20
-10.7806853964
 10
-0.4651586225
 20
-10.8772854341
 10
0.2993306423
 20
-10.9144447423
 10
1.0570838153
 20
-10.8919452556
 10
1.8036540996
 20
-10.8099190098
 10
2.534660324
 20
-10.6688473675
 10
3.2458126532
 20
-10.4695581932
 10
3.9329377626
 20
-10.2132209952
 10
4.5920033289
 20
-9.9013400618
 10
5.2191416932
 20
-9.5357456346
 10
5.8106725582
 20
-9.1185831669
 10
6.1309615657
 20
-8.8583204969
  0
LWPOLYLINE
  5
261
330
236
100
AcDbEntity
  8
0
  6
Continuous
 62
     7
370
    25
100
AcDbPolyline
 90
       31
 70
   128
 43
0.0
 10
-10.0089335099
 20
1.2610070925
 10
-9.9795653091
 20
0.4850738406
 10
-9.8916330508
 20
-0.2937060175
 10
-9.7456527565
 20
-1.0707622919
 10
-9.5424810967
 20
-1.8415349075
 10
-9.2833103634
 20
-2.6015006639
 10
-8.9696614735
 20
-3.34619978
 10
-8.6033750435
 20
-4.0712620652
 10
-8.1866005877
 20
-4.7724325658
 10
-7.7217839045
 20
-5.4455965343
 10
-7.2116527228
 20
-6.0868035771
 10
-6.6592006954
 20
-6.6922908362
 10
-6.0676698304
 20
-7.2585050716
 10
-5.4405314661
 20
-7.782123513
 10
-4.7814658999
 20
-8.2600733592
 10
-4.0943407905
 20
-8.6895498104
 10
-3.3831884612
 20
-9.0680325282
 10
-2.6521822369
 20
-9.3933004253
 10
-1.9056119525
 20
-9.6634447004
 10
-1.1478587795
 20
-9.8768800395
 10
-0.3833695148
 20
-10.0323539192
 10
0.3833695148
 20
-10.1289539569
 10
1.1478587795
 20
-10.1661132651
 10
1.9056119525
 20
-10.1436137784
 10
2.6521822369
 20
-10.0615875326
 10
3.3831884612
 20
-9.9205158903
 10
4.0943407905
 20
-9.721226716
 10
4.7814658999
 20
-9.464889518
 10
5.4405314661
 20
-9.1530085846
 10
6.0676698304
 20
-8.7874141574
 10
6.5366545308
 20
-8.463097106
  0
LWPOLYLINE
  5
268
330
236
100
AcDbEntity
  8
0
  6
Continuous
 62
     7
370
    25
100
AcDbPolyline
 90
       49
 70
   128
 43
0.0
 10
23.939952051
 20
-3.871386426
 10
23.910093241
 20
-2.6416962238
 10
23.8205887435
 20
-1.4074447402
 10
23.6716541827
 20
-0.171605395
 10
23.4636483549
 20
1.0628445666
 10
23.1970723645
 20
2.2929312465
 10
22.8725684163
 20
3.515691258
 10
22.4909182689
 20
4.7281788654
 10
22.0530413507
 20
5.9274730796
 10
21.5599925457
 20
7.1106846959
 10
21.0129596516
 20
8.2749632539
 10
20.4132605186
 20
9.4175039045
 10
19.7623398744
 20
10.5355541673
 10
19.0617658439
 20
11.6264205612
 10
18.3132261712
 20
12.6874750935
 10
17.518524154
 20
13.716161591
 10
16.6795742991
 20
14.7100018577
 10
15.7983977102
 20
15.6666016454
 10
14.8771172188
 20
16.5836564215
 10
13.9179522703
 20
17.4589569206
 10
12.9232135771
 20
18.2903944672
 10
11.8952975519
 20
19.0759660554
 10
10.8366805344
 20
19.8137791744
 10
9.7499128256
 20
20.5020563679
 10
8.6376125443
 20
21.1391395157
 10
7.5024593192
 20
21.7234938288
 10
6.3471878338
 20
22.2537115464
 10
5.1745812384
 20
22.7285153276
 10
3.987464445
 20
23.1467613286
 10
2.7886973218
 20
23.507441958
 10
1.5811678039
 20
23.8096883047
 10
0.3677849357
 20
24.0527722306
 10
-0.8485281372
 20
24.2361081255
 10
-2.0648412102
 20
24.3592543169
 10
-3.2782240784
 20
24.421914135
 10
-4.4857535963
 20
24.4239366268
 10
-5.6845207194
 20
24.3653169199
 10
-6.8716375129
 20
24.2461962342
 10
-8.0442441083
 20
24.0668615421
 10
-9.1995155936
 20
23.8277448764
 10
-10.3346688188
 20
23.5294222902
 10
-11.4469691001
 20
23.1726124687
 10
-12.5337368088
 20
22.758174998
 10
-13.5923538264
 20
22.2871082943
 10
-14.6202698516
 20
21.7605471985
 10
-15.6150085448
 20
21.1797602424
 10
-16.5741734932
 20
20.5461465927
 10
-17.4954539847
 20
19.8612326801
 10
-18.3766305736
 20
19.1266685223
  0
LWPOLYLINE
  5
269
330
236
100
AcDbEntity
  8
0
  6
Continuous
 62
     7
370
    25
100
AcDbPolyline
 90
       65
 70
   128
 43
0.0
 10
23.7454976862
 20
-4.0428790562
 10
23.7156388762
 20
-2.813188854
 10
23.6261343787
 20
-1.5789373704
 10
23.4771998179
 20
-0.3430980252
 10
23.2691939901
 20
0.8913519364
 10
23.0026179997
 20
2.1214386163
 10
22.6781140516
 20
3.3441986279
 10
22.2964639041
 20
4.5566862352
 10
21.8585869859
 20
5.7559804494
 10
21.3655381809
 20
6.9391920657
 10
20.8185052868
 20
8.1034706237
 10
20.2188061538
 20
9.2460112743
 10
19.5678855096
 20
10.3640615371
 10
18.8673114791
 20
11.454927931
 10
18.1187718064
 20
12.5159824633
 10
17.3240697893
 20
13.5446689608
 10
16.4851199344
 20
14.5385092275
 10
15.6039433454
 20
15.4951090152
 10
14.682662854
 20
16.4121637913
 10
13.7234979055
 20
17.2874642904
 10
12.7287592123
 20
18.118901837
 10
11.7008431871
 20
18.9044734252
 10
10.6422261696
 20
19.6422865442
 10
9.5554584608
 20
20.3305637377
 10
8.4431581795
 20
20.9676468855
 10
7.3080049544
 20
21.5520011986
 10
6.152733469
 20
22.0822189162
 10
4.9801268736
 20
22.5570226974
 10
3.7930100802
 20
22.9752686984
 10
2.594242957
 20
23.3359493278
 10
1.3867134392
 20
23.6381956745
 10
0.1733305709
 20
23.8812796005
 10
-1.042982502
 20
24.0646154953
 10
-2.259295575
 20
24.1877616867
 10
-3.4726784432
 20
24.2504215048
 10
-4.6802079611
 20
24.2524439966
 10
-5.8789750842
 20
24.1938242897
 10
-7.0660918777
 20
24.074703604
 10
-8.2386984731
 20
23.8953689119
 10
-9.3939699584
 20
23.6562522463
 10
-10.5291231835
 20
23.35792966
 10
-11.6414234649
 20
23.0011198385
 10
-12.7281911736
 20
22.5866823678
 10
-13.7868081911
 20
22.1156156641
 10
-14.8147242164
 20
21.5890545683
 10
-15.8094629095
 20
21.0082676122
 10
-16.768627858
 20
20.3746539625
 10
-17.6899083494
 20
19.6897400499
 10
-18.5710849384
 20
18.9551758921
 10
-19.4100347933
 20
18.1727311185
 10
-20.2047368105
 20
17.344290707
 10
-20.9532764831
 20
16.4718504431
 10
-21.6538505137
 20
15.557512112
 10
-22.3047711578
 20
14.6034784346
 10
-22.9044702909
 20
13.6120477618
 10
-23.4515031849
 20
12.5856085368
 10
-23.9445519899
 20
11.5266335416
 10
-24.3824289081
 20
10.4376739397
 10
-24.7640790556
 20
9.3213531302
 10
-25.0885830037
 20
8.1803604278
 10
-25.3551589942
 20
7.0174445837
 10
-25.5631648219
 20
5.8354071642
 10
-25.7120993827
 20
4.6370958008
 10
-25.8016038802
 20
3.4253973306
 10
-25.8314626902
 20
2.2032308414
  0
LWPOLYLINE
  5
26A
330
236
100
AcDbEntity
  8
0
  6
Continuous
 62
     7
370
    25
100
AcDbPolyline
 90
       65
 70
   128
 43
0.0
 10
-25.8314626902
 20
2.2032308414
 10
-25.8016038802
 20
0.9735406393
 10
-25.7120993827
 20
-0.2607108444
 10
-25.5631648219
 20
-1.4965501896
 10
-25.3551589942
 20
-2.7310001512
 10
-25.0885830037
 20
-3.9610868311
 10
-24.7640790556
 20
-5.1838468426
 10
-24.3824289081
 20
-6.39633445
 10
-23.9445519899
 20
-7.5956286642
 10
-23.4515031849
 20
-8.7788402805
 10
-22.9044702909
 20
-9.9431188385
 10
-22.3047711578
 20
-11.0856594891
 10
-21.6538505137
 20
-12.2037097518
 10
-20.9532764831
 20
-13.2945761457
 10
-20.2047368105
 20
-14.3556306781
 10
-19.4100347933
 20
-15.3843171756
 10
-18.5710849384
 20
-16.3781574423
 10
-17.6899083494
 20
-17.33475723
 10
-16.768627858
 20
-18.2518120061
 10
-15.8094629095
 20
-19.1271125052
 10
-14.8147242164
 20
-19.9585500518
 10
-13.7868081911
 20
-20.74412164
 10
-12.7281911736
 20
-21.481934759
 10
-11.6414234649
 20
-22.1702119525
 10
-10.5291231835
 20
-22.8072951003
 10
-9.3939699584
 20
-23.3916494134
 10
-8.2386984731
 20
-23.921867131
 10
-7.0660918777
 20
-24.3966709122
 10
-5.8789750842
 20
-24.8149169132
 10
-4.6802079611
 20
-25.1755975426
 10
-3.4726784432
 20
-25.4778438893
 10
-2.259295575
 20
-25.7209278152
 10
-1.042982502
 20
-25.9042637101
 10
0.1733305709
 20
-26.0274099015
 10
1.3867134392
 20
-26.0900697196
 10
2.594242957
 20
-26.0920922114
 10
3.7930100802
 20
-26.0334725044
 10
4.9801268736
 20
-25.9143518188
 10
6.152733469
 20
-25.7350171267
 10
7.3080049544
 20
-25.495900461
 10
8.4431581795
 20
-25.1975778748
 10
9.5554584608
 20
-24.8407680533
 10
10.6422261696
 20
-24.4263305826
 10
11.7008431871
 20
-23.9552638789
 10
12.7287592123
 20
-23.428702783
 10
13.7234979055
 20
-22.847915827
 10
14.682662854
 20
-22.2143021772
 10
15.6039433454
 20
-21.5293882647
 10
16.4851199344
 20
-20.7948241069
 10
17.3240697893
 20
-20.0123793332
 10
18.1187718064
 20
-19.1839389218
 10
18.8673114791
 20
-18.3114986579
 10
19.5678855096
 20
-17.3971603268
 10
20.2188061538
 20
-16.4431266494
 10
20.8185052868
 20
-15.4516959766
 10
21.3655381809
 20
-14.4252567515
 10
21.8585869859
 20
-13.3662817563
 10
22.2964639041
 20
-12.2773221545
 10
22.6781140516
 20
-11.161001345
 10
23.0026179997
 20
-10.0200086426
 10
23.2691939901
 20
-8.8570927985
 10
23.4771998179
 20
-7.675055379
 10
23.6261343787
 20
-6.4767440156
 10
23.7156388762
 20
-5.2650455454
 10
23.7454976862
 20
-4.0428790562
  0
LWPOLYLINE
  5
26B
330
236
100
AcDbEntity
  8
0
  6
Continuous
 62
     7
370
    25
100
AcDbPolyline
 90
       42
 70
   128
 43
0.0
 10
8.9659510079
 20
-2.1808311999
 10
8.9365828071
 20
-1.404897948
 10
8.8486505488
 20
-0.6261180899
 10
8.7026702545
 20
0.1509381846
 10
8.4994985947
 20
0.9217108001
 10
8.2403278614
 20
1.6816765565
 10
7.9266789715
 20
2.4263756726
 10
7.5603925415
 20
3.1514379578
 10
7.1436180857
 20
3.8526084584
 10
6.6788014025
 20
4.525772427
 10
6.1686702208
 20
5.1669794697
 10
5.6162181934
 20
5.7724667288
 10
5.0246873284
 20
6.3386809642
 10
4.3975489641
 20
6.8622994056
 10
3.7384833979
 20
7.3402492518
 10
3.0513582884
 20
7.769725703
 10
2.3402059592
 20
8.1482084208
 10
1.6091997348
 20
8.4734763179
 10
0.8626294505
 20
8.743620593
 10
0.1048762775
 20
8.9570559321
 10
-0.6596129873
 20
9.1125298118
 10
-1.4263520168
 20
9.2091298495
 10
-2.1908412815
 20
9.2462891578
 10
-2.9485944545
 20
9.223789671
 10
-3.6951647389
 20
9.1417634252
 10
-4.4261709632
 20
9.0006917829
 10
-5.1373232925
 20
8.8014026087
 10
-5.8244484019
 20
8.5450654106
 10
-6.4835139681
 20
8.2331844772
 10
-7.1106523324
 20
7.86759005
 10
-7.7021831974
 20
7.4504275823
 10
-8.2546352248
 20
6.9841451494
 10
-8.7647664065
 20
6.4714790821
 10
-9.2295830898
 20
5.9154379086
 10
-9.6463575455
 20
5.3192846997
 10
-10.0126439755
 20
4.6865179194
 10
-10.3262928654
 20
4.0208508948
 10
-10.5854635987
 20
3.3261900248
 10
-10.7886352585
 20
2.6066118555
 10
-10.9346155528
 20
1.8663391577
 10
-11.0225478111
 20
1.109716146
 10
-11.051916012
 20
0.3411829851
  0
LWPOLYLINE
  5
26C
330
236
100
AcDbEntity
  8
0
  6
Continuous
 62
     7
370
    25
100
AcDbPolyline
 90
       42
 70
   128
 43
0.0
 10
-11.051916012
 20
0.3411829851
 10
-11.0225478111
 20
-0.4347502668
 10
-10.9346155528
 20
-1.2135301249
 10
-10.7886352585
 20
-1.9905863993
 10
-10.5854635987
 20
-2.7613590149
 10
-10.3262928654
 20
-3.5213247713
 10
-10.0126439755
 20
-4.2660238874
 10
-9.6463575455
 20
-4.9910861726
 10
-9.2295830898
 20
-5.6922566732
 10
-8.7647664065
 20
-6.3654206417
 10
-8.2546352248
 20
-7.0066276845
 10
-7.7021831974
 20
-7.6121149436
 10
-7.1106523324
 20
-8.178329179
 10
-6.4835139681
 20
-8.7019476204
 10
-5.8244484019
 20
-9.1798974666
 10
-5.1373232925
 20
-9.6093739178
 10
-4.4261709632
 20
-9.9878566356
 10
-3.6951647389
 20
-10.3131245327
 10
-2.9485944545
 20
-10.5832688078
 10
-2.1908412815
 20
-10.7967041469
 10
-1.4263520168
 20
-10.9521780266
 10
-0.6596129873
 20
-11.0487780643
 10
0.1048762775
 20
-11.0859373725
 10
0.8626294505
 20
-11.0634378858
 10
1.6091997348
 20
-10.98141164
 10
2.3402059592
 20
-10.8403399977
 10
3.0513582884
 20
-10.6410508234
 10
3.7384833979
 20
-10.3847136253
 10
4.3975489641
 20
-10.072832692
 10
5.0246873284
 20
-9.7072382648
 10
5.6162181934
 20
-9.2900757971
 10
6.1686702208
 20
-8.8237933642
 10
6.6788014025
 20
-8.3111272969
 10
7.1436180857
 20
-7.7550861234
 10
7.5603925415
 20
-7.1589329145
 10
7.9266789715
 20
-6.5261661342
 10
8.2403278614
 20
-5.8604991096
 10
8.4994985947
 20
-5.1658382396
 10
8.7026702545
 20
-4.4462600703
 10
8.8486505488
 20
-3.7059873725
 10
8.9365828071
 20
-2.9493643608
 10
8.9659510079
 20
-2.1808311999
  0
LWPOLYLINE
  5
26F
330
236
100
AcDbEntity
  8
0
  6
Continuous
 62
     7
370
    25
100
AcDbPolyline
 90
       32
 70
   128
 43
0.0
 10
-10.8574616472
 20
0.5126756153
 10
-10.8280934463
 20
-0.2632576366
 10
-10.740161188
 20
-1.0420374947
 10
-10.5941808938
 20
-1.8190937691
 10
-10.3910092339
 20
-2.5898663847
 10
-10.1318385006
 20
-3.3498321411
 10
-9.8181896108
 20
-4.0945312572
 10
-9.4519031807
 20
-4.8195935424
 10
-9.035128725
 20
-5.520764043
 10
-8.5703120417
 20
-6.1939280116
 10
-8.0601808601
 20
-6.8351350543
 10
-7.5077288326
 20
-7.4406223134
 10
-6.9161979676
 20
-8.0068365488
 10
-6.2890596034
 20
-8.5304549902
 10
-5.6299940371
 20
-9.0084048364
 10
-4.9428689277
 20
-9.4378812876
 10
-4.2317165985
 20
-9.8163640054
 10
-3.5007103741
 20
-10.1416319025
 10
-2.7541400897
 20
-10.4117761776
 10
-1.9963869167
 20
-10.6252115167
 10
-1.231897652
 20
-10.7806853964
 10
-0.4651586225
 20
-10.8772854341
 10
0.2993306423
 20
-10.9144447423
 10
1.0570838153
 20
-10.8919452556
 10
1.8036540996
 20
-10.8099190098
 10
2.534660324
 20
-10.6688473675
 10
3.2458126532
 20
-10.4695581932
 10
3.9329377626
 20
-10.2132209952
 10
4.5920033289
 20
-9.9013400618
 10
5.2191416932
 20
-9.5357456346
 10
5.8106725582
 20
-9.1185831669
 10
6.1309615657
 20
-8.8583204969
  0
LINE
  5
270
330
236
100
AcDbEntity
  8
0
  6
Continuous
 62
     7
370
    25
100
AcDbLine
 10
20.6128459264
 20
-25.1545119552
 30
0.0
 11
21.4967294027
 21
-24.3749999997
 31
0.0
  0
LINE
  5
271
330
236
100
AcDbEntity
  8
0
  6
Continuous
 62
     7
370
    25
100
AcDbLine
 10
-21.4967294027
 20
24.3749999997
 30
0.0
 11
-22.380612879
 21
23.5954880443
 31
0.0
  0
LINE
  5
272
330
236
100
AcDbEntity
  8
0
  6
Continuous
 62
     7
370
    25
100
AcDbLine
 10
-18.3766305733
 20
19.1266685226
 30
0.0
 11
-18.5710849381
 21
18.9551758924
 31
0.0
  0
LINE
  5
273
330
236
100
AcDbEntity
  8
0
  6
Continuous
 62
     7
370
    25
100
AcDbLine
 10
16.485119934
 20
-20.7948241072
 30
0.0
 11
16.6795742988
 21
-20.623331477
 31
0.0
  0
LINE
  5
274
330
236
100
AcDbEntity
  8
0
  6
Continuous
 62
     7
370
    25
100
AcDbLine
 10
-29.8817282247
 20
4.7594911622
 30
0.0
 11
-31.2272311832
 21
4.929008601
 31
0.0
  0
LINE
  5
275
330
236
100
AcDbEntity
  8
0
  6
Continuous
 62
     7
370
    25
100
AcDbLine
 10
-2.7547121697
 20
30.0394101057
 30
0.0
 11
-2.7547121697
 21
28.6832705948
 31
0.0
  0
LINE
  5
276
330
236
100
AcDbEntity
  8
0
  6
Continuous
 62
     7
370
    25
100
AcDbLine
 10
0.9869452172
 20
28.2118660742
 30
0.0
 11
0.9869452172
 21
29.5680055852
 31
0.0
  0
LINE
  5
277
330
236
100
AcDbEntity
  8
0
  6
Continuous
 62
     7
370
    25
100
AcDbLine
 10
29.4594642306
 20
-2.7167963454
 30
0.0
 11
28.1139612722
 21
-2.5472789066
 31
0.0
  0
LINE
  5
278
330
236
100
AcDbEntity
  8
0
  6
Continuous
 62
     7
370
    25
100
AcDbLine
 10
28.1139612722
 20
-6.3185150731
 30
0.0
 11
29.4594642306
 21
-6.4880325118
 31
0.0
  0
LINE
  5
279
330
236
100
AcDbEntity
  8
0
  6
Continuous
 62
     7
370
    25
100
AcDbLine
 10
0.9869452172
 20
-31.5984340166
 30
0.0
 11
0.9869452172
 21
-30.2422945056
 31
0.0
  0
LINE
  5
27A
330
236
100
AcDbEntity
  8
0
  6
Continuous
 62
     7
370
    25
100
AcDbLine
 10
-2.7547121697
 20
-29.770889985
 30
0.0
 11
-2.7547121697
 21
-31.127029496
 31
0.0
  0
LINE
  5
27B
330
236
100
AcDbEntity
  8
0
  6
Continuous
 62
     7
370
    25
100
AcDbLine
 10
-31.2272311832
 20
1.1577724346
 30
0.0
 11
-29.8817282247
 21
0.9882549958
 31
0.0
  0
LINE
  5
27C
330
236
100
AcDbEntity
  8
0
  6
Continuous
 62
     7
370
    25
100
AcDbLine
 10
1.8708286934
 20
30.3475175406
 30
0.0
 11
0.9869452172
 21
29.5680055852
 31
0.0
  0
LINE
  5
27D
330
236
100
AcDbEntity
  8
0
  6
Continuous
 62
     7
370
    25
100
AcDbLine
 10
29.4594642306
 20
-2.7167963454
 30
0.0
 11
30.3433477069
 21
-1.93728439
 31
0.0
  0
LINE
  5
27E
330
236
100
AcDbEntity
  8
0
  6
Continuous
 62
     7
370
    25
100
AcDbLine
 10
30.3433477069
 20
-5.7085205564
 30
0.0
 11
29.4594642306
 21
-6.4880325118
 31
0.0
  0
LINE
  5
27F
330
236
100
AcDbEntity
  8
0
  6
Continuous
 62
     7
370
    25
100
AcDbLine
 10
28.9978447484
 20
-5.5390031176
 30
0.0
 11
30.3433477069
 21
-5.7085205564
 31
0.0
  0
LINE
  5
280
330
236
100
AcDbEntity
  8
0
  6
Continuous
 62
     7
370
    25
100
AcDbLine
 10
-2.7547121697
 20
30.0394101057
 30
0.0
 11
-1.8708286934
 21
30.8189220612
 31
0.0
  0
LINE
  5
281
330
236
100
AcDbEntity
  8
0
  6
Continuous
 62
     7
370
    25
100
AcDbLine
 10
-1.8708286934
 20
30.8189220612
 30
0.0
 11
-1.8708286934
 21
29.4627825502
 31
0.0
  0
LINE
  5
282
330
236
100
AcDbEntity
  8
0
  6
Continuous
 62
     7
370
    25
100
AcDbLine
 10
-1.8708286934
 20
-30.3475175406
 30
0.0
 11
-2.7547121697
 21
-31.127029496
 31
0.0
  0
LINE
  5
283
330
236
100
AcDbEntity
  8
0
  6
Continuous
 62
     7
370
    25
100
AcDbLine
 10
-1.8708286934
 20
-28.9913780296
 30
0.0
 11
-1.8708286934
 21
-30.3475175406
 31
0.0
  0
LINE
  5
284
330
236
100
AcDbEntity
  8
0
  6
Continuous
 62
     7
370
    25
100
AcDbLine
 10
-31.2272311832
 20
1.1577724346
 30
0.0
 11
-30.3433477069
 21
1.93728439
 31
0.0
  0
LINE
  5
285
330
236
100
AcDbEntity
  8
0
  6
Continuous
 62
     7
370
    25
100
AcDbLine
 10
-30.3433477069
 20
1.93728439
 30
0.0
 11
-28.9978447484
 21
1.7677669512
 31
0.0
  0
ARC
  5
286
330
236
100
AcDbEntity
  8
0
  6
Continuous
 62
     7
370
    25
100
AcDbCircle
 10
-29.6382662182
 20
2.597813112
 30
0.0
 40
1.627867033289273
100
AcDbArc
 50
261.3986348259
 51
1.4206093965
  0
ARC
  5
287
330
236
100
AcDbEntity
  8
0
  6
Continuous
 62
     7
370
    25
100
AcDbCircle
 10
-30.1947508046
 20
2.597813112
 30
0.0
 40
2.184224147915392
100
AcDbArc
 50
1.0587090425
 51
81.7605351794
  0
ARC
  5
288
330
236
100
AcDbEntity
  8
0
  6
Continuous
 62
     7
370
    25
100
AcDbCircle
 10
-4.9589363719
 20
3.841163705
 30
0.0
 40
26.29081053920995
100
AcDbArc
 50
85.1906705564
 51
177.628573666
  0
ARC
  5
289
330
236
100
AcDbEntity
  8
0
  6
Continuous
 62
     7
370
    25
100
AcDbCircle
 10
-6.1232371987
 20
-5.4001876157
 30
0.0
 40
35.6837390097916
100
AcDbArc
 50
4.312672203
 51
78.5065720189
  0
ARC
  5
28A
330
236
100
AcDbEntity
  8
0
  6
Continuous
 62
     7
370
    25
100
AcDbCircle
 10
3.1911694193
 20
-5.4001876158
 30
0.0
 40
26.29081053920993
100
AcDbArc
 50
265.1906705564
 51
357.628573666
  0
ARC
  5
28B
330
236
100
AcDbEntity
  8
0
  6
Continuous
 62
     7
370
    25
100
AcDbCircle
 10
4.3554702462
 20
3.8411637048
 30
0.0
 40
35.68373900979152
100
AcDbArc
 50
184.312672203
 51
258.5065720189
  0
ARC
  5
28C
330
236
100
AcDbEntity
  8
0
  6
Continuous
 62
     7
370
    25
100
AcDbCircle
 10
-5.2393537225
 20
-4.6206756602
 30
0.0
 40
35.68373900979161
100
AcDbArc
 50
4.312672203
 51
78.5065720189
  0
ARC
  5
28D
330
236
100
AcDbEntity
  8
0
  6
Continuous
 62
     7
370
    25
100
AcDbCircle
 10
-3.614930536
 20
2.823500106
 30
0.0
 40
22.49316366202019
100
AcDbArc
 50
132.142595632
 51
180.9930990466
  0
ARC
  5
28E
330
236
100
AcDbEntity
  8
0
  6
Continuous
 62
     7
370
    25
100
AcDbCircle
 10
-1.9189334416
 20
0.6582963852
 30
0.0
 40
8.939714306961754
100
AcDbArc
 50
133.0584643649
 51
180.9333435338
  0
ARC
  5
28F
330
236
100
AcDbEntity
  8
0
  6
Continuous
 62
     7
370
    25
100
AcDbCircle
 10
29.2614534753
 20
-3.4410576896
 30
0.0
 40
2.114441907404438
100
AcDbArc
 50
157.4244926258
 51
262.8382666409
  0
ARC
  5
290
330
236
100
AcDbEntity
  8
0
  6
Continuous
 62
     7
370
    25
100
AcDbCircle
 10
0.2325604689
 20
29.4475782716
 30
0.0
 40
2.103444113403563
100
AcDbArc
 50
179.5858465759
 51
285.7898825992
  0
ARC
  5
291
330
236
100
AcDbEntity
  8
0
  6
Continuous
 62
     7
370
    25
100
AcDbCircle
 10
3.5335832032
 20
-4.4321310612
 30
0.0
 40
26.84013120100368
100
AcDbArc
 50
312.0103216489
 51
357.274256104
  0
ARC
  5
292
330
236
100
AcDbEntity
  8
0
  6
Continuous
 62
     7
370
    25
100
AcDbCircle
 10
-3.955670812
 20
4.05988478
 30
0.0
 40
26.84013120074002
100
AcDbArc
 50
85.5449881182
 51
130.8089225735
  0
ARC
  5
293
330
236
100
AcDbEntity
  8
0
  6
Continuous
 62
     7
370
    25
100
AcDbCircle
 10
-1.0271329604
 20
1.3986511724
 30
0.0
 40
8.98285516996873
100
AcDbArc
 50
136.8399358673
 51
180.8779762504
  0
ARC
  5
294
330
236
100
AcDbEntity
  8
0
  6
Continuous
 62
     7
370
    25
100
AcDbCircle
 10
-0.1302636383
 20
-28.978045676
 30
0.0
 40
1.740616115922697
100
AcDbArc
 50
153.5599667447
 51
180.4388647539
  0
ARC
  5
295
330
236
100
AcDbEntity
  8
0
  6
Continuous
 62
     7
370
    25
100
AcDbCircle
 10
-28.7666995592
 20
3.4896115563
 30
0.0
 40
1.737290114668512
100
AcDbArc
 50
262.3541660265
 51
289.2854909171
  0
ARC
  5
296
330
236
100
AcDbEntity
  8
0
  6
Continuous
 62
     7
370
    25
100
AcDbCircle
 10
1.8534345158
 20
-4.2482927192
 30
0.0
 40
22.0897332529138
100
AcDbArc
 50
312.158037431
 51
0.9776572489
  0
VIEWPORT
  5
2A7
330
236
100
AcDbEntity
  8
0
100
AcDbViewport
 10
0.0
 20
0.0
 30
0.0
 40
205.6
 41
156.0
 68
     1
 69
     1
 12
-0.5833692362
 22
-0.5693862585
 13
0.0
 23
0.0
 14
10.0
 24
10.0
 15
10.0
 25
10.0
 16
0.0
 26
0.0
 36
1.0
 17
0.0
 27
0.0
 37
0.0
 42
50.0
 43
0.0
 44
0.0
 45
60.1777773733
 50
0.0
 51
0.0
 72
   100
 90
   557152
  1

281
     0
 71
     1
 74
     0
110
0.0
120
0.0
130
0.0
111
1.0
121
0.0
131
0.0
112
0.0
122
1.0
132
0.0
 79
     0
146
0.0
  0
ENDBLK
  5
239
330
236
100
AcDbEntity
  8
0
100
AcDbBlockEnd
  0
ENDSEC
  0
SECTION
  2
ENTITIES
  0
LWPOLYLINE
  5
7A
330
1F
100
AcDbEntity
  8
0
  6
Continuous
 62
     7
370
    25
100
AcDbPolyline
 90
       33
 70
   128
 43
0.0
 10
-2.9355747157
 20
27.1470977538
 10
-4.2311833475
 20
27.3932409922
 10
-5.5205215123
 20
27.5810020249
 10
-6.8009509663
 20
27.7099966553
 10
-8.0698516947
 20
27.7799609345
 10
-9.324627273
 20
27.7907517016
 10
-10.5627101792
 20
27.7423468766
 10
-11.7815670483
 20
27.6348455054
 10
-12.9787038552
 20
27.4684675573
 10
-14.1516710187
 20
27.243553475
 10
-15.2980684134
 20
26.9605634774
 10
-16.4155502809
 20
26.6200766189
 10
-17.5018300298
 20
26.2227896036
 10
-18.5546849146
 20
25.7695153602
 10
-19.5719605836
 20
25.2611813784
 10
-20.5515754873
 20
24.6988278113
 10
-21.4915251377
 20
24.0836053466
 10
-22.3898862099
 20
23.4167728527
 10
-23.2448204774
 20
22.6996948021
 10
-24.0545785737
 20
21.9338384799
 10
-24.8175035719
 20
21.1207709813
 10
-25.5320343748
 20
20.2621560051
 10
-26.1967089094
 20
19.3597504492
 10
-26.8101671189
 20
18.4154008158
 10
-27.3711537449
 20
17.4310394332
 10
-27.8785208967
 20
16.4086805016
 10
-28.3312303996
 20
15.3504159717
 10
-28.7283559195
 20
14.2584112646
 10
-29.069084858
 20
13.1349008402
 10
-29.3527200156
 20
11.9821836256
 10
-29.5786810181
 20
10.8026183106
 10
-29.7465055041
 20
9.5986185218
 10
-29.8558500712
 20
8.3726478837
  0
LWPOLYLINE
  5
7C
330
1F
100
AcDbEntity
  8
0
  6
Continuous
 62
     7
370
    25
100
AcDbPolyline
 90
       18
 70
   128
 43
0.0
 10
-2.9355747157
 20
25.9141455941
 10
-2.9054569173
 20
25.5909520655
 10
-2.8161291476
 20
25.2623937603
 10
-2.6706333567
 20
24.9396593377
 10
-2.4739242293
 20
24.6337391312
 10
-2.2327004587
 20
24.3550508866
 10
-1.9551766311
 20
24.1130849978
 10
-1.6508034876
 20
23.916081323
 10
-1.3299460907
 20
23.7707485861
 10
-1.003530854
 20
23.682035919
 10
-0.682673457
 20
23.6529643252
 10
-0.3783003136
 20
23.6845238031
 10
-0.100776486
 20
23.7756396324
 10
0.1404472846
 20
23.9232089729
 10
0.3371564121
 20
24.1222065276
 10
0.482652203
 20
24.3658556736
 10
0.5719799726
 20
24.6458592313
 10
0.602097771
 20
24.9526820154
  0
LWPOLYLINE
  5
7E
330
1F
100
AcDbEntity
  8
0
  6
Continuous
 62
     7
370
    25
100
AcDbPolyline
 90
       33
 70
   128
 43
0.0
 10
27.5223731265
 20
-7.2215237149
 10
27.4130285595
 20
-5.936118056
 10
27.2452040735
 20
-4.6408960687
 10
27.019243071
 20
-3.3385080363
 10
26.7356079133
 20
-2.0316189051
 10
26.3948789748
 20
-0.7229028316
 10
25.997753455
 20
0.5849622894
 10
25.5450439521
 20
1.8893003042
 10
25.0376768003
 20
3.1874422764
 10
24.4766901742
 20
4.476731948
 10
23.8632319648
 20
5.7545311744
 10
23.1985574301
 20
7.0182253228
 10
22.4840266272
 20
8.2652286224
 10
21.721101629
 20
9.4929894549
 10
20.9113435327
 20
10.6989955763
 10
20.0564092652
 20
11.8807792566
 10
19.1580481931
 20
13.0359223303
 10
18.2180985426
 20
14.1620611436
 10
17.238483639
 20
15.2568913911
 10
16.22120797
 20
16.3181728314
 10
15.1683530852
 20
17.3437338703
 10
14.0820733362
 20
18.3314760048
 10
12.9645914687
 20
19.279378117
 10
11.8181940741
 20
20.1855006096
 10
10.6452269106
 20
21.0479893748
 10
9.4480901036
 20
21.8650795881
 10
8.2292332346
 20
22.6350993194
 10
6.9911503283
 20
23.3564729544
 10
5.7363747501
 20
24.0277244184
 10
4.4674740216
 20
24.6474801967
 10
3.1870445677
 20
25.214472145
 10
1.8977064029
 20
25.7275400843
 10
0.602097771
 20
26.185634175
  0
LWPOLYLINE
  5
80
330
1F
100
AcDbEntity
  8
0
  6
Continuous
 62
     7
370
    25
100
AcDbPolyline
 90
       18
 70
   128
 43
0.0
 10
26.2502232997
 20
-6.8757806508
 10
25.9252004929
 20
-6.8166362207
 10
25.6112459479
 20
-6.8178854919
 10
25.3190510103
 20
-6.8794859221
 10
25.0585660282
 20
-6.9993397824
 10
24.8386615052
 20
-7.1733655934
 10
24.6668260262
 20
-7.3956371149
 10
24.5489112422
 20
-7.6585851567
 10
24.4889325999
 20
-7.9532553387
 10
24.4889325999
 20
-8.2696130211
 10
24.5489112422
 20
-8.5968850227
 10
24.6668260262
 20
-8.9239264879
 10
24.8386615052
 20
-9.2396004117
 10
25.0585660282
 20
-9.5331568975
 10
25.3190510103
 20
-9.7945992311
 10
25.6112459479
 20
-10.0150243073
 10
25.9252004929
 20
-10.1869258148
 10
26.2502232997
 20
-10.3044498536
  0
LWPOLYLINE
  5
82
330
1F
100
AcDbEntity
  8
0
  6
Continuous
 62
     7
370
    25
100
AcDbPolyline
 90
       33
 70
   128
 43
0.0
 10
0.602097771
 20
-29.4246427878
 10
1.8977064029
 20
-29.6707860262
 10
3.1870445677
 20
-29.8585470589
 10
4.4674740216
 20
-29.9875416893
 10
5.7363747501
 20
-30.0575059685
 10
6.9911503283
 20
-30.0682967356
 10
8.2292332346
 20
-30.0198919106
 10
9.4480901036
 20
-29.9123905394
 10
10.6452269106
 20
-29.7460125914
 10
11.8181940741
 20
-29.521098509
 10
12.9645914687
 20
-29.2381085115
 10
14.0820733362
 20
-28.8976216529
 10
15.1683530852
 20
-28.5003346376
 10
16.22120797
 20
-28.0470603942
 10
17.238483639
 20
-27.5387264124
 10
18.2180985426
 20
-26.9763728453
 10
19.1580481931
 20
-26.3611503806
 10
20.0564092652
 20
-25.6943178867
 10
20.9113435327
 20
-24.9772398361
 10
21.721101629
 20
-24.2113835139
 10
22.4840266272
 20
-23.3983160153
 10
23.1985574301
 20
-22.5397010391
 10
23.8632319648
 20
-21.6372954832
 10
24.4766901742
 20
-20.6929458499
 10
25.0376768003
 20
-19.7085844672
 10
25.5450439521
 20
-18.6862255356
 10
25.997753455
 20
-17.6279610058
 10
26.3948789748
 20
-16.5359562987
 10
26.7356079133
 20
-15.4124458743
 10
27.019243071
 20
-14.2597286596
 10
27.2452040735
 20
-13.0801633446
 10
27.4130285595
 20
-11.8761635559
 10
27.5223731265
 20
-10.6501929177
  0
LWPOLYLINE
  5
84
330
1F
100
AcDbEntity
  8
0
  6
Continuous
 62
     7
370
    25
100
AcDbPolyline
 90
       18
 70
   128
 43
0.0
 10
0.602097771
 20
-28.1916906281
 10
0.5719799726
 20
-27.8684970995
 10
0.482652203
 20
-27.5399387943
 10
0.3371564121
 20
-27.2172043717
 10
0.1404472846
 20
-26.9112841652
 10
-0.100776486
 20
-26.6325959206
 10
-0.3783003136
 20
-26.3906300319
 10
-0.682673457
 20
-26.1936263571
 10
-1.003530854
 20
-26.0482936201
 10
-1.3299460907
 20
-25.959580953
 10
-1.6508034876
 20
-25.9305093593
 10
-1.9551766311
 20
-25.9620688371
 10
-2.2327004587
 20
-26.0531846665
 10
-2.4739242293
 20
-26.2007540069
 10
-2.6706333567
 20
-26.3997515617
 10
-2.8161291476
 20
-26.6434007076
 10
-2.9054569173
 20
-26.9234042653
 10
-2.9355747157
 20
-27.2302270494
  0
LWPOLYLINE
  5
86
330
1F
100
AcDbEntity
  8
0
  6
Continuous
 62
     7
370
    25
100
AcDbPolyline
 90
       33
 70
   128
 43
0.0
 10
-29.8558500712
 20
4.9439786808
 10
-29.7465055041
 20
3.658573022
 10
-29.5786810181
 20
2.3633510347
 10
-29.3527200156
 20
1.0609630023
 10
-29.069084858
 20
-0.2459261289
 10
-28.7283559195
 20
-1.5546422024
 10
-28.3312303996
 20
-2.8625073234
 10
-27.8785208967
 20
-4.1668453382
 10
-27.3711537449
 20
-5.4649873104
 10
-26.8101671189
 20
-6.754276982
 10
-26.1967089094
 20
-8.0320762084
 10
-25.5320343748
 20
-9.2957703569
 10
-24.8175035719
 20
-10.5427736564
 10
-24.0545785737
 20
-11.770534489
 10
-23.2448204774
 20
-12.9765406103
 10
-22.3898862099
 20
-14.1583242907
 10
-21.4915251377
 20
-15.3134673643
 10
-20.5515754873
 20
-16.4396061776
 10
-19.5719605836
 20
-17.5344364252
 10
-18.5546849146
 20
-18.5957178654
 10
-17.5018300298
 20
-19.6212789043
 10
-16.4155502809
 20
-20.6090210388
 10
-15.2980684134
 20
-21.556923151
 10
-14.1516710187
 20
-22.4630456437
 10
-12.9787038552
 20
-23.3255344088
 10
-11.7815670483
 20
-24.1426246221
 10
-10.5627101792
 20
-24.9126443534
 10
-9.324627273
 20
-25.6340179884
 10
-8.0698516947
 20
-26.3052694524
 10
-6.8009509663
 20
-26.9250252307
 10
-5.5205215123
 20
-27.492017179
 10
-4.2311833475
 20
-28.0050851183
 10
-2.9355747157
 20
-28.4631792091
  0
LWPOLYLINE
  5
88
330
1F
100
AcDbEntity
  8
0
  6
Continuous
 62
     7
370
    25
100
AcDbPolyline
 90
       66
 70
   128
 43
0.0
 10
-25.0460277576
 20
5.3511066395
 10
-25.0181421643
 20
4.2253864066
 10
-24.9345505125
 20
3.087137932
 10
-24.7954480345
 20
1.9390196478
 10
-24.6011596104
 20
0.7837130373
 10
-24.3521390098
 20
-0.3760836272
 10
-24.048967832
 20
-1.537661587
 10
-23.6923541473
 20
-2.6983079229
 10
-23.2831308435
 20
-3.8553118916
 10
-22.8222536805
 20
-5.0059712567
 10
-22.3107990583
 20
-6.1475985999
 10
-21.7499615029
 20
-7.2775275978
 10
-21.1410508764
 20
-8.3931192487
 10
-20.4854893177
 20
-9.4917680367
 10
-19.7848079213
 20
-10.5709080166
 10
-19.0406431611
 20
-11.628018807
 10
-18.2547330682
 20
-12.6606314767
 10
-17.4289131722
 20
-13.6663343109
 10
-16.5651122136
 20
-14.6427784441
 10
-15.6653476397
 20
-15.5876833457
 10
-14.7317208923
 20
-16.4988421466
 10
-13.7664124999
 20
-17.3741267932
 10
-12.771676985
 20
-18.2114930175
 10
-11.7498375985
 20
-19.0089851121
 10
-10.7032808936
 20
-19.7647404971
 10
-9.634451152
 20
-20.4769940709
 10
-8.5458446751
 20
-21.1440823322
 10
-7.4400039537
 20
-21.7644472655
 10
-6.3195117301
 20
-22.3366399797
 10
-5.1869849659
 20
-22.8593240922
 10
-4.0450687296
 20
-23.3312788501
 10
-2.8964300197
 20
-23.7514019811
 10
-1.743751535
 20
-24.1187122683
 10
-0.5897254096
 20
-24.4323518414
 10
0.5629530751
 20
-24.6915881807
 10
1.711591785
 20
-24.8958158276
 10
2.8535080212
 20
-25.0445577991
 10
3.9860347855
 20
-25.1374667014
 10
5.1065270091
 20
-25.1743255415
 10
6.2123677304
 20
-25.1550482338
 10
7.3009742073
 20
-25.0796798013
 10
8.3698039489
 20
-24.9483962706
 10
9.4163606538
 20
-24.7615042603
 10
10.4382000403
 20
-24.5194402655
 10
11.4329355552
 20
-24.2227696378
 10
12.3982439476
 20
-23.8721852653
 10
13.3318706951
 20
-23.4685059539
 10
14.231635269
 20
-23.0126745154
 10
15.0954362275
 20
-22.5057555653
 10
15.9212561235
 20
-21.9489330362
 10
16.7071662164
 20
-21.3435074129
 10
17.4513309767
 20
-20.6908926951
 10
18.1520123731
 20
-19.9926130947
 10
18.8075739317
 20
-19.2502994761
 10
19.4164845582
 20
-18.465685547
 10
19.9773221137
 20
-17.6406038096
 10
20.4887767358
 20
-16.7769812807
 10
20.9496538988
 20
-15.8768349906
 10
21.3588772027
 20
-14.9422672727
 10
21.7154908874
 20
-13.9754608532
 10
22.0186620652
 20
-12.9786737533
 10
22.2676826657
 20
-11.9542340155
 10
22.4619710898
 20
-10.9045342662
 10
22.6010735679
 20
-9.8320261278
 10
22.6846652197
 20
-8.7392144929
 10
22.712550813
 20
-7.6286516735
  0
LWPOLYLINE
  5
89
330
1F
100
AcDbEntity
  8
0
  6
Continuous
 62
     7
370
    25
100
AcDbPolyline
 90
       66
 70
   128
 43
0.0
 10
22.712550813
 20
-7.6286516735
 10
22.6846652197
 20
-6.5029314406
 10
22.6010735679
 20
-5.364682966
 10
22.4619710898
 20
-4.2165646818
 10
22.2676826657
 20
-3.0612580713
 10
22.0186620652
 20
-1.9014614068
 10
21.7154908874
 20
-0.739883447
 10
21.3588772027
 20
0.4207628889
 10
20.9496538988
 20
1.5777668576
 10
20.4887767358
 20
2.7284262227
 10
19.9773221137
 20
3.8700535659
 10
19.4164845582
 20
4.9999825638
 10
18.8075739317
 20
6.1155742147
 10
18.1520123731
 20
7.2142230027
 10
17.4513309767
 20
8.2933629826
 10
16.7071662164
 20
9.350473773
 10
15.9212561235
 20
10.3830864427
 10
15.0954362275
 20
11.3887892769
 10
14.231635269
 20
12.3652334101
 10
13.3318706951
 20
13.3101383117
 10
12.3982439476
 20
14.2212971126
 10
11.4329355552
 20
15.0965817591
 10
10.4382000403
 20
15.9339479835
 10
9.4163606538
 20
16.7314400781
 10
8.3698039489
 20
17.4871954631
 10
7.3009742073
 20
18.1994490369
 10
6.2123677304
 20
18.8665372982
 10
5.1065270091
 20
19.4869022314
 10
3.9860347855
 20
20.0590949456
 10
2.8535080212
 20
20.5817790582
 10
1.711591785
 20
21.053733816
 10
0.5629530751
 20
21.4738569471
 10
-0.5897254096
 20
21.8411672343
 10
-1.743751535
 20
22.1548068074
 10
-2.8964300197
 20
22.4140431466
 10
-4.0450687296
 20
22.6182707936
 10
-5.1869849659
 20
22.7670127651
 10
-6.3195117301
 20
22.8599216674
 10
-7.4400039537
 20
22.8967805075
 10
-8.5458446751
 20
22.8775031998
 10
-9.634451152
 20
22.8021347673
 10
-10.7032808936
 20
22.6708512365
 10
-11.7498375985
 20
22.4839592263
 10
-12.771676985
 20
22.2418952315
 10
-13.7664124999
 20
21.9452246038
 10
-14.7317208923
 20
21.5946402313
 10
-15.6653476397
 20
21.1909609199
 10
-16.5651122136
 20
20.7351294814
 10
-17.4289131722
 20
20.2282105312
 10
-18.2547330682
 20
19.6713880021
 10
-19.0406431611
 20
19.0659623789
 10
-19.7848079213
 20
18.4133476611
 10
-20.4854893177
 20
17.7150680607
 10
-21.1410508764
 20
16.972754442
 10
-21.7499615029
 20
16.1881405129
 10
-22.3107990583
 20
15.3630587756
 10
-22.8222536805
 20
14.4994362467
 10
-23.2831308435
 20
13.5992899566
 10
-23.6923541473
 20
12.6647222387
 10
-24.048967832
 20
11.6979158192
 10
-24.3521390098
 20
10.7011287193
 10
-24.6011596104
 20
9.6766889815
 10
-24.7954480345
 20
8.6269892322
 10
-24.9345505125
 20
7.5544810938
 10
-25.0181421643
 20
6.4616694588
 10
-25.0460277576
 20
5.3511066395
  0
LWPOLYLINE
  5
8B
330
1F
100
AcDbEntity
  8
0
  6
Continuous
 62
     7
370
    25
100
AcDbPolyline
 90
       33
 70
   128
 43
0.0
 10
28.6891115988
 20
-6.0827511979
 10
28.5797670318
 20
-4.797345539
 10
28.4119425458
 20
-3.5021235517
 10
28.1859815433
 20
-2.1997355193
 10
27.9023463857
 20
-0.8928463881
 10
27.5616174471
 20
0.4158696854
 10
27.1644919273
 20
1.7237348064
 10
26.7117824244
 20
3.0280728212
 10
26.2044152726
 20
4.3262147934
 10
25.6434286466
 20
5.615504465
 10
25.0299704371
 20
6.8933036914
 10
24.3652959024
 20
8.1569978398
 10
23.6507650995
 20
9.4040011394
 10
22.8878401014
 20
10.631761972
 10
22.078082005
 20
11.8377680933
 10
21.2231477375
 20
13.0195517736
 10
20.3247866654
 20
14.1746948473
 10
19.384837015
 20
15.3008336606
 10
18.4052221113
 20
16.3956639081
 10
17.3879464423
 20
17.4569453484
 10
16.3350915575
 20
18.4825063873
 10
15.2488118086
 20
19.4702485218
 10
14.1313299411
 20
20.418150634
 10
12.9849325464
 20
21.3242731266
 10
11.8119653829
 20
22.1867618918
 10
10.6148285759
 20
23.0038521051
 10
9.3959717069
 20
23.7738718364
 10
8.1578888006
 20
24.4952454714
 10
6.9031132224
 20
25.1664969354
 10
5.634212494
 20
25.7862527137
 10
4.35378304
 20
26.353244662
 10
3.0644448752
 20
26.8663126013
 10
1.7688362434
 20
27.324406692
  0
LWPOLYLINE
  5
8E
330
1F
100
AcDbEntity
  8
0
  6
Continuous
 62
     7
370
    25
100
AcDbPolyline
 90
       53
 70
   128
 43
0.0
 10
-24.9993582187
 20
5.3966575401
 10
-24.9714726254
 20
4.2709373073
 10
-24.8878809737
 20
3.1326888327
 10
-24.7487784956
 20
1.9845705484
 10
-24.5544900715
 20
0.829263938
 10
-24.3054694709
 20
-0.3305327265
 10
-24.0022982932
 20
-1.4921106863
 10
-23.6456846084
 20
-2.6527570222
 10
-23.2364613046
 20
-3.8097609909
 10
-22.7755841416
 20
-4.960420356
 10
-22.2641295194
 20
-6.1020476992
 10
-21.703291964
 20
-7.2319766971
 10
-21.0943813375
 20
-8.347568348
 10
-20.4388197788
 20
-9.446217136
 10
-19.7381383824
 20
-10.5253571159
 10
-18.9939736222
 20
-11.5824679063
 10
-18.2080635293
 20
-12.615080576
 10
-17.3822436333
 20
-13.6207834102
 10
-16.5184426747
 20
-14.5972275434
 10
-15.6186781008
 20
-15.542132445
 10
-14.6850513534
 20
-16.4532912459
 10
-13.719742961
 20
-17.3285758925
 10
-12.7250074461
 20
-18.1659421169
 10
-11.7031680596
 20
-18.9634342114
 10
-10.6566113547
 20
-19.7191895965
 10
-9.5877816131
 20
-20.4314431702
 10
-8.4991751362
 20
-21.0985314315
 10
-7.3933344148
 20
-21.7188963648
 10
-6.2728421912
 20
-22.291089079
 10
-5.140315427
 20
-22.8137731915
 10
-3.9983991907
 20
-23.2857279494
 10
-2.8497604808
 20
-23.7058510804
 10
-1.6970819961
 20
-24.0731613676
 10
-0.5430558707
 20
-24.3868009407
 10
0.609622614
 20
-24.64603728
 10
1.7582613239
 20
-24.8502649269
 10
2.9001775601
 20
-24.9990068985
 10
4.0327043244
 20
-25.0919158008
 10
5.153196548
 20
-25.1287746408
 10
6.2590372693
 20
-25.1094973331
 10
7.3476437462
 20
-25.0341289006
 10
8.4164734878
 20
-24.9028453699
 10
9.4630301927
 20
-24.7159533596
 10
10.4848695792
 20
-24.4738893648
 10
11.4796050941
 20
-24.1772187372
 10
12.4449134865
 20
-23.8266343646
 10
13.378540234
 20
-23.4229550532
 10
14.2783048079
 20
-22.9671236147
 10
15.1421057664
 20
-22.4602046646
 10
15.9679256624
 20
-21.9033821355
 10
16.7538357553
 20
-21.2979565122
 10
17.4980005156
 20
-20.6453417945
 10
17.7154826513
 20
-20.4380196171
  0
LWPOLYLINE
  5
90
330
1F
100
AcDbEntity
  8
0
  6
Continuous
 62
     7
370
    25
100
AcDbPolyline
 90
       34
 70
   128
 43
0.0
 10
-10.5833428354
 20
1.4786934568
 10
-10.5555757083
 20
0.7690609209
 10
-10.4724372756
 20
0.0484997705
 10
-10.3344154267
 20
-0.6787614549
 10
-10.1423201286
 20
-1.4084548973
 10
-9.8972786729
 20
-2.1362984255
 10
-9.6007290604
 20
-2.8580207643
 10
-9.2544115621
 20
-3.5693865599
 10
-8.8603585068
 20
-4.266221235
 10
-8.4208823545
 20
-4.9444354866
 10
-7.9385621259
 20
-5.6000492839
 10
-7.4162282681
 20
-6.2292152244
 10
-6.8569460437
 20
-6.8282411121
 10
-6.2639975433
 20
-7.3936116251
 10
-5.6408624244
 20
-7.9220089442
 10
-4.9911974917
 20
-8.4103322239
 10
-4.3188152373
 20
-8.855715789
 10
-3.6276614677
 20
-9.2555459518
 10
-2.921792148
 20
-9.6074763497
 10
-2.2053496
 20
-9.9094417153
 10
-1.4825381935
 20
-10.1596699957
 10
-0.7575996733
 20
-10.356692752
 10
-0.0347882669
 20
-10.4993537761
 10
0.6816542811
 20
-10.5868158766
 10
1.3875236008
 20
-10.618565791
 10
2.0786773704
 20
-10.5944171981
 10
2.7510596248
 20
-10.5145118116
 10
3.4007245575
 20
-10.3793185481
 10
4.0238596764
 20
-10.1896307753
 10
4.6168081769
 20
-9.9465616565
 10
5.1760904012
 20
-9.651537618
 10
5.6984242591
 20
-9.3062899781
 10
6.1807444876
 20
-8.9128447873
 10
6.2234792971
 20
-8.8738705848
  0
LWPOLYLINE
  5
93
330
1F
100
AcDbEntity
  8
0
  6
Continuous
 62
     7
370
    25
100
AcDbPolyline
 90
       20
 70
   128
 43
0.0
 10
-1.7688362434
 20
28.2858702708
 10
-3.0644448752
 20
28.5320135092
 10
-4.35378304
 20
28.7197745419
 10
-5.634212494
 20
28.8487691723
 10
-6.9031132224
 20
28.9187334515
 10
-8.1578888006
 20
28.9295242186
 10
-9.3959717069
 20
28.8811193936
 10
-10.6148285759
 20
28.7736180224
 10
-11.8119653829
 20
28.6072400744
 10
-12.9849325464
 20
28.382325992
 10
-14.1313299411
 20
28.0993359945
 10
-15.2488118086
 20
27.7588491359
 10
-16.3350915575
 20
27.3615621206
 10
-17.3879464423
 20
26.9082878772
 10
-18.4052221113
 20
26.3999538954
 10
-19.384837015
 20
25.8376003283
 10
-20.3247866654
 20
25.2223778636
 10
-21.2231477375
 20
24.5555453697
 10
-22.078082005
 20
23.8384673191
 10
-22.7005401561
 20
23.2580196195
  0
LWPOLYLINE
  5
9A
330
1F
100
AcDbEntity
  8
0
  6
Continuous
 62
     7
370
    25
100
AcDbPolyline
 90
       32
 70
   128
 43
0.0
 10
-9.4632739019
 20
2.5719150731
 10
-9.4355067749
 20
1.8622825372
 10
-9.3523683422
 20
1.1417213869
 10
-9.2143464932
 20
0.4144601614
 10
-9.0222511951
 20
-0.315233281
 10
-8.7772097395
 20
-1.0430768092
 10
-8.480660127
 20
-1.764799148
 10
-8.1343426287
 20
-2.4761649435
 10
-7.7402895734
 20
-3.1729996186
 10
-7.300813421
 20
-3.8512138703
 10
-6.8184931925
 20
-4.5068276676
 10
-6.2961593347
 20
-5.1359936081
 10
-5.7368771103
 20
-5.7350194958
 10
-5.1439286099
 20
-6.3003900087
 10
-4.520793491
 20
-6.8287873278
 10
-3.8711285582
 20
-7.3171106076
 10
-3.1987463039
 20
-7.7624941727
 10
-2.5075925342
 20
-8.1623243354
 10
-1.8017232145
 20
-8.5142547333
 10
-1.0852806666
 20
-8.8162200989
 10
-0.3624692601
 20
-9.0664483794
 10
0.3624692601
 20
-9.2634711356
 10
1.0852806666
 20
-9.4061321598
 10
1.8017232145
 20
-9.4935942602
 10
2.5075925342
 20
-9.5253441746
 10
3.1987463039
 20
-9.5011955818
 10
3.8711285582
 20
-9.4212901953
 10
4.520793491
 20
-9.2860969318
 10
5.1439286099
 20
-9.0964091589
 10
5.7368771103
 20
-8.8533400402
 10
6.2961593347
 20
-8.5583160016
 10
6.7326054914
 20
-8.2751012998
  0
LWPOLYLINE
  5
9B
330
1F
100
AcDbEntity
  8
0
  6
Continuous
 62
     7
370
    25
100
AcDbPolyline
 90
        3
 70
   128
 43
0.0
 10
-27.416961772
 20
5.7370081338
 10
-27.0718789397
 20
5.6761624729
 10
-26.8224633864
 20
5.6751628027
  0
LWPOLYLINE
  5
A1
330
1F
100
AcDbEntity
  8
0
  6
Continuous
 62
     7
370
    25
100
AcDbPolyline
 90
       52
 70
   128
 43
0.0
 10
22.317011291
 20
-7.4629178255
 10
22.2887803015
 20
-6.3406762896
 10
22.2041553437
 20
-5.2057931758
 10
22.0633402868
 20
-4.0610025169
 10
21.8666743663
 20
-2.9090622139
 10
21.6146313679
 20
-1.7527473918
 10
21.3078184851
 20
-0.5948437144
 10
20.9469748571
 20
0.561859327
 10
20.5329697878
 20
1.7145751335
 10
20.0668006515
 20
2.8605267116
 10
19.5495904908
 20
3.9969533637
 10
18.98258531
 20
5.1211173385
 10
18.3671510743
 20
6.2303104264
 10
17.7047704188
 20
7.3218604841
 10
16.9970390764
 20
8.393137872
 10
16.2456620339
 20
9.4415617889
 10
15.4524494245
 20
10.46460649
 10
14.6193121668
 20
11.4598073707
 10
13.7482573614
 20
12.4247669051
 10
12.8413834556
 20
13.3571604211
 10
11.9008751882
 20
14.2547417011
 10
10.9289983258
 20
15.1153483932
 10
9.9280942051
 20
15.9369072203
 10
8.9005740917
 20
16.7174389755
 10
7.8489133715
 20
17.4550632892
 10
6.7756455873
 20
18.14800316
 10
5.6833563353
 20
18.794589235
 10
4.5746770359
 20
19.3932638316
 10
3.4522785947
 20
19.9425846904
 10
2.3188649677
 20
20.4412284493
 10
1.1771666478
 20
20.8879938318
 10
0.0299340862
 20
21.281804541
 10
-1.1200689334
 20
21.6217118523
 10
-2.2700719531
 20
21.9068968993
 10
-3.4173045147
 20
22.1366726462
 10
-4.5590028346
 20
22.3104855431
 10
-5.6924164615
 20
22.4279168596
 10
-6.8148149028
 20
22.4886836933
 10
-7.9234942022
 20
22.4926396515
 10
-9.0157834542
 20
22.4397752041
 10
-10.0890512383
 20
22.3302177061
 10
-11.1407119585
 20
22.1642310911
 10
-12.168232072
 20
21.9422152354
 10
-13.1691361927
 20
21.6647049947
 10
-14.141013055
 20
21.3323689155
 10
-15.0815213225
 20
20.9460076243
 10
-15.9883952282
 20
20.5065518996
 10
-16.8594500336
 20
20.0150604285
 10
-17.6925872914
 20
19.4727172571
 10
-18.4857999008
 20
18.8808289376
 10
-19.2371769432
 20
18.2408213808
 10
-19.6297401377
 20
17.8710097657
  0
LWPOLYLINE
  5
A2
330
1F
100
AcDbEntity
  8
0
  6
Continuous
 62
     7
370
    25
100
AcDbPolyline
 90
       65
 70
   128
 43
0.0
 10
22.0603288271
 20
-7.7134477792
 10
22.0320978376
 20
-6.5912062433
 10
21.9474728798
 20
-5.4563231296
 10
21.8066578228
 20
-4.3115324707
 10
21.6099919024
 20
-3.1595921677
 10
21.357948904
 20
-2.0032773456
 10
21.0511360212
 20
-0.8453736682
 10
20.6902923932
 20
0.3113293733
 10
20.2762873239
 20
1.4640451797
 10
19.8101181876
 20
2.6099967579
 10
19.2929080268
 20
3.74642341
 10
18.725902846
 20
4.8705873847
 10
18.1104686104
 20
5.9797804726
 10
17.4480879549
 20
7.0713305304
 10
16.7403566125
 20
8.1426079182
 10
15.98897957
 20
9.1910318352
 10
15.1957669606
 20
10.2140765362
 10
14.3626297029
 20
11.209277417
 10
13.4915748975
 20
12.1742369514
 10
12.5847009917
 20
13.1066304674
 10
11.6441927243
 20
14.0042117474
 10
10.6723158619
 20
14.8648184394
 10
9.6714117412
 20
15.6863772666
 10
8.6438916278
 20
16.4669090217
 10
7.5922309076
 20
17.2045333355
 10
6.5189631234
 20
17.8974732063
 10
5.4266738714
 20
18.5440592812
 10
4.317994572
 20
19.1427338779
 10
3.1955961308
 20
19.6920547367
 10
2.0621825038
 20
20.1906984956
 10
0.9204841839
 20
20.6374638781
 10
-0.2267483777
 20
21.0312745872
 10
-1.3767513973
 20
21.3711818985
 10
-2.526754417
 20
21.6563669455
 10
-3.6739869786
 20
21.8861426924
 10
-4.8156852985
 20
22.0599555894
 10
-5.9490989254
 20
22.1773869059
 10
-7.0714973667
 20
22.2381537395
 10
-8.1801766661
 20
22.2421096978
 10
-9.2724659181
 20
22.1892452504
 10
-10.3457337023
 20
22.0796877524
 10
-11.3973944224
 20
21.9137011374
 10
-12.4249145359
 20
21.6916852817
 10
-13.4258186566
 20
21.414175041
 10
-14.3976955189
 20
21.0818389617
 10
-15.3382037864
 20
20.6954776706
 10
-16.2450776921
 20
20.2560219458
 10
-17.1161324975
 20
19.7645304747
 10
-17.9492697553
 20
19.2221873034
 10
-18.7424823647
 20
18.6302989838
 10
-19.4938594071
 20
17.990291427
 10
-20.2015907495
 20
17.3037064672
 10
-20.8639714051
 20
16.5721981476
 10
-21.4794056407
 20
15.7975287359
 10
-22.0464108215
 20
14.9815644785
 10
-22.5636209823
 20
14.1262711049
 10
-23.0297901185
 20
13.2337090916
 10
-23.4437951879
 20
12.3060286987
 10
-23.8046388159
 20
11.3454647896
 10
-24.1114516987
 20
10.3543314468
 10
-24.3634946971
 20
9.3350163974
 10
-24.5601606175
 20
8.2899752607
 10
-24.7009756745
 20
7.2217256322
 10
-24.7856006322
 20
6.1328410188
 10
-24.8138316218
 20
5.0259446391
  0
LWPOLYLINE
  5
A3
330
1F
100
AcDbEntity
  8
0
  6
Continuous
 62
     7
370
    25
100
AcDbPolyline
 90
       65
 70
   128
 43
0.0
 10
-24.8138316218
 20
5.0259446391
 10
-24.7856006322
 20
3.9037031032
 10
-24.7009756745
 20
2.7688199894
 10
-24.5601606175
 20
1.6240293305
 10
-24.3634946971
 20
0.4720890275
 10
-24.1114516987
 20
-0.6842257946
 10
-23.8046388159
 20
-1.842129472
 10
-23.4437951879
 20
-2.9988325134
 10
-23.0297901185
 20
-4.1515483199
 10
-22.5636209823
 20
-5.297499898
 10
-22.0464108215
 20
-6.4339265501
 10
-21.4794056407
 20
-7.5580905249
 10
-20.8639714051
 20
-8.6672836128
 10
-20.2015907495
 20
-9.7588336705
 10
-19.4938594071
 20
-10.8301110584
 10
-18.7424823647
 20
-11.8785349754
 10
-17.9492697553
 20
-12.9015796764
 10
-17.1161324975
 20
-13.8967805571
 10
-16.2450776921
 20
-14.8617400915
 10
-15.3382037864
 20
-15.7941336075
 10
-14.3976955189
 20
-16.6917148875
 10
-13.4258186566
 20
-17.5523215796
 10
-12.4249145359
 20
-18.3738804067
 10
-11.3973944224
 20
-19.1544121619
 10
-10.3457337023
 20
-19.8920364756
 10
-9.2724659181
 20
-20.5849763464
 10
-8.1801766661
 20
-21.2315624214
 10
-7.0714973667
 20
-21.830237018
 10
-5.9490989254
 20
-22.3795578768
 10
-4.8156852985
 20
-22.8782016357
 10
-3.6739869786
 20
-23.3249670182
 10
-2.526754417
 20
-23.7187777274
 10
-1.3767513973
 20
-24.0586850387
 10
-0.2267483777
 20
-24.3438700857
 10
0.9204841839
 20
-24.5736458326
 10
2.0621825038
 20
-24.7474587295
 10
3.1955961308
 20
-24.864890046
 10
4.317994572
 20
-24.9256568797
 10
5.4266738714
 20
-24.9296128379
 10
6.5189631234
 20
-24.8767483905
 10
7.5922309076
 20
-24.7671908925
 10
8.6438916278
 20
-24.6012042775
 10
9.6714117412
 20
-24.3791884218
 10
10.6723158619
 20
-24.1016781811
 10
11.6441927243
 20
-23.7693421019
 10
12.5847009917
 20
-23.3829808107
 10
13.4915748975
 20
-22.943525086
 10
14.3626297029
 20
-22.4520336149
 10
15.1957669606
 20
-21.9096904435
 10
15.98897957
 20
-21.317802124
 10
16.7403566125
 20
-20.6777945672
 10
17.4480879549
 20
-19.9912096073
 10
18.1104686104
 20
-19.2597012877
 10
18.725902846
 20
-18.485031876
 10
19.2929080268
 20
-17.6690676187
 10
19.8101181876
 20
-16.813774245
 10
20.2762873239
 20
-15.9212122317
 10
20.6902923932
 20
-14.9935318388
 10
21.0511360212
 20
-14.0329679297
 10
21.357948904
 20
-13.041834587
 10
21.6099919024
 20
-12.0225195376
 10
21.8066578228
 20
-10.9774784008
 10
21.9474728798
 20
-9.9092287723
 10
22.0320978376
 20
-8.820344159
 10
22.0603288271
 20
-7.7134477792
  0
LWPOLYLINE
  5
A4
330
1F
100
AcDbEntity
  8
0
  6
Continuous
 62
     7
370
    25
100
AcDbPolyline
 90
       42
 70
   128
 43
0.0
 10
8.0865225046
 20
-3.9156666432
 10
8.0587553775
 20
-3.2060341073
 10
7.9756169448
 20
-2.4854729569
 10
7.8375950959
 20
-1.7582117315
 10
7.6454997978
 20
-1.0285182891
 10
7.4004583422
 20
-0.3006747609
 10
7.1039087297
 20
0.4210475779
 10
6.7575912314
 20
1.1324133735
 10
6.363538176
 20
1.8292480486
 10
5.9240620237
 20
2.5074623002
 10
5.4417417952
 20
3.1630760975
 10
4.9194079373
 20
3.792242038
 10
4.360125713
 20
4.3912679257
 10
3.7671772125
 20
4.9566384387
 10
3.1440420936
 20
5.4850357578
 10
2.4943771609
 20
5.9733590375
 10
1.8219949065
 20
6.4187426026
 10
1.1308411369
 20
6.8185727654
 10
0.4249718172
 20
7.1705031633
 10
-0.2914707308
 20
7.4724685289
 10
-1.0142821372
 20
7.7226968093
 10
-1.7392206574
 20
7.9197195656
 10
-2.4620320639
 20
8.0623805897
 10
-3.1784746119
 20
8.1498426902
 10
-3.8843439316
 20
8.1815926045
 10
-4.5754977012
 20
8.1574440117
 10
-5.2478799556
 20
8.0775386252
 10
-5.8975448883
 20
7.9423453617
 10
-6.5206800072
 20
7.7526575889
 10
-7.1136285076
 20
7.5095884701
 10
-7.672910732
 20
7.2145644316
 10
-8.1952445899
 20
6.8693167917
 10
-8.6775648184
 20
6.4758716009
 10
-9.1170409707
 20
6.036537752
 10
-9.5110940261
 20
5.5538934307
 10
-9.8574115244
 20
5.0307709858
 10
-10.1539611369
 20
4.4702403078
 10
-10.3990025925
 20
3.8755908137
 10
-10.5910978906
 20
3.2503121431
 10
-10.7291197395
 20
2.5980736798
 10
-10.8122581722
 20
1.9227030186
 10
-10.8400252993
 20
1.228163503
  0
LWPOLYLINE
  5
A5
330
1F
100
AcDbEntity
  8
0
  6
Continuous
 62
     7
370
    25
100
AcDbPolyline
 90
       42
 70
   128
 43
0.0
 10
-10.8400252993
 20
1.228163503
 10
-10.8122581722
 20
0.5185309671
 10
-10.7291197395
 20
-0.2020301832
 10
-10.5910978906
 20
-0.9292914086
 10
-10.3990025925
 20
-1.6589848511
 10
-10.1539611369
 20
-2.3868283793
 10
-9.8574115244
 20
-3.108550718
 10
-9.5110940261
 20
-3.8199165136
 10
-9.1170409707
 20
-4.5167511887
 10
-8.6775648184
 20
-5.1949654404
 10
-8.1952445899
 20
-5.8505792377
 10
-7.672910732
 20
-6.4797451781
 10
-7.1136285076
 20
-7.0787710659
 10
-6.5206800072
 20
-7.6441415788
 10
-5.8975448883
 20
-8.1725388979
 10
-5.2478799556
 20
-8.6608621776
 10
-4.5754977012
 20
-9.1062457428
 10
-3.8843439316
 20
-9.5060759055
 10
-3.1784746119
 20
-9.8580063034
 10
-2.4620320639
 20
-10.159971669
 10
-1.7392206574
 20
-10.4101999495
 10
-1.0142821372
 20
-10.6072227057
 10
-0.2914707308
 20
-10.7498837299
 10
0.4249718172
 20
-10.8373458303
 10
1.1308411369
 20
-10.8690957447
 10
1.8219949065
 20
-10.8449471519
 10
2.4943771609
 20
-10.7650417654
 10
3.1440420936
 20
-10.6298485018
 10
3.7671772125
 20
-10.440160729
 10
4.360125713
 20
-10.1970916102
 10
4.9194079373
 20
-9.9020675717
 10
5.4417417952
 20
-9.5568199318
 10
5.9240620237
 20
-9.163374741
 10
6.363538176
 20
-8.7240408921
 10
6.7575912314
 20
-8.2413965708
 10
7.1039087297
 20
-7.7182741259
 10
7.4004583422
 20
-7.157743448
 10
7.6454997978
 20
-6.5630939538
 10
7.8375950959
 20
-5.9378152832
 10
7.9756169448
 20
-5.28557682
 10
8.0587553775
 20
-4.6102061588
 10
8.0865225046
 20
-3.9156666432
  0
LWPOLYLINE
  5
A8
330
1F
100
AcDbEntity
  8
0
  6
Continuous
 62
     7
370
    25
100
AcDbPolyline
 90
       34
 70
   128
 43
0.0
 10
-10.5833428354
 20
1.4786934568
 10
-10.5555757083
 20
0.7690609209
 10
-10.4724372756
 20
0.0484997705
 10
-10.3344154267
 20
-0.6787614549
 10
-10.1423201286
 20
-1.4084548973
 10
-9.8972786729
 20
-2.1362984255
 10
-9.6007290604
 20
-2.8580207643
 10
-9.2544115621
 20
-3.5693865599
 10
-8.8603585068
 20
-4.266221235
 10
-8.4208823545
 20
-4.9444354866
 10
-7.9385621259
 20
-5.6000492839
 10
-7.4162282681
 20
-6.2292152244
 10
-6.8569460437
 20
-6.8282411121
 10
-6.2639975433
 20
-7.3936116251
 10
-5.6408624244
 20
-7.9220089442
 10
-4.9911974917
 20
-8.4103322239
 10
-4.3188152373
 20
-8.855715789
 10
-3.6276614677
 20
-9.2555459518
 10
-2.921792148
 20
-9.6074763497
 10
-2.2053496
 20
-9.9094417153
 10
-1.4825381935
 20
-10.1596699957
 10
-0.7575996733
 20
-10.356692752
 10
-0.0347882669
 20
-10.4993537761
 10
0.6816542811
 20
-10.5868158766
 10
1.3875236008
 20
-10.618565791
 10
2.0786773704
 20
-10.5944171981
 10
2.7510596248
 20
-10.5145118116
 10
3.4007245575
 20
-10.3793185481
 10
4.0238596764
 20
-10.1896307753
 10
4.6168081769
 20
-9.9465616565
 10
5.1760904012
 20
-9.651537618
 10
5.6984242591
 20
-9.3062899781
 10
6.1807444876
 20
-8.9128447873
 10
6.2234792971
 20
-8.8738705848
  0
LINE
  5
A9
330
1F
100
AcDbEntity
  8
0
  6
Continuous
 62
     7
370
    25
100
AcDbLine
 10
-22.7005401561
 20
23.2580196195
 30
0.0
 11
-23.8672786285
 21
22.1192471025
 31
0.0
  0
LINE
  5
AA
330
1F
100
AcDbEntity
  8
0
  6
Continuous
 62
     7
370
    25
100
AcDbLine
 10
21.5338016838
 20
-24.3967921365
 30
0.0
 11
22.7005401561
 21
-23.2580196195
 31
0.0
  0
LINE
  5
AB
330
1F
100
AcDbEntity
  8
0
  6
Continuous
 62
     7
370
    25
100
AcDbLine
 10
-19.6297401377
 20
17.8710097657
 30
0.0
 11
-19.8864226016
 21
17.6204798119
 31
0.0
  0
LINE
  5
AC
330
1F
100
AcDbEntity
  8
0
  6
Continuous
 62
     7
370
    25
100
AcDbLine
 10
17.1329198069
 20
-20.3079829521
 30
0.0
 11
17.3896022708
 21
-20.0574529984
 31
0.0
  0
LINE
  5
AD
330
1F
100
AcDbEntity
  8
0
  6
Continuous
 62
     7
370
    25
100
AcDbLine
 10
-28.5837002443
 20
8.0269048196
 30
0.0
 11
-29.8558500712
 21
8.3726478837
 31
0.0
  0
LINE
  5
AE
330
1F
100
AcDbEntity
  8
0
  6
Continuous
 62
     7
370
    25
100
AcDbLine
 10
-2.9355747157
 20
27.1470977538
 30
0.0
 11
-2.9355747157
 21
25.9141455941
 31
0.0
  0
LINE
  5
AF
330
1F
100
AcDbEntity
  8
0
  6
Continuous
 62
     7
370
    25
100
AcDbLine
 10
0.602097771
 20
24.9526820154
 30
0.0
 11
0.602097771
 21
26.185634175
 31
0.0
  0
LINE
  5
B0
330
1F
100
AcDbEntity
  8
0
  6
Continuous
 62
     7
370
    25
100
AcDbLine
 10
27.5223731265
 20
-7.2215237149
 30
0.0
 11
26.2502232997
 21
-6.8757806508
 31
0.0
  0
LINE
  5
B1
330
1F
100
AcDbEntity
  8
0
  6
Continuous
 62
     7
370
    25
100
AcDbLine
 10
26.2502232997
 20
-10.3044498536
 30
0.0
 11
27.5223731265
 21
-10.6501929177
 31
0.0
  0
LINE
  5
B2
330
1F
100
AcDbEntity
  8
0
  6
Continuous
 62
     7
370
    25
100
AcDbLine
 10
0.602097771
 20
-29.4246427878
 30
0.0
 11
0.602097771
 21
-28.1916906281
 31
0.0
  0
LINE
  5
B3
330
1F
100
AcDbEntity
  8
0
  6
Continuous
 62
     7
370
    25
100
AcDbLine
 10
-2.9355747157
 20
-27.2302270494
 30
0.0
 11
-2.9355747157
 21
-28.4631792091
 31
0.0
  0
LINE
  5
B4
330
1F
100
AcDbEntity
  8
0
  6
Continuous
 62
     7
370
    25
100
AcDbLine
 10
-29.8558500712
 20
4.9439786808
 30
0.0
 11
-28.5837002443
 21
4.5982356168
 31
0.0
  0
LINE
  5
B5
330
1F
100
AcDbEntity
  8
0
  6
Continuous
 62
     7
370
    25
100
AcDbLine
 10
1.7688362434
 20
27.324406692
 30
0.0
 11
0.602097771
 21
26.185634175
 31
0.0
  0
LINE
  5
B6
330
1F
100
AcDbEntity
  8
0
  6
Continuous
 62
     7
370
    25
100
AcDbLine
 10
27.5223731265
 20
-7.2215237149
 30
0.0
 11
28.6891115988
 21
-6.0827511979
 31
0.0
  0
LINE
  5
B7
330
1F
100
AcDbEntity
  8
0
  6
Continuous
 62
     7
370
    25
100
AcDbLine
 10
-2.9355747157
 20
27.1470977538
 30
0.0
 11
-1.7688362434
 21
28.2858702708
 31
0.0
  0
LINE
  5
B8
330
1F
100
AcDbEntity
  8
0
  6
Continuous
 62
     7
370
    25
100
AcDbLine
 10
-1.7688362434
 20
28.2858702708
 30
0.0
 11
-1.7688362434
 21
27.0529181111
 31
0.0
  0
LINE
  5
B9
330
1F
100
AcDbEntity
  8
0
  6
Continuous
 62
     7
370
    25
100
AcDbLine
 10
28.6891115988
 20
-9.5114204007
 30
0.0
 11
27.5223731265
 21
-10.6501929177
 31
0.0
  0
LINE
  5
BA
330
1F
100
AcDbEntity
  8
0
  6
Continuous
 62
     7
370
    25
100
AcDbLine
 10
27.416961772
 20
-9.1656773366
 30
0.0
 11
28.6891115988
 21
-9.5114204007
 31
0.0
  0
LINE
  5
BB
330
1F
100
AcDbEntity
  8
0
  6
Continuous
 62
     7
370
    25
100
AcDbLine
 10
-29.8558500712
 20
4.9439786808
 30
0.0
 11
-28.6891115988
 21
6.0827511979
 31
0.0
  0
LINE
  5
BC
330
1F
100
AcDbEntity
  8
0
  6
Continuous
 62
     7
370
    25
100
AcDbLine
 10
-28.6891115988
 20
6.0827511979
 30
0.0
 11
-27.416961772
 21
5.7370081338
 31
0.0
  0
LINE
  5
BD
330
1F
100
AcDbEntity
  8
0
  6
Continuous
 62
     7
370
    25
100
AcDbLine
 10
-1.761236858
 20
-25.9347789063
 30
0.0
 11
-1.7688362434
 21
-26.0914545324
 31
0.0
  0
LINE
  5
BE
330
1F
100
AcDbEntity
  8
0
  6
Continuous
 62
     7
370
    25
100
AcDbLine
 10
-1.7688362434
 20
-27.324406692
 30
0.0
 11
-2.9355747157
 21
-28.4631792091
 31
0.0
  0
LINE
  5
BF
330
1F
100
AcDbEntity
  8
0
  6
Continuous
 62
     7
370
    25
100
AcDbLine
 10
-1.7688362434
 20
-26.0914545324
 30
0.0
 11
-1.7688362434
 21
-27.324406692
 31
0.0
  0
ARC
  5
C0
330
1F
100
AcDbEntity
  8
0
  6
Continuous
 62
     7
370
    25
100
AcDbCircle
 10
-28.1148505367
 20
5.8109115338
 30
0.0
 40
1.300154963088901
100
AcDbArc
 50
248.862298024
 51
0.9222550965
  0
ARC
  5
C1
330
1F
100
AcDbEntity
  8
0
  6
Continuous
 62
     7
370
    25
100
AcDbCircle
 10
-29.2396083906
 20
5.6881404064
 30
0.0
 40
2.428998657233027
100
AcDbArc
 50
3.391562315
 51
74.3338098233
  0
ARC
  5
C2
330
1F
100
AcDbEntity
  8
0
  6
Continuous
 62
     7
370
    25
100
AcDbCircle
 10
-7.3985330891
 20
5.9097801093
 30
0.0
 40
17.60830315547512
100
AcDbArc
 50
135.7075590017
 51
181.6698894798
  0
ARC
  5
C3
330
1F
100
AcDbEntity
  8
0
  6
Continuous
 62
     7
370
    25
100
AcDbCircle
 10
-3.5757273835
 20
1.6747055214
 30
0.0
 40
7.010356271354755
100
AcDbArc
 50
137.2103999625
 51
181.6022192648
  0
ARC
  5
C4
330
1F
100
AcDbEntity
  8
0
  6
Continuous
 62
     7
370
    25
100
AcDbCircle
 10
0.577204826
 20
27.1437411388
 30
0.0
 40
2.347798441416487
100
AcDbArc
 50
182.2170024656
 51
270.4220366288
  0
ARC
  5
C5
330
1F
100
AcDbEntity
  8
0
  6
Continuous
 62
     7
370
    25
100
AcDbCircle
 10
28.0135768933
 20
-6.8834952796
 30
0.0
 40
2.35887781458275
100
AcDbArc
 50
178.3101837901
 51
255.349435303
  0
ARC
  5
C6
330
1F
100
AcDbEntity
  8
0
  6
Continuous
 62
     7
370
    25
100
AcDbCircle
 10
7.9713697283
 20
-8.6636697582
 30
0.0
 40
20.73507919841096
100
AcDbArc
 50
315.2634265924
 51
357.6568174304
  0
ARC
  5
C7
330
1F
100
AcDbEntity
  8
0
  6
Continuous
 62
     7
370
    25
100
AcDbCircle
 10
-2.3000450325
 20
2.7371804167
 30
0.0
 40
7.16513506296086
100
AcDbArc
 50
144.1717130997
 51
181.3216563816
  0
ARC
  5
C8
330
1F
100
AcDbEntity
  8
0
  6
Continuous
 62
     7
370
    25
100
AcDbCircle
 10
5.0621333915
 20
-7.9733770718
 30
0.0
 40
17.26242682737156
100
AcDbArc
 50
315.5712431145
 51
1.6945140313
  0
LINE
  5
E0
330
1B
100
AcDbEntity
 67
     1
  8
0
  6
Continuous
 62
     7
370
    25
100
AcDbLine
 10
2.0
 20
31.0
 30
0.0
 11
2.0
 21
32.4384031666
 31
0.0
  0
LINE
  5
E1
330
1B
100
AcDbEntity
 67
     1
  8
0
  6
Continuous
 62
     7
370
    25
100
AcDbLine
 10
32.4384031666
 20
2.0
 30
0.0
 11
31.0
 21
2.0
 31
0.0
  0
LINE
  5
E2
330
1B
100
AcDbEntity
 67
     1
  8
0
  6
Continuous
 62
     7
370
    25
100
AcDbLine
 10
31.0
 20
-2.0
 30
0.0
 11
32.4384031666
 21
-2.0
 31
0.0
  0
LINE
  5
E3
330
1B
100
AcDbEntity
 67
     1
  8
0
  6
Continuous
 62
     7
370
    25
100
AcDbLine
 10
-2.0
 20
32.4384031666
 30
0.0
 11
-2.0
 21
31.0
 31
0.0
  0
LINE
  5
E4
330
1B
100
AcDbEntity
 67
     1
  8
0
  6
Continuous
 62
     7
370
    25
100
AcDbLine
 10
-2.0
 20
-31.0
 30
0.0
 11
-2.0
 21
-32.4384031666
 31
0.0
  0
LINE
  5
E5
330
1B
100
AcDbEntity
 67
     1
  8
0
  6
Continuous
 62
     7
370
    25
100
AcDbLine
 10
-31.0
 20
2.0
 30
0.0
 11
-32.4384031666
 21
2.0
 31
0.0
  0
LINE
  5
E6
330
1B
100
AcDbEntity
 67
     1
  8
0
  6
Continuous
 62
     7
370
    25
100
AcDbLine
 10
2.0
 20
-32.4384031666
 30
0.0
 11
2.0
 21
-31.0
 31
0.0
  0
LINE
  5
E7
330
1B
100
AcDbEntity
 67
     1
  8
0
  6
Continuous
 62
     7
370
    25
100
AcDbLine
 10
-32.4384031666
 20
-2.0
 30
0.0
 11
-31.0
 21
-2.0
 31
0.0
  0
ARC
  5
E8
330
1B
100
AcDbEntity
 67
     1
  8
0
  6
Continuous
 62
     7
370
    25
100
AcDbCircle
 10
0.0
 20
0.0
 30
0.0
 40
32.49999999999996
100
AcDbArc
 50
93.5281233413
 51
176.4718766587
  0
ARC
  5
E9
330
1B
100
AcDbEntity
 67
     1
  8
0
  6
Continuous
 62
     7
370
    25
100
AcDbCircle
 10
0.0
 20
0.0
 30
0.0
 40
32.50000000000004
100
AcDbArc
 50
3.5281233413
 51
86.4718766587
  0
ARC
  5
EA
330
1B
100
AcDbEntity
 67
     1
  8
0
  6
Continuous
 62
     7
370
    25
100
AcDbCircle
 10
0.0
 20
0.0
 30
0.0
 40
32.49999999999994
100
AcDbArc
 50
273.5281233413
 51
356.4718766587
  0
ARC
  5
EB
330
1B
100
AcDbEntity
 67
     1
  8
0
  6
Continuous
 62
     7
370
    25
100
AcDbCircle
 10
0.0
 20
0.0
 30
0.0
 40
32.49999999999999
100
AcDbArc
 50
183.5281233413
 51
266.4718766587
  0
ARC
  5
EC
330
1B
100
AcDbEntity
 67
     1
  8
0
  6
Continuous
 62
     7
370
    25
100
AcDbCircle
 10
0.0
 20
0.0
 30
0.0
 40
27.0
100
AcDbArc
 50
180.0
 51
0.0
  0
ARC
  5
ED
330
1B
100
AcDbEntity
 67
     1
  8
0
  6
Continuous
 62
     7
370
    25
100
AcDbCircle
 10
-31.0
 20
0.0
 30
0.0
 40
2.000000000000002
100
AcDbArc
 50
270.0
 51
90.0
  0
ARC
  5
EE
330
1B
100
AcDbEntity
 67
     1
  8
0
  6
Continuous
 62
     7
370
    25
100
AcDbCircle
 10
0.0
 20
-31.0
 30
0.0
 40
2.0
100
AcDbArc
 50
0.0
 51
180.0
  0
ARC
  5
EF
330
1B
100
AcDbEntity
 67
     1
  8
0
  6
Continuous
 62
     7
370
    25
100
AcDbCircle
 10
0.0
 20
31.0
 30
0.0
 40
2.0
100
AcDbArc
 50
180.0
 51
0.0
  0
ARC
  5
F0
330
1B
100
AcDbEntity
 67
     1
  8
0
  6
Continuous
 62
     7
370
    25
100
AcDbCircle
 10
31.0
 20
0.0
 30
0.0
 40
2.0
100
AcDbArc
 50
90.0
 51
270.0
  0
ARC
  5
F1
330
1B
100
AcDbEntity
 67
     1
  8
0
  6
Continuous
 62
     7
370
    25
100
AcDbCircle
 10
0.0
 20
0.0
 30
0.0
 40
26.5
100
AcDbArc
 50
0.0
 51
180.0
  0
ARC
  5
F2
330
1B
100
AcDbEntity
 67
     1
  8
0
  6
Continuous
 62
     7
370
    25
100
AcDbCircle
 10
0.0
 20
0.0
 30
0.0
 40
10.7
100
AcDbArc
 50
0.0
 51
180.0
  0
VIEWPORT
  5
297
330
1B
100
AcDbEntity
 67
     1
  8
0
100
AcDbViewport
 10
0.0
 20
0.0
 30
0.0
 40
205.6
 41
156.0
 68
     1
 69
     1
 12
-0.5833692362
 22
-0.5693862585
 13
0.0
 23
0.0
 14
10.0
 24
10.0
 15
10.0
 25
10.0
 16
0.0
 26
0.0
 36
1.0
 17
0.0
 27
0.0
 37
0.0
 42
50.0
 43
0.0
 44
0.0
 45
60.1777773733
 50
0.0
 51
0.0
 72
   100
 90
   557152
  1

281
     0
 71
     1
 74
     0
110
0.0
120
0.0
130
0.0
111
1.0
121
0.0
131
0.0
112
0.0
122
1.0
132
0.0
 79
     0
146
0.0
  0
ENDSEC
  0
SECTION
  2
OBJECTS
  0
DICTIONARY
  5
C
330
0
100
AcDbDictionary
281
     1
  3
ACAD_GROUP
350
D
  3
ACAD_LAYOUT
350
1A
  3
ACAD_MLINESTYLE
350
17
  3
ACAD_PLOTSETTINGS
350
19
  3
ACAD_PLOTSTYLENAME
350
E
  3
ACAD_SCALELIST
350
47
  3
DWGPROPS
350
2A9
  0
DICTIONARY
  5
D
102
{ACAD_REACTORS
330
C
102
}
330
C
100
AcDbDictionary
281
     1
  0
DICTIONARY
  5
1A
102
{ACAD_REACTORS
330
C
102
}
330
C
100
AcDbDictionary
281
     1
  3
_Back
350
26
  3
_Bottom
350
16A
  3
_Dimetric
350
237
  3
_Front
350
1E
  3
_Isometric
350
184
  3
_Left
350
118
  3
_Right
350
135
  3
_Top
350
150
  3
_Trimetric
350
1DD
  3
Model
350
22
  0
DICTIONARY
  5
17
102
{ACAD_REACTORS
330
C
102
}
330
C
100
AcDbDictionary
281
     1
  3
Standard
350
18
  0
DICTIONARY
  5
19
102
{ACAD_REACTORS
330
C
102
}
330
C
100
AcDbDictionary
281
     1
  0
ACDBDICTIONARYWDFLT
  5
E
102
{ACAD_REACTORS
330
C
102
}
330
C
100
AcDbDictionary
281
     1
  3
Normal
350
F
100
AcDbDictionaryWithDefault
340
F
  0
DICTIONARY
  5
47
102
{ACAD_REACTORS
330
C
102
}
330
C
100
AcDbDictionary
281
     1
  3
A0
350
48
  3
A1
350
49
  3
A2
350
4A
  3
A3
350
4B
  3
A4
350
4C
  3
A5
350
4D
  3
A6
350
4E
  3
A7
350
4F
  3
A8
350
50
  3
A9
350
51
  3
B0
350
52
  3
B1
350
53
  3
B2
350
54
  3
B3
350
55
  3
B4
350
56
  3
B5
350
57
  3
B6
350
58
  3
B7
350
59
  3
B8
350
5A
  3
B9
350
5B
  3
C0
350
5C
  3
C1
350
5D
  3
C2
350
5E
  3
C3
350
5F
  3
C4
350
60
  3
C5
350
61
  3
C6
350
62
  3
C7
350
63
  3
C8
350
64
  3
C9
350
65
  3
D0
350
66
  3
D1
350
67
  3
D2
350
68
  0
XRECORD
  5
2A9
102
{ACAD_REACTORS
330
C
102
}
330
C
100
AcDbXrecord
280
     1
  1
DWGPROPS COOKIE
  2

  3

  4

  6

  7

  8
16097
  9

300
=
301
=
302
=
303
=
304
=
305
=
306
=
307
=
308
=
309
=
 40
0.0
 41
2460454.764579329
 42
2460454.76461809
  1

 90
        0
  0
LAYOUT
  5
26
102
{ACAD_REACTORS
330
1A
102
}
330
1A
100
AcDbPlotSettings
  1

  2
none_device
  4
ISO_A4_(210.00_x_297.00_MM)
  6

 40
7.5
 41
20.0
 42
7.5
 43
20.0
 44
210.0
 45
297.0
 46
0.0
 47
0.0
 48
0.0
 49
0.0
140
0.0
141
0.0
142
1.0
143
0.3327015709
 70
   688
 72
     1
 73
     1
 74
     1
  7

 75
     0
147
3.0056966583
148
32.4384031666
149
32.4384031666
100
AcDbLayout
  1
_Back
 70
     1
 71
     2
 10
0.0
 20
0.0
 11
0.0
 21
0.0
 12
0.0
 22
0.0
 32
0.0
 14
0.0
 24
0.0
 34
0.0
 15
0.0
 25
0.0
 35
0.0
146
0.0
 13
0.0
 23
0.0
 33
0.0
 16
1.0
 26
0.0
 36
0.0
 17
0.0
 27
1.0
 37
0.0
 76
     0
330
23
331
299
  0
LAYOUT
  5
16A
102
{ACAD_REACTORS
330
1A
102
}
330
1A
100
AcDbPlotSettings
  1

  2
none_device
  4
ISO_A4_(210.00_x_297.00_MM)
  6

 40
7.5
 41
20.0
 42
7.5
 43
20.0
 44
210.0
 45
297.0
 46
0.0
 47
0.0
 48
0.0
 49
0.0
140
0.0
141
0.0
142
1.0
143
0.3327015709
 70
   688
 72
     1
 73
     1
 74
     1
  7

 75
     0
147
3.0056966583
148
32.4384031666
149
32.4384031666
100
AcDbLayout
  1
_Bottom
 70
     1
 71
     6
 10
0.0
 20
0.0
 11
0.0
 21
0.0
 12
0.0
 22
0.0
 32
0.0
 14
0.0
 24
0.0
 34
0.0
 15
0.0
 25
0.0
 35
0.0
146
0.0
 13
0.0
 23
0.0
 33
0.0
 16
1.0
 26
0.0
 36
0.0
 17
0.0
 27
1.0
 37
0.0
 76
     0
330
169
331
2A1
  0
LAYOUT
  5
237
102
{ACAD_REACTORS
330
1A
102
}
330
1A
100
AcDbPlotSettings
  1

  2
none_device
  4
ISO_A4_(210.00_x_297.00_MM)
  6

 40
7.5
 41
20.0
 42
7.5
 43
20.0
 44
210.0
 45
297.0
 46
0.0
 47
0.0
 48
0.0
 49
0.0
140
0.0
141
0.0
142
1.0
143
0.3327015709
 70
   688
 72
     1
 73
     1
 74
     1
  7

 75
     0
147
3.0056966583
148
32.4384031666
149
32.4384031666
100
AcDbLayout
  1
_Dimetric
 70
     1
 71
     9
 10
0.0
 20
0.0
 11
0.0
 21
0.0
 12
0.0
 22
0.0
 32
0.0
 14
0.0
 24
0.0
 34
0.0
 15
0.0
 25
0.0
 35
0.0
146
0.0
 13
0.0
 23
0.0
 33
0.0
 16
1.0
 26
0.0
 36
0.0
 17
0.0
 27
1.0
 37
0.0
 76
     0
330
236
331
2A7
  0
LAYOUT
  5
1E
102
{ACAD_REACTORS
330
1A
102
}
330
1A
100
AcDbPlotSettings
  1

  2
none_device
  4
ISO_A4_(210.00_x_297.00_MM)
  6

 40
7.5
 41
20.0
 42
7.5
 43
20.0
 44
210.0
 45
297.0
 46
0.0
 47
0.0
 48
0.0
 49
0.0
140
0.0
141
0.0
142
1.0
143
0.3327015709
 70
   688
 72
     1
 73
     1
 74
     1
  7

 75
     0
147
3.0056966583
148
32.4384031666
149
32.4384031666
100
AcDbLayout
  1
_Front
 70
     1
 71
     1
 10
-39.0924345854
 20
-34.9336649487
 11
59.7199319837
 21
34.9336649487
 12
0.0
 22
0.0
 32
0.0
 14
-32.4384031666
 24
-32.4384031666
 34
0.0
 15
32.4384031666
 25
32.4384031666
 35
0.0
146
0.0
 13
0.0
 23
0.0
 33
0.0
 16
1.0
 26
0.0
 36
0.0
 17
0.0
 27
1.0
 37
0.0
 76
     0
330
1B
331
297
  0
LAYOUT
  5
184
102
{ACAD_REACTORS
330
1A
102
}
330
1A
100
AcDbPlotSettings
  1

  2
none_device
  4
ISO_A4_(210.00_x_297.00_MM)
  6

 40
7.5
 41
20.0
 42
7.5
 43
20.0
 44
210.0
 45
297.0
 46
0.0
 47
0.0
 48
0.0
 49
0.0
140
0.0
141
0.0
142
1.0
143
0.3327015709
 70
   688
 72
     1
 73
     1
 74
     1
  7

 75
     0
147
3.0056966583
148
32.4384031666
149
32.4384031666
100
AcDbLayout
  1
_Isometric
 70
     1
 71
     7
 10
0.0
 20
0.0
 11
0.0
 21
0.0
 12
0.0
 22
0.0
 32
0.0
 14
0.0
 24
0.0
 34
0.0
 15
0.0
 25
0.0
 35
0.0
146
0.0
 13
0.0
 23
0.0
 33
0.0
 16
1.0
 26
0.0
 36
0.0
 17
0.0
 27
1.0
 37
0.0
 76
     0
330
183
331
2A3
  0
LAYOUT
  5
118
102
{ACAD_REACTORS
330
1A
102
}
330
1A
100
AcDbPlotSettings
  1

  2
none_device
  4
ISO_A4_(210.00_x_297.00_MM)
  6

 40
7.5
 41
20.0
 42
7.5
 43
20.0
 44
210.0
 45
297.0
 46
0.0
 47
0.0
 48
0.0
 49
0.0
140
0.0
141
0.0
142
1.0
143
0.3327015709
 70
   688
 72
     1
 73
     1
 74
     1
  7

 75
     0
147
3.0056966583
148
32.4384031666
149
32.4384031666
100
AcDbLayout
  1
_Left
 70
     1
 71
     3
 10
0.0
 20
0.0
 11
0.0
 21
0.0
 12
0.0
 22
0.0
 32
0.0
 14
0.0
 24
0.0
 34
0.0
 15
0.0
 25
0.0
 35
0.0
146
0.0
 13
0.0
 23
0.0
 33
0.0
 16
1.0
 26
0.0
 36
0.0
 17
0.0
 27
1.0
 37
0.0
 76
     0
330
117
331
29B
  0
LAYOUT
  5
135
102
{ACAD_REACTORS
330
1A
102
}
330
1A
100
AcDbPlotSettings
  1

  2
none_device
  4
ISO_A4_(210.00_x_297.00_MM)
  6

 40
7.5
 41
20.0
 42
7.5
 43
20.0
 44
210.0
 45
297.0
 46
0.0
 47
0.0
 48
0.0
 49
0.0
140
0.0
141
0.0
142
1.0
143
0.3327015709
 70
   688
 72
     1
 73
     1
 74
     1
  7

 75
     0
147
3.0056966583
148
32.4384031666
149
32.4384031666
100
AcDbLayout
  1
_Right
 70
     1
 71
     4
 10
0.0
 20
0.0
 11
0.0
 21
0.0
 12
0.0
 22
0.0
 32
0.0
 14
0.0
 24
0.0
 34
0.0
 15
0.0
 25
0.0
 35
0.0
146
0.0
 13
0.0
 23
0.0
 33
0.0
 16
1.0
 26
0.0
 36
0.0
 17
0.0
 27
1.0
 37
0.0
 76
     0
330
134
331
29D
  0
LAYOUT
  5
150
102
{ACAD_REACTORS
330
1A
102
}
330
1A
100
AcDbPlotSettings
  1

  2
none_device
  4
ISO_A4_(210.00_x_297.00_MM)
  6

 40
7.5
 41
20.0
 42
7.5
 43
20.0
 44
210.0
 45
297.0
 46
0.0
 47
0.0
 48
0.0
 49
0.0
140
0.0
141
0.0
142
1.0
143
0.3327015709
 70
   688
 72
     1
 73
     1
 74
     1
  7

 75
     0
147
3.0056966583
148
32.4384031666
149
32.4384031666
100
AcDbLayout
  1
_Top
 70
     1
 71
     5
 10
0.0
 20
0.0
 11
0.0
 21
0.0
 12
0.0
 22
0.0
 32
0.0
 14
0.0
 24
0.0
 34
0.0
 15
0.0
 25
0.0
 35
0.0
146
0.0
 13
0.0
 23
0.0
 33
0.0
 16
1.0
 26
0.0
 36
0.0
 17
0.0
 27
1.0
 37
0.0
 76
     0
330
14F
331
29F
  0
LAYOUT
  5
1DD
102
{ACAD_REACTORS
330
1A
102
}
330
1A
100
AcDbPlotSettings
  1

  2
none_device
  4
ISO_A4_(210.00_x_297.00_MM)
  6

 40
7.5
 41
20.0
 42
7.5
 43
20.0
 44
210.0
 45
297.0
 46
0.0
 47
0.0
 48
0.0
 49
0.0
140
0.0
141
0.0
142
1.0
143
0.3327015709
 70
   688
 72
     1
 73
     1
 74
     1
  7

 75
     0
147
3.0056966583
148
32.4384031666
149
32.4384031666
100
AcDbLayout
  1
_Trimetric
 70
     1
 71
     8
 10
0.0
 20
0.0
 11
0.0
 21
0.0
 12
0.0
 22
0.0
 32
0.0
 14
0.0
 24
0.0
 34
0.0
 15
0.0
 25
0.0
 35
0.0
146
0.0
 13
0.0
 23
0.0
 33
0.0
 16
1.0
 26
0.0
 36
0.0
 17
0.0
 27
1.0
 37
0.0
 76
     0
330
1DC
331
2A5
  0
LAYOUT
  5
22
102
{ACAD_REACTORS
330
1A
102
}
330
1A
100
AcDbPlotSettings
  1

  2
none_device
  4
ANSI_A_(11.00_x_8.50_Inches)
  6

 40
6.35
 41
19.05
 42
6.35000508
 43
19.05000254
 44
279.4
 45
215.9
 46
135.4634640574
 47
90.9628069204
 48
0.0
 49
0.0
140
0.0
141
0.0
142
0.1426323865
143
1.0
 70
  1696
 72
     0
 73
     0
 74
     0
  7

 75
     0
147
0.0179189148
148
-1300.4909072572
149
0.0
100
AcDbLayout
  1
Model
 70
     1
 71
     0
 10
0.0
 20
0.0
 11
420.0
 21
297.0
 12
0.0
 22
0.0
 32
0.0
 14
-29.8558500712
 24
-30.0682967356
 34
0.0
 15
28.6891115988
 25
28.9295242186
 35
0.0
146
0.0
 13
0.0
 23
0.0
 33
0.0
 16
1.0
 26
0.0
 36
0.0
 17
0.0
 27
1.0
 37
0.0
 76
     0
330
1F
331
29
  0
MLINESTYLE
  5
18
102
{ACAD_REACTORS
330
17
102
}
330
17
100
AcDbMlineStyle
  2
Standard
 70
     0
  3

 62
   256
 51
90.0
 52
90.0
 71
     2
 49
0.5
 62
   256
  6
BYLAYER
 49
-0.5
 62
   256
  6
BYLAYER
  0
ACDBPLACEHOLDER
  5
F
102
{ACAD_REACTORS
330
E
102
}
330
E
  0
SCALE
  5
48
102
{ACAD_REACTORS
330
47
102
}
330
47
100
AcDbScale
 70
     0
300
1:1
140
1.0
141
1.0
290
     1
  0
SCALE
  5
49
102
{ACAD_REACTORS
330
47
102
}
330
47
100
AcDbScale
 70
     0
300
1:2
140
1.0
141
2.0
290
     0
  0
SCALE
  5
4A
102
{ACAD_REACTORS
330
47
102
}
330
47
100
AcDbScale
 70
     0
300
1:4
140
1.0
141
4.0
290
     0
  0
SCALE
  5
4B
102
{ACAD_REACTORS
330
47
102
}
330
47
100
AcDbScale
 70
     0
300
1:5
140
1.0
141
5.0
290
     0
  0
SCALE
  5
4C
102
{ACAD_REACTORS
330
47
102
}
330
47
100
AcDbScale
 70
     0
300
1:8
140
1.0
141
8.0
290
     0
  0
SCALE
  5
4D
102
{ACAD_REACTORS
330
47
102
}
330
47
100
AcDbScale
 70
     0
300
1:10
140
1.0
141
10.0
290
     0
  0
SCALE
  5
4E
102
{ACAD_REACTORS
330
47
102
}
330
47
100
AcDbScale
 70
     0
300
1:16
140
1.0
141
16.0
290
     0
  0
SCALE
  5
4F
102
{ACAD_REACTORS
330
47
102
}
330
47
100
AcDbScale
 70
     0
300
1:20
140
1.0
141
20.0
290
     0
  0
SCALE
  5
50
102
{ACAD_REACTORS
330
47
102
}
330
47
100
AcDbScale
 70
     0
300
1:30
140
1.0
141
30.0
290
     0
  0
SCALE
  5
51
102
{ACAD_REACTORS
330
47
102
}
330
47
100
AcDbScale
 70
     0
300
1:40
140
1.0
141
40.0
290
     0
  0
SCALE
  5
52
102
{ACAD_REACTORS
330
47
102
}
330
47
100
AcDbScale
 70
     0
300
1:50
140
1.0
141
50.0
290
     0
  0
SCALE
  5
53
102
{ACAD_REACTORS
330
47
102
}
330
47
100
AcDbScale
 70
     0
300
1:100
140
1.0
141
100.0
290
     0
  0
SCALE
  5
54
102
{ACAD_REACTORS
330
47
102
}
330
47
100
AcDbScale
 70
     0
300
2:1
140
2.0
141
1.0
290
     0
  0
SCALE
  5
55
102
{ACAD_REACTORS
330
47
102
}
330
47
100
AcDbScale
 70
     0
300
4:1
140
4.0
141
1.0
290
     0
  0
SCALE
  5
56
102
{ACAD_REACTORS
330
47
102
}
330
47
100
AcDbScale
 70
     0
300
8:1
140
8.0
141
1.0
290
     0
  0
SCALE
  5
57
102
{ACAD_REACTORS
330
47
102
}
330
47
100
AcDbScale
 70
     0
300
10:1
140
10.0
141
1.0
290
     0
  0
SCALE
  5
58
102
{ACAD_REACTORS
330
47
102
}
330
47
100
AcDbScale
 70
     0
300
100:1
140
100.0
141
1.0
290
     0
  0
SCALE
  5
59
102
{ACAD_REACTORS
330
47
102
}
330
47
100
AcDbScale
 70
     0
300
1/128" = 1'-0"
140
0.0078125
141
12.0
290
     0
  0
SCALE
  5
5A
102
{ACAD_REACTORS
330
47
102
}
330
47
100
AcDbScale
 70
     0
300
1/64" = 1'-0"
140
0.015625
141
12.0
290
     0
  0
SCALE
  5
5B
102
{ACAD_REACTORS
330
47
102
}
330
47
100
AcDbScale
 70
     0
300
1/32" = 1'-0"
140
0.03125
141
12.0
290
     0
  0
SCALE
  5
5C
102
{ACAD_REACTORS
330
47
102
}
330
47
100
AcDbScale
 70
     0
300
1/16" = 1'-0"
140
0.0625
141
12.0
290
     0
  0
SCALE
  5
5D
102
{ACAD_REACTORS
330
47
102
}
330
47
100
AcDbScale
 70
     0
300
3/32" = 1'-0"
140
0.09375
141
12.0
290
     0
  0
SCALE
  5
5E
102
{ACAD_REACTORS
330
47
102
}
330
47
100
AcDbScale
 70
     0
300
1/8" = 1'-0"
140
0.125
141
12.0
290
     0
  0
SCALE
  5
5F
102
{ACAD_REACTORS
330
47
102
}
330
47
100
AcDbScale
 70
     0
300
3/16" = 1'-0"
140
0.1875
141
12.0
290
     0
  0
SCALE
  5
60
102
{ACAD_REACTORS
330
47
102
}
330
47
100
AcDbScale
 70
     0
300
1/4" = 1'-0"
140
0.25
141
12.0
290
     0
  0
SCALE
  5
61
102
{ACAD_REACTORS
330
47
102
}
330
47
100
AcDbScale
 70
     0
300
3/8" = 1'-0"
140
0.375
141
12.0
290
     0
  0
SCALE
  5
62
102
{ACAD_REACTORS
330
47
102
}
330
47
100
AcDbScale
 70
     0
300
1/2" = 1'-0"
140
0.5
141
12.0
290
     0
  0
SCALE
  5
63
102
{ACAD_REACTORS
330
47
102
}
330
47
100
AcDbScale
 70
     0
300
3/4" = 1'-0"
140
0.75
141
12.0
290
     0
  0
SCALE
  5
64
102
{ACAD_REACTORS
330
47
102
}
330
47
100
AcDbScale
 70
     0
300
1" = 1'-0"
140
1.0
141
12.0
290
     0
  0
SCALE
  5
65
102
{ACAD_REACTORS
330
47
102
}
330
47
100
AcDbScale
 70
     0
300
1-1/2" = 1'-0"
140
1.5
141
12.0
290
     0
  0
SCALE
  5
66
102
{ACAD_REACTORS
330
47
102
}
330
47
100
AcDbScale
 70
     0
300
3" = 1'-0"
140
3.0
141
12.0
290
     0
  0
SCALE
  5
67
102
{ACAD_REACTORS
330
47
102
}
330
47
100
AcDbScale
 70
     0
300
6" = 1'-0"
140
6.0
141
12.0
290
     0
  0
SCALE
  5
68
102
{ACAD_REACTORS
330
47
102
}
330
47
100
AcDbScale
 70
     0
300
1'-0" = 1'-0"
140
12.0
141
12.0
290
     0
  0
ENDSEC
  0
EOF
