  0
SECTION
  2
HEADER
  9
$ACADVER
  1
AC1015
  9
$ACADMAINTVER
 70
     6
  9
$DWGCODEPAGE
  3
ANSI_1252
  9
$INSBASE
 10
0.0
 20
0.0
 30
0.0
  9
$EXTMIN
 10
-21.8751579122
 20
-22.0586177191
 30
0.0
  9
$EXTMAX
 10
20.7084194399
 20
21.0049706849
 30
0.0
  9
$LIMMIN
 10
0.0
 20
0.0
  9
$LIMMAX
 10
420.0
 20
297.0
  9
$ORTHOMODE
 70
     0
  9
$REGENMODE
 70
     1
  9
$FILLMODE
 70
     1
  9
$QTEXTMODE
 70
     0
  9
$MIRRTEXT
 70
     1
  9
$LTSCALE
 40
1.0
  9
$ATTMODE
 70
     1
  9
$TEXTSIZE
 40
3.5
  9
$TRACEWID
 40
1.0
  9
$TEXTSTYLE
  7
Standard
  9
$CLAYER
  8
0
  9
$CELTYPE
  6
ByLayer
  9
$CECOLOR
 62
   256
  9
$CELTSCALE
 40
1.0
  9
$DISPSILH
 70
     0
  9
$DIMSCALE
 40
1.0
  9
$DIMASZ
 40
3.302
  9
$DIMEXO
 40
0.0
  9
$DIMDLI
 40
3.75
  9
$DIMRND
 40
0.0
  9
$DIMDLE
 40
0.0
  9
$DIMEXE
 40
1.0
  9
$DIMTP
 40
0.0
  9
$DIMTM
 40
0.0
  9
$DIMTXT
 40
3.5
  9
$DIMCEN
 40
2.5
  9
$DIMTSZ
 40
0.0
  9
$DIMTOL
 70
     0
  9
$DIMLIM
 70
     0
  9
$DIMTIH
 70
     1
  9
$DIMTOH
 70
     1
  9
$DIMSE1
 70
     0
  9
$DIMSE2
 70
     0
  9
$DIMTAD
 70
     1
  9
$DIMZIN
 70
     1
  9
$DIMBLK
  1

  9
$DIMASO
 70
     1
  9
$DIMSHO
 70
     1
  9
$DIMPOST
  1

  9
$DIMAPOST
  1

  9
$DIMALT
 70
     0
  9
$DIMALTD
 70
     3
  9
$DIMALTF
 40
0.0393700787
  9
$DIMLFAC
 40
1.0
  9
$DIMTOFL
 70
     1
  9
$DIMTVP
 40
0.0
  9
$DIMTIX
 70
     0
  9
$DIMSOXD
 70
     0
  9
$DIMSAH
 70
     0
  9
$DIMBLK1
  1

  9
$DIMBLK2
  1

  9
$DIMSTYLE
  2
ISO-25
  9
$DIMCLRD
 70
     0
  9
$DIMCLRE
 70
     0
  9
$DIMCLRT
 70
     0
  9
$DIMTFAC
 40
1.0
  9
$DIMGAP
 40
1.524
  9
$DIMJUST
 70
     0
  9
$DIMSD1
 70
     0
  9
$DIMSD2
 70
     0
  9
$DIMTOLJ
 70
     0
  9
$DIMTZIN
 70
     1
  9
$DIMALTZ
 70
     0
  9
$DIMALTTZ
 70
     0
  9
$DIMUPT
 70
     0
  9
$DIMDEC
 70
     2
  9
$DIMTDEC
 70
     2
  9
$DIMALTU
 70
     2
  9
$DIMALTTD
 70
     3
  9
$DIMTXSTY
  7
Standard
  9
$DIMAUNIT
 70
     0
  9
$DIMADEC
 70
     2
  9
$DIMALTRND
 40
0.0
  9
$DIMAZIN
 70
     0
  9
$DIMDSEP
 70
    44
  9
$DIMATFIT
 70
     3
  9
$DIMFRAC
 70
     0
  9
$DIMLDRBLK
  1

  9
$DIMLUNIT
 70
     2
  9
$DIMLWD
 70
    -2
  9
$DIMLWE
 70
    -2
  9
$DIMTMOVE
 70
     0
  9
$LUNITS
 70
     2
  9
$LUPREC
 70
     2
  9
$SKETCHINC
 40
1.0
  9
$FILLETRAD
 40
10.0
  9
$AUNITS
 70
     0
  9
$AUPREC
 70
     2
  9
$MENU
  1
.
  9
$ELEVATION
 40
0.0
  9
$PELEVATION
 40
0.0
  9
$THICKNESS
 40
0.0
  9
$LIMCHECK
 70
     0
  9
$CHAMFERA
 40
0.0
  9
$CHAMFERB
 40
0.0
  9
$CHAMFERC
 40
0.0
  9
$CHAMFERD
 40
0.0
  9
$SKPOLY
 70
     0
  9
$TDCREATE
 40
2460461.573174282
  9
$TDUCREATE
 40
2460461.739840949
  9
$TDUPDATE
 40
2460461.573216076
  9
$TDUUPDATE
 40
2460461.739882743
  9
$TDINDWG
 40
0.0000000116
  9
$TDUSRTIMER
 40
0.0000000116
  9
$USRTIMER
 70
     1
  9
$ANGBASE
 50
0.0
  9
$ANGDIR
 70
     0
  9
$PDMODE
 70
     0
  9
$PDSIZE
 40
-1.0
  9
$PLINEWID
 40
0.0
  9
$SPLFRAME
 70
     0
  9
$SPLINETYPE
 70
     6
  9
$SPLINESEGS
 70
     8
  9
$HANDSEED
  5
28D
  9
$SURFTAB1
 70
     6
  9
$SURFTAB2
 70
     6
  9
$SURFTYPE
 70
     6
  9
$SURFU
 70
     6
  9
$SURFV
 70
     6
  9
$UCSBASE
  2

  9
$UCSNAME
  2

  9
$UCSORG
 10
0.0
 20
0.0
 30
0.0
  9
$UCSXDIR
 10
1.0
 20
0.0
 30
0.0
  9
$UCSYDIR
 10
0.0
 20
1.0
 30
0.0
  9
$UCSORTHOREF
  2

  9
$UCSORTHOVIEW
 70
     0
  9
$UCSORGTOP
 10
0.0
 20
0.0
 30
0.0
  9
$UCSORGBOTTOM
 10
0.0
 20
0.0
 30
0.0
  9
$UCSORGLEFT
 10
0.0
 20
0.0
 30
0.0
  9
$UCSORGRIGHT
 10
0.0
 20
0.0
 30
0.0
  9
$UCSORGFRONT
 10
0.0
 20
0.0
 30
0.0
  9
$UCSORGBACK
 10
0.0
 20
0.0
 30
0.0
  9
$PUCSBASE
  2

  9
$PUCSNAME
  2

  9
$PUCSORG
 10
0.0
 20
0.0
 30
0.0
  9
$PUCSXDIR
 10
1.0
 20
0.0
 30
0.0
  9
$PUCSYDIR
 10
0.0
 20
1.0
 30
0.0
  9
$PUCSORTHOREF
  2

  9
$PUCSORTHOVIEW
 70
     0
  9
$PUCSORGTOP
 10
0.0
 20
0.0
 30
0.0
  9
$PUCSORGBOTTOM
 10
0.0
 20
0.0
 30
0.0
  9
$PUCSORGLEFT
 10
0.0
 20
0.0
 30
0.0
  9
$PUCSORGRIGHT
 10
0.0
 20
0.0
 30
0.0
  9
$PUCSORGFRONT
 10
0.0
 20
0.0
 30
0.0
  9
$PUCSORGBACK
 10
0.0
 20
0.0
 30
0.0
  9
$USERI1
 70
     0
  9
$USERI2
 70
     0
  9
$USERI3
 70
     0
  9
$USERI4
 70
     0
  9
$USERI5
 70
     0
  9
$USERR1
 40
0.0
  9
$USERR2
 40
0.0
  9
$USERR3
 40
0.0
  9
$USERR4
 40
0.0
  9
$USERR5
 40
0.0
  9
$WORLDVIEW
 70
     1
  9
$SHADEDGE
 70
     3
  9
$SHADEDIF
 70
    70
  9
$TILEMODE
 70
     1
  9
$MAXACTVP
 70
    64
  9
$PINSBASE
 10
0.0
 20
0.0
 30
0.0
  9
$PLIMCHECK
 70
     0
  9
$PEXTMIN
 10
-23.4147389479
 20
-23.4147389479
 30
0.0
  9
$PEXTMAX
 10
23.4147389479
 20
23.4147389479
 30
0.0
  9
$PLIMMIN
 10
-28.2177623219
 20
-25.2158727132
  9
$PLIMMAX
 10
43.1071347811
 20
25.2158727132
  9
$UNITMODE
 70
     0
  9
$VISRETAIN
 70
     1
  9
$PLINEGEN
 70
     0
  9
$PSLTSCALE
 70
     1
  9
$TREEDEPTH
 70
  3020
  9
$CMLSTYLE
  2
Standard
  9
$CMLJUST
 70
     0
  9
$CMLSCALE
 40
20.0
  9
$PROXYGRAPHICS
 70
     1
  9
$MEASUREMENT
 70
     1
  9
$CELWEIGHT
370
    -1
  9
$ENDCAPS
280
     0
  9
$JOINSTYLE
280
     0
  9
$LWDISPLAY
290
     1
  9
$INSUNITS
 70
     4
  9
$HYPERLINKBASE
  1

  9
$STYLESHEET
  1

  9
$XEDIT
290
     1
  9
$CEPSNTYPE
380
     0
  9
$PSTYLEMODE
290
     1
  9
$FINGERPRINTGUID
  2
{4f1845f8-c648-49f6-b583-0b829e28b6e5}
  9
$VERSIONGUID
  2
{FAEB1C32-E019-11D5-929B-00C0DF256EC4}
  9
$EXTNAMES
290
     1
  9
$PSVPSCALE
 40
0.0
  9
$OLESTARTUP
290
     0
  0
ENDSEC
  0
SECTION
  2
CLASSES
  0
CLASS
  1
ACDBDICTIONARYWDFLT
  2
AcDbDictionaryWithDefault
  3
ObjectDBX Classes
 90
        0
280
     0
281
     0
  0
CLASS
  1
VISUALSTYLE
  2
AcDbVisualStyle
  3
ObjectDBX Classes
 90
     4095
280
     0
281
     0
  0
CLASS
  1
MATERIAL
  2
AcDbMaterial
  3
ObjectDBX Classes
 90
     1153
280
     0
281
     0
  0
CLASS
  1
SCALE
  2
AcDbScale
  3
ObjectDBX Classes
 90
     1153
280
     0
281
     0
  0
CLASS
  1
TABLESTYLE
  2
AcDbTableStyle
  3
ObjectDBX Classes
 90
     4095
280
     0
281
     0
  0
CLASS
  1
MLEADERSTYLE
  2
AcDbMLeaderStyle
  3
ACDB_MLEADERSTYLE_CLASS
 90
     4095
280
     0
281
     0
  0
CLASS
  1
SUN
  2
AcDbSun
  3
SCENEOE
 90
     1153
280
     0
281
     0
  0
CLASS
  1
ACDBPLACEHOLDER
  2
AcDbPlaceHolder
  3
ObjectDBX Classes
 90
        0
280
     0
281
     0
  0
CLASS
  1
LAYOUT
  2
AcDbLayout
  3
ObjectDBX Classes
 90
        0
280
     0
281
     0
  0
ENDSEC
  0
SECTION
  2
TABLES
  0
TABLE
  2
VPORT
  5
8
330
0
100
AcDbSymbolTable
 70
     1
  0
VPORT
  5
29
330
8
100
AcDbSymbolTableRecord
100
AcDbViewportTableRecord
  2
*Active
 70
     0
 10
0.0
 20
0.0
 11
1.0
 21
1.0
 12
-0.5833692362
 22
-0.5268235171
 13
0.0
 23
0.0
 14
10.0
 24
10.0
 15
10.0
 25
10.0
 16
0.0
 26
0.0
 36
1.0
 17
0.0
 27
0.0
 37
0.0
 40
43.9248601721
 41
0.9888534358
 42
50.0
 43
0.0
 44
0.0
 50
0.0
 51
0.0
 71
     0
 72
   100
 73
     1
 74
     3
 75
     0
 76
     0
 77
     0
 78
     0
281
     0
 65
     1
110
0.0
120
0.0
130
0.0
111
1.0
121
0.0
131
0.0
112
0.0
122
1.0
132
0.0
 79
     0
146
0.0
  0
ENDTAB
  0
TABLE
  2
LTYPE
  5
5
330
0
100
AcDbSymbolTable
 70
     6
  0
LTYPE
  5
14
330
5
100
AcDbSymbolTableRecord
100
AcDbLinetypeTableRecord
  2
ByBlock
 70
     0
  3

 72
    65
 73
     0
 40
0.0
  0
LTYPE
  5
15
330
5
100
AcDbSymbolTableRecord
100
AcDbLinetypeTableRecord
  2
ByLayer
 70
     0
  3

 72
    65
 73
     0
 40
0.0
  0
LTYPE
  5
16
330
5
100
AcDbSymbolTableRecord
100
AcDbLinetypeTableRecord
  2
Continuous
 70
     0
  3
Solid line
 72
    65
 73
     0
 40
0.0
  0
LTYPE
  5
6E
330
5
100
AcDbSymbolTableRecord
100
AcDbLinetypeTableRecord
  2
HIDDEN
 70
     0
  3
Hidden __ __ __ __ __ __ __ __ __ __ __ __ __ __
 72
    65
 73
     2
 40
1.905
 49
1.27
 74
     0
 49
-0.635
 74
     0
  0
LTYPE
  5
6F
330
5
100
AcDbSymbolTableRecord
100
AcDbLinetypeTableRecord
  2
PHANTOM
 70
     0
  3
Phantom ______  __  __  ______  __  __  ______
 72
    65
 73
     6
 40
12.7
 49
6.35
 74
     0
 49
-1.27
 74
     0
 49
1.27
 74
     0
 49
-1.27
 74
     0
 49
1.27
 74
     0
 49
-1.27
 74
     0
  0
LTYPE
  5
70
330
5
100
AcDbSymbolTableRecord
100
AcDbLinetypeTableRecord
  2
CENTER
 70
     0
  3
Center ____ _ ____ _ ____ _ ____ _ ____ _ ____
 72
    65
 73
     4
 40
10.16
 49
6.35
 74
     0
 49
-1.27
 74
     0
 49
1.27
 74
     0
 49
-1.27
 74
     0
  0
LTYPE
  5
71
330
5
100
AcDbSymbolTableRecord
100
AcDbLinetypeTableRecord
  2
CENTERX2
 70
     0
  3
Center (2x) ________  __  ________  __  _____
 72
    65
 73
     4
 40
20.32
 49
12.7
 74
     0
 49
-2.54
 74
     0
 49
2.54
 74
     0
 49
-2.54
 74
     0
  0
LTYPE
  5
72
330
5
100
AcDbSymbolTableRecord
100
AcDbLinetypeTableRecord
  2
DOT2
 70
     0
  3
Dot (.5x) ........................................
 72
    65
 73
     2
 40
0.635
 49
0.0
 74
     0
 49
-0.635
 74
     0
  0
ENDTAB
  0
TABLE
  2
LAYER
  5
2
330
0
100
AcDbSymbolTable
 70
     1
  0
LAYER
  5
10
330
2
100
AcDbSymbolTableRecord
100
AcDbLayerTableRecord
  2
0
 70
     0
 62
     7
  6
Continuous
370
    -3
390
F
  0
ENDTAB
  0
TABLE
  2
STYLE
  5
3
330
0
100
AcDbSymbolTable
 70
     1
  0
STYLE
  5
11
330
3
100
AcDbSymbolTableRecord
100
AcDbTextStyleTableRecord
  2
Standard
 70
     0
 40
0.0
 41
1.0
 50
0.0
 71
     0
 42
3.5
  3
txt
  4

  0
ENDTAB
  0
TABLE
  2
VIEW
  5
6
330
0
100
AcDbSymbolTable
 70
     0
  0
ENDTAB
  0
TABLE
  2
UCS
  5
7
330
0
100
AcDbSymbolTable
 70
     0
  0
ENDTAB
  0
TABLE
  2
APPID
  5
9
330
0
100
AcDbSymbolTable
 70
     1
  0
APPID
  5
12
330
9
100
AcDbSymbolTableRecord
100
AcDbRegAppTableRecord
  2
ACAD
 70
     0
  0
ENDTAB
  0
TABLE
  2
DIMSTYLE
  5
A
330
0
100
AcDbSymbolTable
 70
     1
100
AcDbDimStyleTable
  0
DIMSTYLE
105
27
330
A
100
AcDbSymbolTableRecord
100
AcDbDimStyleTableRecord
  2
ISO-25
 70
     0
 41
2.5
 42
0.625
 43
3.75
 44
1.25
 73
     0
 74
     0
 77
     1
 78
     8
140
2.5
141
2.5
143
0.0393700787
147
0.625
171
     3
172
     1
178
     0
271
     2
272
     2
274
     3
278
    44
283
     0
284
     8
340
11
  0
ENDTAB
  0
TABLE
  2
BLOCK_RECORD
  5
1
330
0
100
AcDbSymbolTable
 70
     8
  0
BLOCK_RECORD
  5
1F
330
1
100
AcDbSymbolTableRecord
100
AcDbBlockTableRecord
  2
*Model_Space
340
22
  0
BLOCK_RECORD
  5
1B
330
1
100
AcDbSymbolTableRecord
100
AcDbBlockTableRecord
  2
*Paper_Space
340
1E
  0
BLOCK_RECORD
  5
23
330
1
100
AcDbSymbolTableRecord
100
AcDbBlockTableRecord
  2
*Paper_Space0
340
26
  0
BLOCK_RECORD
  5
110
330
1
100
AcDbSymbolTableRecord
100
AcDbBlockTableRecord
  2
*Paper_Space1
340
111
  0
BLOCK_RECORD
  5
12D
330
1
100
AcDbSymbolTableRecord
100
AcDbBlockTableRecord
  2
*Paper_Space2
340
12E
  0
BLOCK_RECORD
  5
148
330
1
100
AcDbSymbolTableRecord
100
AcDbBlockTableRecord
  2
*Paper_Space3
340
149
  0
BLOCK_RECORD
  5
162
330
1
100
AcDbSymbolTableRecord
100
AcDbBlockTableRecord
  2
*Paper_Space4
340
163
  0
BLOCK_RECORD
  5
17C
330
1
100
AcDbSymbolTableRecord
100
AcDbBlockTableRecord
  2
*Paper_Space5
340
17D
  0
BLOCK_RECORD
  5
1CC
330
1
100
AcDbSymbolTableRecord
100
AcDbBlockTableRecord
  2
*Paper_Space6
340
1CD
  0
BLOCK_RECORD
  5
222
330
1
100
AcDbSymbolTableRecord
100
AcDbBlockTableRecord
  2
*Paper_Space7
340
223
  0
ENDTAB
  0
ENDSEC
  0
SECTION
  2
BLOCKS
  0
BLOCK
  5
20
330
1F
100
AcDbEntity
  8
0
100
AcDbBlockBegin
  2
*Model_Space
 70
     0
 10
0.0
 20
0.0
 30
0.0
  3
*Model_Space
  1

  0
ENDBLK
  5
21
330
1F
100
AcDbEntity
  8
0
100
AcDbBlockEnd
  0
BLOCK
  5
1C
330
1B
100
AcDbEntity
 67
     1
  8
0
100
AcDbBlockBegin
  2
*Paper_Space
 70
     0
 10
0.0
 20
0.0
 30
0.0
  3
*Paper_Space
  1

  0
ENDBLK
  5
1D
330
1B
100
AcDbEntity
 67
     1
  8
0
100
AcDbBlockEnd
  0
BLOCK
  5
24
330
23
100
AcDbEntity
  8
0
100
AcDbBlockBegin
  2
*Paper_Space0
 70
     0
 10
0.0
 20
0.0
 30
0.0
  3
*Paper_Space0
  1

  0
LINE
  5
FF
330
23
100
AcDbEntity
  8
0
  6
Continuous
 62
     7
370
    25
100
AcDbLine
 10
2.0
 20
-22.0
 30
0.0
 11
2.0
 21
-23.4147389479
 31
0.0
  0
LINE
  5
100
330
23
100
AcDbEntity
  8
0
  6
Continuous
 62
     7
370
    25
100
AcDbLine
 10
-2.0
 20
-23.4147389479
 30
0.0
 11
-2.0
 21
-22.0
 31
0.0
  0
LINE
  5
101
330
23
100
AcDbEntity
  8
0
  6
Continuous
 62
     7
370
    25
100
AcDbLine
 10
-23.4147389479
 20
2.0
 30
0.0
 11
-22.0
 21
2.0
 31
0.0
  0
LINE
  5
102
330
23
100
AcDbEntity
  8
0
  6
Continuous
 62
     7
370
    25
100
AcDbLine
 10
-2.0
 20
22.0
 30
0.0
 11
-2.0
 21
23.4147389479
 31
0.0
  0
LINE
  5
103
330
23
100
AcDbEntity
  8
0
  6
Continuous
 62
     7
370
    25
100
AcDbLine
 10
2.0
 20
23.4147389479
 30
0.0
 11
2.0
 21
22.0
 31
0.0
  0
LINE
  5
104
330
23
100
AcDbEntity
  8
0
  6
Continuous
 62
     7
370
    25
100
AcDbLine
 10
22.0
 20
2.0
 30
0.0
 11
23.4147389479
 21
2.0
 31
0.0
  0
LINE
  5
105
330
23
100
AcDbEntity
  8
0
  6
Continuous
 62
     7
370
    25
100
AcDbLine
 10
23.4147389479
 20
-2.0
 30
0.0
 11
22.0
 21
-2.0
 31
0.0
  0
LINE
  5
106
330
23
100
AcDbEntity
  8
0
  6
Continuous
 62
     7
370
    25
100
AcDbLine
 10
-22.0
 20
-2.0
 30
0.0
 11
-23.4147389479
 21
-2.0
 31
0.0
  0
ARC
  5
107
330
23
100
AcDbEntity
  8
0
  6
Continuous
 62
     7
370
    25
100
AcDbCircle
 10
0.0
 20
-22.0
 30
0.0
 40
2.0
100
AcDbArc
 50
0.0
 51
180.0
  0
ARC
  5
108
330
23
100
AcDbEntity
  8
0
  6
Continuous
 62
     7
370
    25
100
AcDbCircle
 10
-22.0
 20
0.0
 30
0.0
 40
2.0
100
AcDbArc
 50
270.0
 51
90.0
  0
ARC
  5
109
330
23
100
AcDbEntity
  8
0
  6
Continuous
 62
     7
370
    25
100
AcDbCircle
 10
0.0
 20
22.0
 30
0.0
 40
2.0
100
AcDbArc
 50
180.0
 51
0.0
  0
ARC
  5
10A
330
23
100
AcDbEntity
  8
0
  6
Continuous
 62
     7
370
    25
100
AcDbCircle
 10
0.0
 20
0.0
 30
0.0
 40
23.50000000000003
100
AcDbArc
 50
4.8821423325
 51
85.1178576675
  0
ARC
  5
10B
330
23
100
AcDbEntity
  8
0
  6
Continuous
 62
     7
370
    25
100
AcDbCircle
 10
22.0
 20
0.0
 30
0.0
 40
2.000000000000008
100
AcDbArc
 50
90.0
 51
270.0
  0
ARC
  5
10C
330
23
100
AcDbEntity
  8
0
  6
Continuous
 62
     7
370
    25
100
AcDbCircle
 10
0.0
 20
0.0
 30
0.0
 40
23.50000000000006
100
AcDbArc
 50
274.8821423325
 51
355.1178576675
  0
ARC
  5
10D
330
23
100
AcDbEntity
  8
0
  6
Continuous
 62
     7
370
    25
100
AcDbCircle
 10
0.0
 20
0.0
 30
0.0
 40
4.7
100
AcDbArc
 50
0.0
 51
180.0
  0
ARC
  5
10E
330
23
100
AcDbEntity
  8
0
  6
Continuous
 62
     7
370
    25
100
AcDbCircle
 10
0.0
 20
0.0
 30
0.0
 40
23.49999999999996
100
AcDbArc
 50
184.8821423325
 51
265.1178576675
  0
ARC
  5
10F
330
23
100
AcDbEntity
  8
0
  6
Continuous
 62
     7
370
    25
100
AcDbCircle
 10
0.0
 20
0.0
 30
0.0
 40
23.50000000000007
100
AcDbArc
 50
94.8821423325
 51
175.1178576675
  0
VIEWPORT
  5
27C
330
23
100
AcDbEntity
  8
0
100
AcDbViewport
 10
0.0
 20
0.0
 30
0.0
 40
205.6
 41
156.0
 68
     1
 69
     1
 12
-0.5833692362
 22
-0.5268235171
 13
0.0
 23
0.0
 14
10.0
 24
10.0
 15
10.0
 25
10.0
 16
0.0
 26
0.0
 36
1.0
 17
0.0
 27
0.0
 37
0.0
 42
50.0
 43
0.0
 44
0.0
 45
43.9248601721
 50
0.0
 51
0.0
 72
   100
 90
   557152
  1

281
     0
 71
     1
 74
     0
110
0.0
120
0.0
130
0.0
111
1.0
121
0.0
131
0.0
112
0.0
122
1.0
132
0.0
 79
     0
146
0.0
  0
ENDBLK
  5
25
330
23
100
AcDbEntity
  8
0
100
AcDbBlockEnd
  0
BLOCK
  5
112
330
110
100
AcDbEntity
  8
0
100
AcDbBlockBegin
  2
*Paper_Space1
 70
     0
 10
0.0
 20
0.0
 30
0.0
  3
*Paper_Space1
  1

  0
LINE
  5
124
330
110
100
AcDbEntity
  8
0
  6
Continuous
 62
     7
370
    25
100
AcDbLine
 10
2.5
 20
-19.2
 30
0.0
 11
2.95
 21
-19.2
 31
0.0
  0
LINE
  5
125
330
110
100
AcDbEntity
  8
0
  6
Continuous
 62
     7
370
    25
100
AcDbLine
 10
2.95
 20
19.2
 30
0.0
 11
2.5
 21
19.2
 31
0.0
  0
LINE
  5
126
330
110
100
AcDbEntity
  8
0
  6
Continuous
 62
     7
370
    25
100
AcDbLine
 10
0.0
 20
-23.4147389479
 30
0.0
 11
2.5
 21
-23.4147389479
 31
0.0
  0
LINE
  5
127
330
110
100
AcDbEntity
  8
0
  6
Continuous
 62
     7
370
    25
100
AcDbLine
 10
2.5
 20
-2.0
 30
0.0
 11
0.0
 21
-2.0
 31
0.0
  0
LINE
  5
128
330
110
100
AcDbEntity
  8
0
  6
Continuous
 62
     7
370
    25
100
AcDbLine
 10
2.5
 20
23.4147389479
 30
0.0
 11
0.0
 21
23.4147389479
 31
0.0
  0
LINE
  5
129
330
110
100
AcDbEntity
  8
0
  6
Continuous
 62
     7
370
    25
100
AcDbLine
 10
2.5
 20
23.4147389479
 30
0.0
 11
2.5
 21
-23.4147389479
 31
0.0
  0
LINE
  5
12A
330
110
100
AcDbEntity
  8
0
  6
Continuous
 62
     7
370
    25
100
AcDbLine
 10
0.0
 20
23.4147389479
 30
0.0
 11
0.0
 21
-23.4147389479
 31
0.0
  0
LINE
  5
12B
330
110
100
AcDbEntity
  8
0
  6
Continuous
 62
     7
370
    25
100
AcDbLine
 10
0.0
 20
2.0
 30
0.0
 11
2.5
 21
2.0
 31
0.0
  0
LINE
  5
12C
330
110
100
AcDbEntity
  8
0
  6
Continuous
 62
     7
370
    25
100
AcDbLine
 10
2.95
 20
19.2
 30
0.0
 11
2.95
 21
-19.2
 31
0.0
  0
VIEWPORT
  5
27E
330
110
100
AcDbEntity
  8
0
100
AcDbViewport
 10
0.0
 20
0.0
 30
0.0
 40
205.6
 41
156.0
 68
     1
 69
     1
 12
-0.5833692362
 22
-0.5268235171
 13
0.0
 23
0.0
 14
10.0
 24
10.0
 15
10.0
 25
10.0
 16
0.0
 26
0.0
 36
1.0
 17
0.0
 27
0.0
 37
0.0
 42
50.0
 43
0.0
 44
0.0
 45
43.9248601721
 50
0.0
 51
0.0
 72
   100
 90
   557152
  1

281
     0
 71
     1
 74
     0
110
0.0
120
0.0
130
0.0
111
1.0
121
0.0
131
0.0
112
0.0
122
1.0
132
0.0
 79
     0
146
0.0
  0
ENDBLK
  5
113
330
110
100
AcDbEntity
  8
0
100
AcDbBlockEnd
  0
BLOCK
  5
12F
330
12D
100
AcDbEntity
  8
0
100
AcDbBlockBegin
  2
*Paper_Space2
 70
     0
 10
0.0
 20
0.0
 30
0.0
  3
*Paper_Space2
  1

  0
LINE
  5
13F
330
12D
100
AcDbEntity
  8
0
  6
Continuous
 62
     7
370
    25
100
AcDbLine
 10
-2.5
 20
19.2
 30
0.0
 11
-2.95
 21
19.2
 31
0.0
  0
LINE
  5
140
330
12D
100
AcDbEntity
  8
0
  6
Continuous
 62
     7
370
    25
100
AcDbLine
 10
-2.95
 20
-19.2
 30
0.0
 11
-2.5
 21
-19.2
 31
0.0
  0
LINE
  5
141
330
12D
100
AcDbEntity
  8
0
  6
Continuous
 62
     7
370
    25
100
AcDbLine
 10
0.0
 20
-2.0
 30
0.0
 11
-2.5
 21
-2.0
 31
0.0
  0
LINE
  5
142
330
12D
100
AcDbEntity
  8
0
  6
Continuous
 62
     7
370
    25
100
AcDbLine
 10
-2.5
 20
-23.4147389479
 30
0.0
 11
0.0
 21
-23.4147389479
 31
0.0
  0
LINE
  5
143
330
12D
100
AcDbEntity
  8
0
  6
Continuous
 62
     7
370
    25
100
AcDbLine
 10
0.0
 20
23.4147389479
 30
0.0
 11
-2.5
 21
23.4147389479
 31
0.0
  0
LINE
  5
144
330
12D
100
AcDbEntity
  8
0
  6
Continuous
 62
     7
370
    25
100
AcDbLine
 10
-2.5
 20
2.0
 30
0.0
 11
0.0
 21
2.0
 31
0.0
  0
LINE
  5
145
330
12D
100
AcDbEntity
  8
0
  6
Continuous
 62
     7
370
    25
100
AcDbLine
 10
-2.5
 20
-23.4147389479
 30
0.0
 11
-2.5
 21
23.4147389479
 31
0.0
  0
LINE
  5
146
330
12D
100
AcDbEntity
  8
0
  6
Continuous
 62
     7
370
    25
100
AcDbLine
 10
0.0
 20
-23.4147389479
 30
0.0
 11
0.0
 21
23.4147389479
 31
0.0
  0
LINE
  5
147
330
12D
100
AcDbEntity
  8
0
  6
Continuous
 62
     7
370
    25
100
AcDbLine
 10
-2.95
 20
-19.2
 30
0.0
 11
-2.95
 21
19.2
 31
0.0
  0
VIEWPORT
  5
280
330
12D
100
AcDbEntity
  8
0
100
AcDbViewport
 10
0.0
 20
0.0
 30
0.0
 40
205.6
 41
156.0
 68
     1
 69
     1
 12
-0.5833692362
 22
-0.5268235171
 13
0.0
 23
0.0
 14
10.0
 24
10.0
 15
10.0
 25
10.0
 16
0.0
 26
0.0
 36
1.0
 17
0.0
 27
0.0
 37
0.0
 42
50.0
 43
0.0
 44
0.0
 45
43.9248601721
 50
0.0
 51
0.0
 72
   100
 90
   557152
  1

281
     0
 71
     1
 74
     0
110
0.0
120
0.0
130
0.0
111
1.0
121
0.0
131
0.0
112
0.0
122
1.0
132
0.0
 79
     0
146
0.0
  0
ENDBLK
  5
130
330
12D
100
AcDbEntity
  8
0
100
AcDbBlockEnd
  0
BLOCK
  5
14A
330
148
100
AcDbEntity
  8
0
100
AcDbBlockBegin
  2
*Paper_Space3
 70
     0
 10
0.0
 20
0.0
 30
0.0
  3
*Paper_Space3
  1

  0
LINE
  5
159
330
148
100
AcDbEntity
  8
0
  6
Continuous
 62
     7
370
    25
100
AcDbLine
 10
-23.4147389479
 20
0.0
 30
0.0
 11
-23.4147389479
 21
-2.5
 31
0.0
  0
LINE
  5
15A
330
148
100
AcDbEntity
  8
0
  6
Continuous
 62
     7
370
    25
100
AcDbLine
 10
-2.0
 20
-2.5
 30
0.0
 11
-2.0
 21
0.0
 31
0.0
  0
LINE
  5
15B
330
148
100
AcDbEntity
  8
0
  6
Continuous
 62
     7
370
    25
100
AcDbLine
 10
23.4147389479
 20
-2.5
 30
0.0
 11
23.4147389479
 21
0.0
 31
0.0
  0
LINE
  5
15C
330
148
100
AcDbEntity
  8
0
  6
Continuous
 62
     7
370
    25
100
AcDbLine
 10
23.4147389479
 20
-2.5
 30
0.0
 11
-23.4147389479
 21
-2.5
 31
0.0
  0
LINE
  5
15D
330
148
100
AcDbEntity
  8
0
  6
Continuous
 62
     7
370
    25
100
AcDbLine
 10
2.0
 20
0.0
 30
0.0
 11
2.0
 21
-2.5
 31
0.0
  0
LINE
  5
15E
330
148
100
AcDbEntity
  8
0
  6
Continuous
 62
     7
370
    25
100
AcDbLine
 10
23.4147389479
 20
0.0
 30
0.0
 11
-23.4147389479
 21
0.0
 31
0.0
  0
LINE
  5
15F
330
148
100
AcDbEntity
  8
0
  6
Continuous
 62
     7
370
    25
100
AcDbLine
 10
-19.2
 20
-2.95
 30
0.0
 11
-19.2
 21
-2.5
 31
0.0
  0
LINE
  5
160
330
148
100
AcDbEntity
  8
0
  6
Continuous
 62
     7
370
    25
100
AcDbLine
 10
19.2
 20
-2.95
 30
0.0
 11
19.2
 21
-2.5
 31
0.0
  0
LINE
  5
161
330
148
100
AcDbEntity
  8
0
  6
Continuous
 62
     7
370
    25
100
AcDbLine
 10
19.2
 20
-2.95
 30
0.0
 11
-19.2
 21
-2.95
 31
0.0
  0
VIEWPORT
  5
282
330
148
100
AcDbEntity
  8
0
100
AcDbViewport
 10
0.0
 20
0.0
 30
0.0
 40
205.6
 41
156.0
 68
     1
 69
     1
 12
-0.5833692362
 22
-0.5268235171
 13
0.0
 23
0.0
 14
10.0
 24
10.0
 15
10.0
 25
10.0
 16
0.0
 26
0.0
 36
1.0
 17
0.0
 27
0.0
 37
0.0
 42
50.0
 43
0.0
 44
0.0
 45
43.9248601721
 50
0.0
 51
0.0
 72
   100
 90
   557152
  1

281
     0
 71
     1
 74
     0
110
0.0
120
0.0
130
0.0
111
1.0
121
0.0
131
0.0
112
0.0
122
1.0
132
0.0
 79
     0
146
0.0
  0
ENDBLK
  5
14B
330
148
100
AcDbEntity
  8
0
100
AcDbBlockEnd
  0
BLOCK
  5
164
330
162
100
AcDbEntity
  8
0
100
AcDbBlockBegin
  2
*Paper_Space4
 70
     0
 10
0.0
 20
0.0
 30
0.0
  3
*Paper_Space4
  1

  0
LINE
  5
173
330
162
100
AcDbEntity
  8
0
  6
Continuous
 62
     7
370
    25
100
AcDbLine
 10
23.4147389479
 20
0.0
 30
0.0
 11
23.4147389479
 21
2.5
 31
0.0
  0
LINE
  5
174
330
162
100
AcDbEntity
  8
0
  6
Continuous
 62
     7
370
    25
100
AcDbLine
 10
2.0
 20
2.5
 30
0.0
 11
2.0
 21
0.0
 31
0.0
  0
LINE
  5
175
330
162
100
AcDbEntity
  8
0
  6
Continuous
 62
     7
370
    25
100
AcDbLine
 10
-2.0
 20
0.0
 30
0.0
 11
-2.0
 21
2.5
 31
0.0
  0
LINE
  5
176
330
162
100
AcDbEntity
  8
0
  6
Continuous
 62
     7
370
    25
100
AcDbLine
 10
-23.4147389479
 20
0.0
 30
0.0
 11
23.4147389479
 21
0.0
 31
0.0
  0
LINE
  5
177
330
162
100
AcDbEntity
  8
0
  6
Continuous
 62
     7
370
    25
100
AcDbLine
 10
-23.4147389479
 20
2.5
 30
0.0
 11
-23.4147389479
 21
0.0
 31
0.0
  0
LINE
  5
178
330
162
100
AcDbEntity
  8
0
  6
Continuous
 62
     7
370
    25
100
AcDbLine
 10
-23.4147389479
 20
2.5
 30
0.0
 11
23.4147389479
 21
2.5
 31
0.0
  0
LINE
  5
179
330
162
100
AcDbEntity
  8
0
  6
Continuous
 62
     7
370
    25
100
AcDbLine
 10
-19.2
 20
2.95
 30
0.0
 11
-19.2
 21
2.5
 31
0.0
  0
LINE
  5
17A
330
162
100
AcDbEntity
  8
0
  6
Continuous
 62
     7
370
    25
100
AcDbLine
 10
-19.2
 20
2.95
 30
0.0
 11
19.2
 21
2.95
 31
0.0
  0
LINE
  5
17B
330
162
100
AcDbEntity
  8
0
  6
Continuous
 62
     7
370
    25
100
AcDbLine
 10
19.2
 20
2.95
 30
0.0
 11
19.2
 21
2.5
 31
0.0
  0
VIEWPORT
  5
284
330
162
100
AcDbEntity
  8
0
100
AcDbViewport
 10
0.0
 20
0.0
 30
0.0
 40
205.6
 41
156.0
 68
     1
 69
     1
 12
-0.5833692362
 22
-0.5268235171
 13
0.0
 23
0.0
 14
10.0
 24
10.0
 15
10.0
 25
10.0
 16
0.0
 26
0.0
 36
1.0
 17
0.0
 27
0.0
 37
0.0
 42
50.0
 43
0.0
 44
0.0
 45
43.9248601721
 50
0.0
 51
0.0
 72
   100
 90
   557152
  1

281
     0
 71
     1
 74
     0
110
0.0
120
0.0
130
0.0
111
1.0
121
0.0
131
0.0
112
0.0
122
1.0
132
0.0
 79
     0
146
0.0
  0
ENDBLK
  5
165
330
162
100
AcDbEntity
  8
0
100
AcDbBlockEnd
  0
BLOCK
  5
17E
330
17C
100
AcDbEntity
  8
0
100
AcDbBlockBegin
  2
*Paper_Space5
 70
     0
 10
0.0
 20
0.0
 30
0.0
  3
*Paper_Space5
  1

  0
LWPOLYLINE
  5
184
330
17C
100
AcDbEntity
  8
0
  6
Continuous
 62
     7
370
    25
100
AcDbPolyline
 90
       11
 70
   128
 43
0.0
 10
-17.3241161391
 20
6.3268974665
 10
-17.102884397
 20
6.219289045
 10
-16.8871001146
 20
6.1545421894
 10
-16.6820766172
 20
6.1342511823
 10
-16.4928622635
 20
6.1589156555
 10
-16.3241161391
 20
6.2279282878
 10
-16.1799933334
 20
6.3395897592
 10
-16.0640426284
 20
6.4911505937
 10
-15.9791191151
 20
6.6788788606
 10
-15.9273138924
 20
6.8981520669
 10
-15.9099025767
 20
7.1435709784
  0
LWPOLYLINE
  5
187
330
17C
100
AcDbEntity
  8
0
  6
Continuous
 62
     7
370
    25
100
AcDbPolyline
 90
       32
 70
   128
 43
0.0
 10
-3.1819805153
 20
18.9149879227
 10
-3.9282079007
 20
19.252524664
 10
-4.6700273493
 20
19.5486984351
 10
-5.4059253307
 20
19.8029049542
 10
-6.134400396
 20
20.014625565
 10
-6.8539662413
 20
20.1834282951
 10
-7.5631547399
 20
20.3089687371
 10
-8.2605189382
 20
20.3909907514
 10
-8.9446360075
 20
20.4293269889
 10
-9.6141101473
 20
20.4238992325
 10
-10.2675754328
 20
20.3747185563
 10
-10.9036986021
 20
20.2818853035
 10
-11.5211817764
 20
20.1455888811
 10
-12.1187651079
 20
19.9661073743
 10
-12.6952293503
 20
19.7438069781
 10
-13.2493983466
 20
19.4791412509
 10
-13.7801414285
 20
19.1726501889
 10
-14.2863757237
 20
18.8249591242
 10
-14.7670683648
 20
18.4367774491
 10
-15.2212385972
 20
18.0088971688
 10
-15.6479597795
 20
17.5421912852
 10
-16.0463612748
 20
17.037612016
 10
-16.4156302264
 20
16.4961888517
 10
-16.7550132168
 20
15.9190264552
 10
-17.0638178047
 20
15.307302408
 10
-17.3414139375
 20
14.6622648077
 10
-17.5872352373
 20
13.9852297211
 10
-17.8007801562
 20
13.2775784995
 10
-17.9816129994
 20
12.5407549601
 10
-18.1293648148
 20
11.7762624403
 10
-18.243734145
 20
10.9856607303
 10
-18.3244876428
 20
10.1705628906
  0
LWPOLYLINE
  5
189
330
17C
100
AcDbEntity
  8
0
  6
Continuous
 62
     7
370
    25
100
AcDbPolyline
 90
       21
 70
   128
 43
0.0
 10
-3.1819805153
 20
17.7597958335
 10
-3.1645691996
 20
17.4942742447
 10
-3.1127639769
 20
17.2151880015
 10
-3.0278404636
 20
16.9294091333
 10
-2.9118897586
 20
16.6439744643
 10
-2.767766953
 20
16.3659123434
 10
-2.5990208285
 20
16.1020695829
 10
-2.4098064749
 20
15.8589428671
 10
-2.2047829774
 20
15.6425187827
 10
-1.988998695
 20
15.4581264089
 10
-1.767766953
 20
15.3103060979
 10
-1.5465352109
 20
15.2026976764
 10
-1.3307509285
 20
15.1379508209
 10
-1.125727431
 20
15.1176598137
 10
-0.9365130774
 20
15.1423242869
 10
-0.767766953
 20
15.2113369192
 10
-0.6236441473
 20
15.3229983907
 10
-0.5076934423
 20
15.4745592252
 10
-0.422769929
 20
15.6622874921
 10
-0.3709647063
 20
15.8815606983
 10
-0.3535533906
 20
16.1269796099
  0
LWPOLYLINE
  5
18D
330
17C
100
AcDbEntity
  8
0
  6
Continuous
 62
     7
370
    25
100
AcDbPolyline
 90
       21
 70
   128
 43
0.0
 10
13.7885822331
 20
-8.3679177461
 10
13.5673504911
 20
-8.2603093246
 10
13.3515662087
 20
-8.195562469
 10
13.1465427112
 20
-8.1752714618
 10
12.9573283576
 20
-8.199935935
 10
12.7885822331
 20
-8.2689485673
 10
12.6444594275
 20
-8.3806100388
 10
12.5285087225
 20
-8.5321708733
 10
12.4435852092
 20
-8.7198991402
 10
12.3917799865
 20
-8.9391723464
 10
12.3743686708
 20
-9.184591258
 10
12.3917799865
 20
-9.4501128468
 10
12.4435852092
 20
-9.7291990901
 10
12.5285087225
 20
-10.0149779583
 10
12.6444594275
 20
-10.3004126273
 10
12.7885822331
 20
-10.5784747481
 10
12.9573283576
 20
-10.8423175087
 10
13.1465427112
 20
-11.0854442245
 10
13.3515662087
 20
-11.3018683089
 10
13.5673504911
 20
-11.4862606826
 10
13.7885822331
 20
-11.6340809936
  0
LWPOLYLINE
  5
18F
330
17C
100
AcDbEntity
  8
0
  6
Continuous
 62
     7
370
    25
100
AcDbPolyline
 90
       32
 70
   128
 43
0.0
 10
-0.3535533906
 20
-20.9560082022
 10
0.3926739947
 20
-21.2935449435
 10
1.1344934433
 20
-21.5897187146
 10
1.8703914248
 20
-21.8439252338
 10
2.5988664901
 20
-22.0556458446
 10
3.3184323353
 20
-22.2244485747
 10
4.027620834
 20
-22.3499890166
 10
4.7249850323
 20
-22.4320110309
 10
5.4091021016
 20
-22.4703472685
 10
6.0785762413
 20
-22.464919512
 10
6.7320415269
 20
-22.4157388359
 10
7.3681646962
 20
-22.322905583
 10
7.9856478705
 20
-22.1866091607
 10
8.583231202
 20
-22.0071276538
 10
9.1596954444
 20
-21.7848272576
 10
9.7138644407
 20
-21.5201615304
 10
10.2446075226
 20
-21.2136704684
 10
10.7508418177
 20
-20.8659794037
 10
11.2315344589
 20
-20.4777977287
 10
11.6857046912
 20
-20.0499174484
 10
12.1124258736
 20
-19.5832115648
 10
12.5108273688
 20
-19.0786322956
 10
12.8800963205
 20
-18.5372091312
 10
13.2194793109
 20
-17.9600467347
 10
13.5282838988
 20
-17.3483226876
 10
13.8058800316
 20
-16.7032850872
 10
14.0517013314
 20
-16.0262500006
 10
14.2652462502
 20
-15.318598779
 10
14.4460790935
 20
-14.5817752397
 10
14.5938309089
 20
-13.8172827199
 10
14.708200239
 20
-13.0266810098
 10
14.7889537368
 20
-12.2115831702
  0
LWPOLYLINE
  5
191
330
17C
100
AcDbEntity
  8
0
  6
Continuous
 62
     7
370
    25
100
AcDbPolyline
 90
       21
 70
   128
 43
0.0
 10
-0.3535533906
 20
-19.8008161131
 10
-0.3709647063
 20
-19.5352945243
 10
-0.422769929
 20
-19.256208281
 10
-0.5076934423
 20
-18.9704294128
 10
-0.6236441473
 20
-18.6849947438
 10
-0.767766953
 20
-18.406932623
 10
-0.9365130774
 20
-18.1430898624
 10
-1.125727431
 20
-17.8999631466
 10
-1.3307509285
 20
-17.6835390622
 10
-1.5465352109
 20
-17.4991466885
 10
-1.767766953
 20
-17.3513263775
 10
-1.988998695
 20
-17.243717956
 10
-2.2047829774
 20
-17.1789711004
 10
-2.4098064749
 20
-17.1586800933
 10
-2.5990208285
 20
-17.1833445665
 10
-2.767766953
 20
-17.2523571988
 10
-2.9118897586
 20
-17.3640186702
 10
-3.0278404636
 20
-17.5155795047
 10
-3.1127639769
 20
-17.7033077716
 10
-3.1645691996
 20
-17.9225809779
 10
-3.1819805153
 20
-18.1679998894
  0
LWPOLYLINE
  5
195
330
17C
100
AcDbEntity
  8
0
  6
Continuous
 62
     7
370
    25
100
AcDbPolyline
 90
       49
 70
   128
 43
0.0
 10
11.8086832458
 20
-8.8580280133
 10
11.792329817
 20
-8.079324814
 10
11.7433089273
 20
-7.2836163119
 10
11.6617386724
 20
-6.4728194385
 10
11.5478155621
 20
-5.6488874743
 10
11.4018140473
 20
-4.8138053438
 10
11.2240858583
 20
-3.9695848329
 10
11.0150591579
 20
-3.1182597428
 10
10.7752375098
 20
-2.2618809901
 10
10.5051986654
 20
-1.4025116663
 10
10.2055931717
 20
-0.5422220673
 10
9.8771428048
 20
0.3169152937
 10
9.5206388303
 20
1.1728306798
 10
9.1369400975
 20
2.0234621157
 10
8.7269709703
 20
2.8667603559
 10
8.2917191001
 20
3.7006938209
 10
7.832233047
 20
4.523253492
 10
7.3496197531
 20
5.332457751
 10
6.8450418759
 20
6.1263571539
 10
6.3197149879
 20
6.9030391275
 10
5.7749046475
 20
7.6606325769
 10
5.2119233506
 20
8.3973123931
 10
4.6321273684
 20
9.1113038499
 10
4.0369134802
 20
9.8008868793
 10
3.4277156084
 20
10.4644002155
 10
2.8060013641
 20
11.1002453967
 10
2.1732685112
 20
11.7068906162
 10
1.5310413588
 20
12.2828744125
 10
0.8808670881
 20
12.8268091901
 10
0.2243120261
 20
13.3373845626
 10
-0.4370421287
 20
13.8133705091
 10
-1.1016021161
 20
14.2536203378
 10
-1.767766953
 20
14.6570734484
 10
-2.4339317898
 20
15.022757887
 10
-3.0984917773
 20
15.3497926876
 10
-3.7598459321
 20
15.6373899948
 10
-4.4164009941
 20
15.8848569616
 10
-5.0665752647
 20
16.0915974182
 10
-5.7088024172
 20
16.257113309
 10
-6.34153527
 20
16.3810058915
 10
-6.9632495144
 20
16.4629766977
 10
-7.5724473862
 20
16.5028282527
 10
-8.1676612744
 20
16.5004645506
 10
-8.7474572566
 20
16.4558912859
 10
-9.3104385535
 20
16.3692158394
 10
-9.8552488939
 20
16.2406470199
 10
-10.3805757819
 20
16.0704945608
 10
-10.885153659
 20
15.8591683745
 10
-11.3669867863
 20
15.6076280179
  0
LWPOLYLINE
  5
196
330
17C
100
AcDbEntity
  8
0
  6
Continuous
 62
     7
370
    25
100
AcDbPolyline
 90
       18
 70
   128
 43
0.0
 10
7.8314528803
 20
-17.6486482975
 10
7.832233047
 20
-17.6481978436
 10
8.2917191001
 20
-17.3561494772
 10
8.7269709703
 20
-17.0247471247
 10
9.1369400975
 20
-16.6547891635
 10
9.5206388303
 20
-16.2471668548
 10
9.8771428048
 20
-15.8028621963
 10
10.2055931717
 20
-15.3229455569
 10
10.5051986654
 20
-14.8085730979
 10
10.7752375098
 20
-14.2609839875
 10
11.0150591579
 20
-13.6814974159
 10
11.2240858583
 20
-13.071509417
 10
11.4018140473
 20
-12.4324895053
 10
11.5478155621
 20
-11.7659771357
 10
11.6617386724
 20
-11.0735779949
 10
11.7433089273
 20
-10.3569601331
 10
11.792329817
 20
-9.6178499455
 10
11.8086832458
 20
-8.8580280133
  0
LWPOLYLINE
  5
19A
330
17C
100
AcDbEntity
  8
0
  6
Continuous
 62
     7
370
    25
100
AcDbPolyline
 90
       65
 70
   128
 43
0.0
 10
11.4904851943
 20
-9.0417198384
 10
11.4741317654
 20
-8.2630166392
 10
11.4251108758
 20
-7.4673081371
 10
11.3435406208
 20
-6.6565112636
 10
11.2296175106
 20
-5.8325792995
 10
11.0836159958
 20
-4.997497169
 10
10.9058878068
 20
-4.1532766581
 10
10.6968611064
 20
-3.3019515679
 10
10.4570394583
 20
-2.4455728152
 10
10.1870006138
 20
-1.5862034914
 10
9.8873951202
 20
-0.7259138925
 10
9.5589447532
 20
0.1332234686
 10
9.2024407787
 20
0.9891388547
 10
8.8187420459
 20
1.8397702906
 10
8.4087729187
 20
2.6830685307
 10
7.9735210486
 20
3.5170019957
 10
7.5140349955
 20
4.3395616669
 10
7.0314217015
 20
5.1487659259
 10
6.5268438244
 20
5.9426653288
 10
6.0015169364
 20
6.7193473023
 10
5.456706596
 20
7.4769407517
 10
4.8937252991
 20
8.2136205679
 10
4.3139293169
 20
8.9276120247
 10
3.7187154287
 20
9.6171950542
 10
3.1095175569
 20
10.2807083904
 10
2.4878033126
 20
10.9165535716
 10
1.8550704597
 20
11.523198791
 10
1.2128433072
 20
12.0991825873
 10
0.5626690366
 20
12.6431173649
 10
-0.0938860254
 20
13.1536927374
 10
-0.7552401802
 20
13.6296786839
 10
-1.4198001676
 20
14.0699285127
 10
-2.0859650045
 20
14.4733816233
 10
-2.7521298414
 20
14.8390660618
 10
-3.4166898288
 20
15.1661008624
 10
-4.0780439836
 20
15.4536981697
 10
-4.7345990456
 20
15.7011651364
 10
-5.3847733162
 20
15.9079055931
 10
-6.0270004687
 20
16.0734214838
 10
-6.6597333216
 20
16.1973140663
 10
-7.2814475659
 20
16.2792848725
 10
-7.8906454377
 20
16.3191364275
 10
-8.4858593259
 20
16.3167727255
 10
-9.0656553081
 20
16.2721994608
 10
-9.628636605
 20
16.1855240143
 10
-10.1734469454
 20
16.0569551947
 10
-10.6987738334
 20
15.8868027357
 10
-11.2033517105
 20
15.6754765493
 10
-11.6859650045
 20
15.4234857389
 10
-12.1454510576
 20
15.1314373724
 10
-12.5807029277
 20
14.80003502
 10
-12.9906720549
 20
14.4300770588
 10
-13.3743707877
 20
14.02245475
 10
-13.7308747622
 20
13.5781500916
 10
-14.0593251292
 20
13.0982334522
 10
-14.3589306228
 20
12.5838609932
 10
-14.6289694673
 20
12.0362718828
 10
-14.8687911154
 20
11.4567853112
 10
-15.0778178158
 20
10.8467973123
 10
-15.2555460048
 20
10.2077774005
 10
-15.4015475196
 20
9.5412650309
 10
-15.5154706298
 20
8.8488658902
 10
-15.5970408848
 20
8.1322480284
 10
-15.6460617744
 20
7.3931378408
 10
-15.6624152033
 20
6.6333159086
  0
LWPOLYLINE
  5
19B
330
17C
100
AcDbEntity
  8
0
  6
Continuous
 62
     7
370
    25
100
AcDbPolyline
 90
       65
 70
   128
 43
0.0
 10
-15.6624152033
 20
6.6333159086
 10
-15.6460617744
 20
5.8546127093
 10
-15.5970408848
 20
5.0589042072
 10
-15.5154706298
 20
4.2481073337
 10
-15.4015475196
 20
3.4241753696
 10
-15.2555460048
 20
2.5890932391
 10
-15.0778178158
 20
1.7448727282
 10
-14.8687911154
 20
0.893547638
 10
-14.6289694673
 20
0.0371688854
 10
-14.3589306228
 20
-0.8222004384
 10
-14.0593251292
 20
-1.6824900374
 10
-13.7308747622
 20
-2.5416273985
 10
-13.3743707877
 20
-3.3975427845
 10
-12.9906720549
 20
-4.2481742204
 10
-12.5807029277
 20
-5.0914724606
 10
-12.1454510576
 20
-5.9254059256
 10
-11.6859650045
 20
-6.7479655968
 10
-11.2033517105
 20
-7.5571698557
 10
-10.6987738334
 20
-8.3510692586
 10
-10.1734469454
 20
-9.1277512322
 10
-9.628636605
 20
-9.8853446816
 10
-9.0656553081
 20
-10.6220244978
 10
-8.4858593259
 20
-11.3360159546
 10
-7.8906454377
 20
-12.0255989841
 10
-7.2814475659
 20
-12.6891123203
 10
-6.6597333216
 20
-13.3249575015
 10
-6.0270004687
 20
-13.9316027209
 10
-5.3847733162
 20
-14.5075865172
 10
-4.7345990456
 20
-15.0515212948
 10
-4.0780439836
 20
-15.5620966673
 10
-3.4166898288
 20
-16.0380826138
 10
-2.7521298414
 20
-16.4783324426
 10
-2.0859650045
 20
-16.8817855531
 10
-1.4198001676
 20
-17.2474699917
 10
-0.7552401802
 20
-17.5745047923
 10
-0.0938860254
 20
-17.8621020995
 10
0.5626690366
 20
-18.1095690663
 10
1.2128433072
 20
-18.316309523
 10
1.8550704597
 20
-18.4818254137
 10
2.4878033126
 20
-18.6057179962
 10
3.1095175569
 20
-18.6876888024
 10
3.7187154287
 20
-18.7275403574
 10
4.3139293169
 20
-18.7251766554
 10
4.8937252991
 20
-18.6806033906
 10
5.456706596
 20
-18.5939279441
 10
6.0015169364
 20
-18.4653591246
 10
6.5268438244
 20
-18.2952066655
 10
7.0314217015
 20
-18.0838804792
 10
7.5140349955
 20
-17.8318896688
 10
7.9735210486
 20
-17.5398413023
 10
8.4087729187
 20
-17.2084389498
 10
8.8187420459
 20
-16.8384809887
 10
9.2024407787
 20
-16.4308586799
 10
9.5589447532
 20
-15.9865540214
 10
9.8873951202
 20
-15.5066373821
 10
10.1870006138
 20
-14.9922649231
 10
10.4570394583
 20
-14.4446758127
 10
10.6968611064
 20
-13.8651892411
 10
10.9058878068
 20
-13.2552012421
 10
11.0836159958
 20
-12.6161813304
 10
11.2296175106
 20
-11.9496689608
 10
11.3435406208
 20
-11.25726982
 10
11.4251108758
 20
-10.5406519583
 10
11.4741317654
 20
-9.8015417707
 10
11.4904851943
 20
-9.0417198384
  0
LWPOLYLINE
  5
19C
330
17C
100
AcDbEntity
  8
0
  6
Continuous
 62
     7
370
    25
100
AcDbPolyline
 90
       33
 70
   128
 43
0.0
 10
1.2374368671
 20
-3.1227610277
 10
1.2214337787
 20
-2.7373581633
 10
1.173578632
 20
-2.3371901666
 10
1.0943322983
 20
-1.9261108742
 10
0.984457963
 20
-1.5080792043
 10
0.845013776
 20
-1.0871210305
 10
0.6773426612
 20
-0.6672904101
 10
0.483059383
 20
-0.2526305415
 10
0.2640349955
 20
0.1528651741
 10
0.0223788234
 20
0.5452915913
 10
-0.2395818523
 20
0.9208694292
 10
-0.5193242071
 20
1.2759816679
 10
-0.8141541692
 20
1.6072083825
 10
-1.1212323648
 20
1.9113596785
 10
-1.4376014632
 20
2.1855064127
 10
-1.7602146569
 20
2.4270084022
 10
-2.0859650045
 20
2.6335398509
 10
-2.4117153521
 20
2.803111748
 10
-2.7343285458
 20
2.9340910234
 10
-3.0506976442
 20
3.0252162751
 10
-3.3577758398
 20
3.0756099171
 10
-3.6526058019
 20
3.0847866312
 10
-3.9323481567
 20
3.0526580404
 10
-4.1943088324
 20
2.9795335607
 10
-4.4359650045
 20
2.8661174209
 10
-4.654989392
 20
2.7135018803
 10
-4.8492726702
 20
2.5231567101
 10
-5.016943785
 20
2.2969150382
 10
-5.156387972
 20
2.0369556957
 10
-5.2662623073
 20
1.7457822331
 10
-5.345508641
 20
1.4261988101
 10
-5.3933637877
 20
1.0812831897
 10
-5.4093668761
 20
0.7143570978
  0
LWPOLYLINE
  5
19D
330
17C
100
AcDbEntity
  8
0
  6
Continuous
 62
     7
370
    25
100
AcDbPolyline
 90
       33
 70
   128
 43
0.0
 10
-5.4093668761
 20
0.7143570978
 10
-5.3933637877
 20
0.3289542334
 10
-5.345508641
 20
-0.0712137632
 10
-5.2662623073
 20
-0.4822930557
 10
-5.156387972
 20
-0.9003247255
 10
-5.016943785
 20
-1.3212828993
 10
-4.8492726702
 20
-1.7411135197
 10
-4.654989392
 20
-2.1557733884
 10
-4.4359650045
 20
-2.561269104
 10
-4.1943088324
 20
-2.9536955212
 10
-3.9323481567
 20
-3.3292733591
 10
-3.6526058019
 20
-3.6843855978
 10
-3.3577758398
 20
-4.0156123123
 10
-3.0506976442
 20
-4.3197636083
 10
-2.7343285458
 20
-4.5939103426
 10
-2.4117153521
 20
-4.8354123321
 10
-2.0859650045
 20
-5.0419437808
 10
-1.7602146569
 20
-5.2115156779
 10
-1.4376014632
 20
-5.3424949533
 10
-1.1212323648
 20
-5.433620205
 10
-0.8141541692
 20
-5.484013847
 10
-0.5193242071
 20
-5.493190561
 10
-0.2395818523
 20
-5.4610619703
 10
0.0223788234
 20
-5.3879374906
 10
0.2640349955
 20
-5.2745213508
 10
0.483059383
 20
-5.1219058102
 10
0.6773426612
 20
-4.93156064
 10
0.845013776
 20
-4.7053189681
 10
0.984457963
 20
-4.4453596256
 10
1.0943322983
 20
-4.154186163
 10
1.173578632
 20
-3.83460274
 10
1.2214337787
 20
-3.4896871196
 10
1.2374368671
 20
-3.1227610277
  0
LINE
  5
1AC
330
17C
100
AcDbEntity
  8
0
  6
Continuous
 62
     7
370
    25
100
AcDbLine
 10
-11.3669867863
 20
15.6076280179
 30
0.0
 11
-11.6851848378
 21
15.4239361928
 31
0.0
  0
LINE
  5
1AD
330
17C
100
AcDbEntity
  8
0
  6
Continuous
 62
     7
370
    25
100
AcDbLine
 10
9.9812781555
 20
-21.3726584057
 30
0.0
 11
11.7490451085
 21
-20.3521482659
 31
0.0
  0
LINE
  5
1AE
330
17C
100
AcDbEntity
  8
0
  6
Continuous
 62
     7
370
    25
100
AcDbLine
 10
-11.7490451085
 20
20.3521482659
 30
0.0
 11
-13.5168120614
 21
19.3316381262
 31
0.0
  0
LINE
  5
1AF
330
17C
100
AcDbEntity
  8
0
  6
Continuous
 62
     7
370
    25
100
AcDbLine
 10
7.5132548288
 20
-17.8323401226
 30
0.0
 11
7.8314528803
 21
-17.6486482975
 31
0.0
  0
LINE
  5
1B0
330
17C
100
AcDbEntity
  8
0
  6
Continuous
 62
     7
370
    25
100
AcDbLine
 10
-17.3241161391
 20
9.593060714
 30
0.0
 11
-18.3244876428
 21
10.1705628906
 31
0.0
  0
LINE
  5
1B1
330
17C
100
AcDbEntity
  8
0
  6
Continuous
 62
     7
370
    25
100
AcDbLine
 10
-3.1819805153
 20
18.9149879227
 30
0.0
 11
-3.1819805153
 21
17.7597958335
 31
0.0
  0
LINE
  5
1B2
330
17C
100
AcDbEntity
  8
0
  6
Continuous
 62
     7
370
    25
100
AcDbLine
 10
-0.3535533906
 20
16.1269796099
 30
0.0
 11
-0.3535533906
 21
17.282171699
 31
0.0
  0
LINE
  5
1B3
330
17C
100
AcDbEntity
  8
0
  6
Continuous
 62
     7
370
    25
100
AcDbLine
 10
14.7889537368
 20
-8.9454199227
 30
0.0
 11
13.7885822331
 21
-8.3679177461
 31
0.0
  0
LINE
  5
1B4
330
17C
100
AcDbEntity
  8
0
  6
Continuous
 62
     7
370
    25
100
AcDbLine
 10
13.7885822331
 20
-11.6340809936
 30
0.0
 11
14.7889537368
 21
-12.2115831702
 31
0.0
  0
LINE
  5
1B5
330
17C
100
AcDbEntity
  8
0
  6
Continuous
 62
     7
370
    25
100
AcDbLine
 10
-0.3535533906
 20
-20.9560082022
 30
0.0
 11
-0.3535533906
 21
-19.8008161131
 31
0.0
  0
LINE
  5
1B6
330
17C
100
AcDbEntity
  8
0
  6
Continuous
 62
     7
370
    25
100
AcDbLine
 10
-3.1819805153
 20
-18.1679998894
 30
0.0
 11
-3.1819805153
 21
-19.3231919786
 31
0.0
  0
LINE
  5
1B7
330
17C
100
AcDbEntity
  8
0
  6
Continuous
 62
     7
370
    25
100
AcDbLine
 10
-18.3244876428
 20
6.9043996431
 30
0.0
 11
-17.3241161391
 21
6.3268974665
 31
0.0
  0
LINE
  5
1B8
330
17C
100
AcDbEntity
  8
0
  6
Continuous
 62
     7
370
    25
100
AcDbLine
 10
1.4142135624
 20
18.3026818388
 30
0.0
 11
-0.3535533906
 21
17.282171699
 31
0.0
  0
LINE
  5
1B9
330
17C
100
AcDbEntity
  8
0
  6
Continuous
 62
     7
370
    25
100
AcDbLine
 10
14.7889537368
 20
-8.9454199227
 30
0.0
 11
16.5567206898
 21
-7.9249097829
 31
0.0
  0
LINE
  5
1BA
330
17C
100
AcDbEntity
  8
0
  6
Continuous
 62
     7
370
    25
100
AcDbLine
 10
16.5567206898
 20
-11.1910730304
 30
0.0
 11
14.7889537368
 21
-12.2115831702
 31
0.0
  0
LINE
  5
1BB
330
17C
100
AcDbEntity
  8
0
  6
Continuous
 62
     7
370
    25
100
AcDbLine
 10
15.5563491861
 20
-10.6135708538
 30
0.0
 11
16.5567206898
 21
-11.1910730304
 31
0.0
  0
LINE
  5
1BC
330
17C
100
AcDbEntity
  8
0
  6
Continuous
 62
     7
370
    25
100
AcDbLine
 10
-3.1819805153
 20
18.9149879227
 30
0.0
 11
-1.4142135624
 21
19.9354980625
 31
0.0
  0
LINE
  5
1BD
330
17C
100
AcDbEntity
  8
0
  6
Continuous
 62
     7
370
    25
100
AcDbLine
 10
-1.4142135624
 20
19.9354980625
 30
0.0
 11
-1.4142135624
 21
18.7803059733
 31
0.0
  0
LINE
  5
1BE
330
17C
100
AcDbEntity
  8
0
  6
Continuous
 62
     7
370
    25
100
AcDbLine
 10
-1.4142135624
 20
-18.3026818388
 30
0.0
 11
-3.1819805153
 21
-19.3231919786
 31
0.0
  0
LINE
  5
1BF
330
17C
100
AcDbEntity
  8
0
  6
Continuous
 62
     7
370
    25
100
AcDbLine
 10
-1.4142135624
 20
-17.6072855463
 30
0.0
 11
-1.4142135624
 21
-18.3026818388
 31
0.0
  0
LINE
  5
1C0
330
17C
100
AcDbEntity
  8
0
  6
Continuous
 62
     7
370
    25
100
AcDbLine
 10
-18.3244876428
 20
6.9043996431
 30
0.0
 11
-16.5567206898
 21
7.9249097829
 31
0.0
  0
LINE
  5
1C1
330
17C
100
AcDbEntity
  8
0
  6
Continuous
 62
     7
370
    25
100
AcDbLine
 10
-16.5567206898
 20
7.9249097829
 30
0.0
 11
-15.9547355999
 21
7.5773911876
 31
0.0
  0
ARC
  5
1C2
330
17C
100
AcDbEntity
  8
0
  6
Continuous
 62
     7
370
    25
100
AcDbCircle
 10
-18.9584218152
 20
7.0165007298
 30
0.0
 40
3.051166399189471
100
AcDbArc
 50
2.3868561234
 51
57.6131440222
  0
ARC
  5
1C3
330
17C
100
AcDbEntity
  8
0
  6
Continuous
 62
     7
370
    25
100
AcDbCircle
 10
-21.9926420084
 20
-12.696223083
 30
0.0
 40
36.97234520443804
100
AcDbArc
 50
5.8226097658
 51
54.1773903799
  0
ARC
  5
1C4
330
17C
100
AcDbEntity
  8
0
  6
Continuous
 62
     7
370
    25
100
AcDbCircle
 10
18.4571081025
 20
10.6552028034
 30
0.0
 40
36.97234520443799
100
AcDbArc
 50
185.8226097658
 51
234.1773903799
  0
ARC
  5
1C5
330
17C
100
AcDbEntity
  8
0
  6
Continuous
 62
     7
370
    25
100
AcDbCircle
 10
-20.2248750555
 20
-11.6757129432
 30
0.0
 40
36.97234520443805
100
AcDbArc
 50
5.8226097658
 51
54.1773903799
  0
ARC
  5
1C6
330
17C
100
AcDbEntity
  8
0
  6
Continuous
 62
     7
370
    25
100
AcDbCircle
 10
17.2505582912
 20
-7.9895889664
 30
0.0
 40
3.123399660203618
100
AcDbArc
 50
191.23068591
 51
237.1511486856
  0
ARC
  5
1C7
330
17C
100
AcDbEntity
  8
0
  6
Continuous
 62
     7
370
    25
100
AcDbCircle
 10
1.7164553013
 20
18.9409089785
 30
0.0
 40
3.134785616160687
100
AcDbArc
 50
182.9366935199
 51
228.6745724192
  0
ARC
  5
1C8
330
17C
100
AcDbEntity
  8
0
  6
Continuous
 62
     7
370
    25
100
AcDbCircle
 10
5.5552301571
 20
-11.2596157041
 30
0.0
 40
11.00170405161337
100
AcDbArc
 50
304.2626125757
 51
0.3569657308
  0
ARC
  5
1C9
330
17C
100
AcDbEntity
  8
0
  6
Continuous
 62
     7
370
    25
100
AcDbCircle
 10
-6.9727076368
 20
10.443291803
 30
0.0
 40
10.99994709295941
100
AcDbArc
 50
59.6473981355
 51
115.7353272851
  0
ARC
  5
1CA
330
17C
100
AcDbEntity
  8
0
  6
Continuous
 62
     7
370
    25
100
AcDbCircle
 10
0.0216555362
 20
1.9771164633
 30
0.0
 40
3.345569911131411
100
AcDbArc
 50
161.3760230064
 51
181.0028973632
  0
ARC
  5
1CB
330
17C
100
AcDbEntity
  8
0
  6
Continuous
 62
     7
370
    25
100
AcDbCircle
 10
3.3166147505
 20
1.9965354725
 30
0.0
 40
6.640474460622286
100
AcDbArc
 50
180.6728166616
 51
250.1589466187
  0
VIEWPORT
  5
286
330
17C
100
AcDbEntity
  8
0
100
AcDbViewport
 10
0.0
 20
0.0
 30
0.0
 40
205.6
 41
156.0
 68
     1
 69
     1
 12
-0.5833692362
 22
-0.5268235171
 13
0.0
 23
0.0
 14
10.0
 24
10.0
 15
10.0
 25
10.0
 16
0.0
 26
0.0
 36
1.0
 17
0.0
 27
0.0
 37
0.0
 42
50.0
 43
0.0
 44
0.0
 45
43.9248601721
 50
0.0
 51
0.0
 72
   100
 90
   557152
  1

281
     0
 71
     1
 74
     0
110
0.0
120
0.0
130
0.0
111
1.0
121
0.0
131
0.0
112
0.0
122
1.0
132
0.0
 79
     0
146
0.0
  0
ENDBLK
  5
17F
330
17C
100
AcDbEntity
  8
0
100
AcDbBlockEnd
  0
BLOCK
  5
1CE
330
1CC
100
AcDbEntity
  8
0
100
AcDbBlockBegin
  2
*Paper_Space6
 70
     0
 10
0.0
 20
0.0
 30
0.0
  3
*Paper_Space6
  1

  0
LWPOLYLINE
  5
1D7
330
1CC
100
AcDbEntity
  8
0
  6
Continuous
 62
     7
370
    25
100
AcDbPolyline
 90
       32
 70
   128
 43
0.0
 10
-2.9355747157
 20
19.412307853
 10
-3.8689231717
 20
19.568081151
 10
-4.796758374
 20
19.6816063605
 10
-5.7171872651
 20
19.7526518564
 10
-6.6283318986
 20
19.7810726851
 10
-7.5283332706
 20
19.7668108597
 10
-8.4153551131
 20
19.7098954784
 10
-9.2875876398
 20
19.6104426655
 10
-10.143251239
 20
19.468655334
 10
-10.9806001048
 20
19.284822772
 10
-11.7979257984
 20
19.0593200519
 10
-12.5935607344
 20
18.792607266
 10
-13.3658815829
 20
18.4852285869
 10
-14.1133125815
 20
18.1378111578
 10
-14.8343287505
 20
17.7510638128
 10
-15.5274590044
 20
17.3257756304
 10
-16.191289153
 20
16.862814324
 10
-16.8244647869
 20
16.3631244713
 10
-17.4256940412
 20
15.8277255868
 10
-17.9937502309
 20
15.2577100422
 10
-18.5274743538
 20
14.6542408374
 10
-19.0257774552
 20
14.0185492274
 10
-19.4876428499
 20
13.3519322108
 10
-19.9121281963
 20
12.6557498827
 10
-20.298367419
 20
11.9314226604
 10
-20.6455724762
 20
11.1804283852
 10
-20.953034967
 20
10.4042993069
 10
-21.2201275774
 20
9.6046189576
 10
-21.4463053597
 20
8.7830189211
 10
-21.6311068444
 20
7.9411755038
 10
-21.774154982
 20
7.0808063146
 10
-21.8751579122
 20
6.2036667604
  0
LWPOLYLINE
  5
1D9
330
1CC
100
AcDbEntity
  8
0
  6
Continuous
 62
     7
370
    25
100
AcDbPolyline
 90
       21
 70
   128
 43
0.0
 10
-2.9355747157
 20
18.1996398878
 10
-2.9137974063
 20
17.9255402655
 10
-2.8490017078
 20
17.6463526734
 10
-2.7427831054
 20
17.3689516367
 10
-2.5977570535
 20
17.1001676896
 10
-2.4174945748
 20
16.8466191848
 10
-2.2064343299
 20
16.614549328
 10
-1.9697733224
 20
16.4096724492
 10
-1.7133389318
 20
16.2370332973
 10
-1.4434454238
 20
16.100882821
 10
-1.1667384723
 20
16.004573497
 10
-0.8900315209
 20
15.9504767805
 10
-0.6201380129
 20
15.939924712
 10
-0.3637036222
 20
15.9731771186
 10
-0.1270426148
 20
16.0494152158
 10
0.0840176302
 20
16.1667617684
 10
0.2642801088
 20
16.3223273149
 10
0.4093061607
 20
16.5122813153
 10
0.5155247632
 20
16.7319464717
 10
0.5803204617
 20
16.9759138989
 10
0.602097771
 20
17.2381763091
  0
LWPOLYLINE
  5
1DD
330
1CC
100
AcDbEntity
  8
0
  6
Continuous
 62
     7
370
    25
100
AcDbPolyline
 90
       21
 70
   128
 43
0.0
 10
18.2904602046
 20
-4.7124875987
 10
18.0137532531
 20
-4.6583908821
 10
17.7438597451
 20
-4.6478388136
 10
17.4874253545
 20
-4.6810912203
 10
17.250764347
 20
-4.7573293174
 10
17.0397041021
 20
-4.87467587
 10
16.8594416234
 20
-5.0302414165
 10
16.7144155715
 20
-5.2201954169
 10
16.6081969691
 20
-5.4398605733
 10
16.5434012706
 20
-5.6838280005
 10
16.5216239612
 20
-5.9460904107
 10
16.5434012706
 20
-6.220190033
 10
16.6081969691
 20
-6.4993776251
 10
16.7144155715
 20
-6.7767786618
 10
16.8594416234
 20
-7.0455626089
 10
17.0397041021
 20
-7.2991111137
 10
17.250764347
 20
-7.5311809705
 10
17.4874253545
 20
-7.7360578493
 10
17.7438597451
 20
-7.9086970012
 10
18.0137532531
 20
-8.0448474774
 10
18.2904602046
 20
-8.1411568015
  0
LWPOLYLINE
  5
1DF
330
1CC
100
AcDbEntity
  8
0
  6
Continuous
 62
     7
370
    25
100
AcDbPolyline
 90
       32
 70
   128
 43
0.0
 10
0.602097771
 20
-21.689852887
 10
1.5354462271
 20
-21.8456261851
 10
2.4632814293
 20
-21.9591513945
 10
3.3837103204
 20
-22.0301968905
 10
4.2948549539
 20
-22.0586177191
 10
5.194856326
 20
-22.0443558937
 10
6.0818781684
 20
-21.9874405124
 10
6.9541106951
 20
-21.8879876995
 10
7.8097742944
 20
-21.7462003681
 10
8.6471231601
 20
-21.562367806
 10
9.4644488538
 20
-21.3368650859
 10
10.2600837898
 20
-21.0701523
 10
11.0324046382
 20
-20.7627736209
 10
11.7798356368
 20
-20.4153561919
 10
12.5008518059
 20
-20.0286088468
 10
13.1939820597
 20
-19.6033206644
 10
13.8578122083
 20
-19.1403593581
 10
14.4909878423
 20
-18.6406695053
 10
15.0922170966
 20
-18.1052706208
 10
15.6602732863
 20
-17.5352550762
 10
16.1939974091
 20
-16.9317858714
 10
16.6923005106
 20
-16.2960942614
 10
17.1541659053
 20
-15.6294772448
 10
17.5786512517
 20
-14.9332949167
 10
17.9648904744
 20
-14.2089676945
 10
18.3120955315
 20
-13.4579734193
 10
18.6195580224
 20
-12.6818443409
 10
18.8866506328
 20
-11.8821639916
 10
19.112828415
 20
-11.0605639551
 10
19.2976298998
 20
-10.2187205378
 10
19.4406780374
 20
-9.3583513486
 10
19.5416809676
 20
-8.4812117944
  0
LWPOLYLINE
  5
1E1
330
1CC
100
AcDbEntity
  8
0
  6
Continuous
 62
     7
370
    25
100
AcDbPolyline
 90
       21
 70
   128
 43
0.0
 10
0.602097771
 20
-20.4771849218
 10
0.5803204617
 20
-20.2030852995
 10
0.5155247632
 20
-19.9238977074
 10
0.4093061607
 20
-19.6464966708
 10
0.2642801088
 20
-19.3777127236
 10
0.0840176302
 20
-19.1241642188
 10
-0.1270426148
 20
-18.892094362
 10
-0.3637036222
 20
-18.6872174833
 10
-0.6201380129
 20
-18.5145783313
 10
-0.8900315209
 20
-18.3784278551
 10
-1.1667384723
 20
-18.2821185311
 10
-1.4434454238
 20
-18.2280218145
 10
-1.7133389318
 20
-18.217469746
 10
-1.9697733224
 20
-18.2507221527
 10
-2.2064343299
 20
-18.3269602498
 10
-2.4174945748
 20
-18.4443068024
 10
-2.5977570535
 20
-18.5998723489
 10
-2.7427831054
 20
-18.7898263493
 10
-2.8490017078
 20
-19.0094915057
 10
-2.9137974063
 20
-19.2534589329
 10
-2.9355747157
 20
-19.5157213431
  0
LWPOLYLINE
  5
1E5
330
1CC
100
AcDbEntity
  8
0
  6
Continuous
 62
     7
370
    25
100
AcDbPolyline
 90
       52
 70
   128
 43
0.0
 10
15.8140894639
 20
-5.7537976949
 10
15.793635313
 20
-4.9407019407
 10
15.732322136
 20
-4.1184470054
 10
15.6302976419
 20
-3.2890137733
 10
15.4878076166
 20
-2.4544004217
 10
15.3051953309
 20
-1.6166176072
 10
15.082900714
 20
-0.777683622
 10
14.8214592929
 20
0.0603804683
 10
14.521500903
 20
0.8955556942
 10
14.1837481704
 20
1.7258300451
 10
13.8090147709
 20
2.5492033176
 10
13.3982034701
 20
3.3636919333
 10
12.9523039484
 20
4.1673337177
 10
12.4723904168
 20
4.9581926275
 10
11.9596190291
 20
5.7343634141
 10
11.4152250965
 20
6.4939762144
 10
10.8405201115
 20
7.2352010543
 10
10.236888589
 20
7.9562522585
 10
9.6057847299
 20
8.6553927514
 10
8.948728919
 20
9.3309382422
 10
8.2673040611
 20
9.9812612828
 10
7.5631517684
 20
10.604795188
 10
6.8379684054
 20
11.2000378099
 10
6.0935010025
 20
11.7655551571
 10
5.3315430467
 20
12.2999848485
 10
4.5539301616
 20
12.8020393964
 10
3.7625356847
 20
13.2705093073
 10
2.9592661545
 20
13.7042659962
 10
2.1460567178
 20
14.1022645052
 10
1.3248664674
 20
14.4635460211
 10
0.4976737224
 20
14.787240185
 10
-0.3335287373
 20
15.0725671894
 10
-1.1667384723
 20
15.3188396565
 10
-1.9999482073
 20
15.5254642943
 10
-2.8311506671
 20
15.691943326
 10
-3.658343412
 20
15.8178756891
 10
-4.4795336625
 20
15.9029580014
 10
-5.2927430992
 20
15.9469852922
 10
-6.0960126293
 20
15.9498514959
 10
-6.8874071062
 20
15.9115497076
 10
-7.6650199914
 20
15.8321721996
 10
-8.4269779471
 20
15.7119101993
 10
-9.1714453501
 20
15.5510534284
 10
-9.896628713
 20
15.349989405
 10
-10.6007810057
 20
15.1092025098
 10
-11.2822058636
 20
14.8292728196
 10
-11.9392616746
 20
14.5108747096
 10
-12.5703655336
 20
14.1547752287
 10
-13.1739970562
 20
13.7618322517
 10
-13.7487020411
 20
13.3329924126
 10
-14.2930959738
 20
12.8692888243
 10
-14.5775191184
 20
12.6013498428
  0
LWPOLYLINE
  5
1EA
330
1CC
100
AcDbEntity
  8
0
  6
Continuous
 62
     7
370
    25
100
AcDbPolyline
 90
       65
 70
   128
 43
0.0
 10
15.6040765389
 20
-5.958776748
 10
15.5836223879
 20
-5.1456809937
 10
15.522309211
 20
-4.3234260585
 10
15.4202847169
 20
-3.4939928264
 10
15.2777946915
 20
-2.6593794747
 10
15.0951824059
 20
-1.8215966603
 10
14.8728877889
 20
-0.9826626751
 10
14.6114463679
 20
-0.1445985847
 10
14.311487978
 20
0.6905766411
 10
13.9737352454
 20
1.5208509921
 10
13.5990018458
 20
2.3442242645
 10
13.188190545
 20
3.1587128802
 10
12.7422910234
 20
3.9623546646
 10
12.2623774918
 20
4.7532135744
 10
11.7496061041
 20
5.5293843611
 10
11.2052121714
 20
6.2889971613
 10
10.6305071865
 20
7.0302220013
 10
10.0268756639
 20
7.7512732054
 10
9.3957718049
 20
8.4504136983
 10
8.738715994
 20
9.1259591891
 10
8.057291136
 20
9.7762822297
 10
7.3531388433
 20
10.3998161349
 10
6.6279554804
 20
10.9950587569
 10
5.8834880774
 20
11.560576104
 10
5.1215301217
 20
12.0950057955
 10
4.3439172366
 20
12.5970603434
 10
3.5525227596
 20
13.0655302543
 10
2.7492532295
 20
13.4992869432
 10
1.9360437928
 20
13.8972854522
 10
1.1148535424
 20
14.2585669681
 10
0.2876607974
 20
14.582261132
 10
-0.5435416624
 20
14.8675881363
 10
-1.3767513973
 20
15.1138606034
 10
-2.2099611323
 20
15.3204852412
 10
-3.0411635921
 20
15.486964273
 10
-3.8683563371
 20
15.612896636
 10
-4.6895465875
 20
15.6979789483
 10
-5.5027560242
 20
15.7420062392
 10
-6.3060255543
 20
15.7448724429
 10
-7.0974200313
 20
15.7065706545
 10
-7.8750329164
 20
15.6271931466
 10
-8.6369908721
 20
15.5069311463
 10
-9.3814582751
 20
15.3460743754
 10
-10.106641638
 20
15.1450103519
 10
-10.8107939307
 20
14.9042234567
 10
-11.4922187886
 20
14.6242937666
 10
-12.1492745996
 20
14.3058956565
 10
-12.7803784586
 20
13.9497961756
 10
-13.3840099812
 20
13.5568531986
 10
-13.9587149661
 20
13.1280133596
 10
-14.5031088988
 20
12.6643097712
 10
-15.0158802865
 20
12.1668595362
 10
-15.495793818
 20
11.6368610556
 10
-15.9416933397
 20
11.0755911422
 10
-16.3525046405
 20
10.4844019444
 10
-16.72723804
 20
9.8647176887
 10
-17.0649907727
 20
9.2180312489
 10
-17.3649491626
 20
8.5459005492
 10
-17.6263905836
 20
7.8499448113
 10
-17.8486852006
 20
7.1318406535
 10
-18.0312974862
 20
6.3933180517
 10
-18.1737875116
 20
5.6361561715
 10
-18.2758120057
 20
4.8621790821
 10
-18.3371251826
 20
4.0732513623
 10
-18.3575793336
 20
3.2712736079
  0
LWPOLYLINE
  5
1EB
330
1CC
100
AcDbEntity
  8
0
  6
Continuous
 62
     7
370
    25
100
AcDbPolyline
 90
       65
 70
   128
 43
0.0
 10
-18.3575793336
 20
3.2712736079
 10
-18.3371251826
 20
2.4581778536
 10
-18.2758120057
 20
1.6359229183
 10
-18.1737875116
 20
0.8064896862
 10
-18.0312974862
 20
-0.0281236654
 10
-17.8486852006
 20
-0.8659064799
 10
-17.6263905836
 20
-1.704840465
 10
-17.3649491626
 20
-2.5429045554
 10
-17.0649907727
 20
-3.3780797812
 10
-16.72723804
 20
-4.2083541322
 10
-16.3525046405
 20
-5.0317274047
 10
-15.9416933397
 20
-5.8462160203
 10
-15.495793818
 20
-6.6498578048
 10
-15.0158802865
 20
-7.4407167145
 10
-14.5031088988
 20
-8.2168875012
 10
-13.9587149661
 20
-8.9765003014
 10
-13.3840099812
 20
-9.7177251414
 10
-12.7803784586
 20
-10.4387763456
 10
-12.1492745996
 20
-11.1379168384
 10
-11.4922187886
 20
-11.8134623293
 10
-10.8107939307
 20
-12.4637853699
 10
-10.106641638
 20
-13.0873192751
 10
-9.3814582751
 20
-13.682561897
 10
-8.6369908721
 20
-14.2480792441
 10
-7.8750329164
 20
-14.7825089356
 10
-7.0974200313
 20
-15.2845634835
 10
-6.3060255543
 20
-15.7530333944
 10
-5.5027560242
 20
-16.1867900833
 10
-4.6895465875
 20
-16.5847885923
 10
-3.8683563371
 20
-16.9460701082
 10
-3.0411635921
 20
-17.2697642721
 10
-2.2099611323
 20
-17.5550912765
 10
-1.3767513973
 20
-17.8013637436
 10
-0.5435416624
 20
-18.0079883814
 10
0.2876607974
 20
-18.1744674131
 10
1.1148535424
 20
-18.3003997762
 10
1.9360437928
 20
-18.3854820885
 10
2.7492532295
 20
-18.4295093793
 10
3.5525227596
 20
-18.432375583
 10
4.3439172366
 20
-18.3940737947
 10
5.1215301217
 20
-18.3146962867
 10
5.8834880774
 20
-18.1944342864
 10
6.6279554804
 20
-18.0335775155
 10
7.3531388433
 20
-17.8325134921
 10
8.057291136
 20
-17.5917265969
 10
8.738715994
 20
-17.3117969067
 10
9.3957718049
 20
-16.9933987967
 10
10.0268756639
 20
-16.6372993158
 10
10.6305071865
 20
-16.2443563387
 10
11.2052121714
 20
-15.8155164997
 10
11.7496061041
 20
-15.3518129114
 10
12.2623774918
 20
-14.8543626763
 10
12.7422910234
 20
-14.3243641957
 10
13.188190545
 20
-13.7630942823
 10
13.5990018458
 20
-13.1719050845
 10
13.9737352454
 20
-12.5522208289
 10
14.311487978
 20
-11.9055343891
 10
14.6114463679
 20
-11.2334036893
 10
14.8728877889
 20
-10.5374479514
 10
15.0951824059
 20
-9.8193437936
 10
15.2777946915
 20
-9.0808211918
 10
15.4202847169
 20
-8.3236593116
 10
15.522309211
 20
-7.5496822223
 10
15.5836223879
 20
-6.7607545024
 10
15.6040765389
 20
-5.958776748
  0
LWPOLYLINE
  5
1EC
330
1CC
100
AcDbEntity
  8
0
  6
Continuous
 62
     7
370
    25
100
AcDbPolyline
 90
       33
 70
   128
 43
0.0
 10
2.7800137745
 20
-2.4734712751
 10
2.7599978141
 20
-2.0731510542
 10
2.7001426973
 20
-1.6658063176
 10
2.6010248618
 20
-1.2553600177
 10
2.4635988664
 20
-0.8457649767
 10
2.2891881986
 20
-0.4409658189
 10
2.0794725286
 20
-0.0448609814
 10
1.8364715327
 20
0.3387348297
 10
1.5625254435
 20
0.7061273771
 10
1.2602725115
 20
1.0537784696
 10
0.9326235978
 20
1.3783400372
 10
0.5827341404
 20
1.6766863745
 10
0.2139737662
 20
1.9459442434
 10
-0.170106161
 20
2.1835205432
 10
-0.5658067414
 20
2.3871272843
 10
-0.9693171622
 20
2.5548036226
 10
-1.3767513973
 20
2.6849347432
 10
-1.7841856325
 20
2.7762674123
 10
-2.1876960533
 20
2.8279220464
 10
-2.5833966337
 20
2.8394011831
 10
-2.9674765609
 20
2.810594272
 10
-3.3362369351
 20
2.7417787395
 10
-3.6861263925
 20
2.6336173167
 10
-4.0137753062
 20
2.4871516573
 10
-4.3160282382
 20
2.3037923056
 10
-4.5899743274
 20
2.0853051124
 10
-4.8329753232
 20
1.8337942289
 10
-5.0426909933
 20
1.5516818423
 10
-5.2171016611
 20
1.2416848492
 10
-5.3545276565
 20
0.9067886899
 10
-5.453645492
 20
0.5502185978
 10
-5.5135006088
 20
0.1754085375
 10
-5.5335165692
 20
-0.2140318651
  0
LWPOLYLINE
  5
1ED
330
1CC
100
AcDbEntity
  8
0
  6
Continuous
 62
     7
370
    25
100
AcDbPolyline
 90
       33
 70
   128
 43
0.0
 10
-5.5335165692
 20
-0.2140318651
 10
-5.5135006088
 20
-0.6143520859
 10
-5.453645492
 20
-1.0216968226
 10
-5.3545276565
 20
-1.4321431225
 10
-5.2171016611
 20
-1.8417381634
 10
-5.0426909933
 20
-2.2465373213
 10
-4.8329753232
 20
-2.6426421588
 10
-4.5899743274
 20
-3.0262379699
 10
-4.3160282382
 20
-3.3936305172
 10
-4.0137753062
 20
-3.7412816097
 10
-3.6861263925
 20
-4.0658431773
 10
-3.3362369351
 20
-4.3641895147
 10
-2.9674765609
 20
-4.6334473835
 10
-2.5833966337
 20
-4.8710236833
 10
-2.1876960533
 20
-5.0746304245
 10
-1.7841856325
 20
-5.2423067628
 10
-1.3767513973
 20
-5.3724378834
 10
-0.9693171622
 20
-5.4637705525
 10
-0.5658067414
 20
-5.5154251866
 10
-0.170106161
 20
-5.5269043232
 10
0.2139737662
 20
-5.4980974122
 10
0.5827341404
 20
-5.4292818796
 10
0.9326235978
 20
-5.3211204568
 10
1.2602725115
 20
-5.1746547974
 10
1.5625254435
 20
-4.9912954457
 10
1.8364715327
 20
-4.7728082526
 10
2.0794725286
 20
-4.5212973691
 10
2.2891881986
 20
-4.2391849825
 10
2.4635988664
 20
-3.9291879893
 10
2.6010248618
 20
-3.5942918301
 10
2.7001426973
 20
-3.2377217379
 10
2.7599978141
 20
-2.8629116776
 10
2.7800137745
 20
-2.4734712751
  0
LINE
  5
1FE
330
1CC
100
AcDbEntity
  8
0
  6
Continuous
 62
     7
370
    25
100
AcDbLine
 10
-14.5775191184
 20
12.6013498428
 30
0.0
 11
-14.7875320434
 21
12.3963707897
 31
0.0
  0
LINE
  5
1FF
330
1CC
100
AcDbEntity
  8
0
  6
Continuous
 62
     7
370
    25
100
AcDbLine
 10
-16.4142367283
 20
16.8173372633
 30
0.0
 11
-17.5809752006
 21
15.6785647463
 31
0.0
  0
LINE
  5
200
330
1CC
100
AcDbEntity
  8
0
  6
Continuous
 62
     7
370
    25
100
AcDbLine
 10
15.247498256
 20
-17.9561097803
 30
0.0
 11
16.4142367283
 21
-16.8173372633
 31
0.0
  0
LINE
  5
201
330
1CC
100
AcDbEntity
  8
0
  6
Continuous
 62
     7
370
    25
100
AcDbLine
 10
12.0340292487
 20
-15.0838739299
 30
0.0
 11
12.2440421738
 21
-14.8788948768
 31
0.0
  0
LINE
  5
202
330
1CC
100
AcDbEntity
  8
0
  6
Continuous
 62
     7
370
    25
100
AcDbLine
 10
-20.6239371492
 20
5.8636117674
 30
0.0
 11
-21.8751579122
 21
6.2036667604
 31
0.0
  0
LINE
  5
203
330
1CC
100
AcDbEntity
  8
0
  6
Continuous
 62
     7
370
    25
100
AcDbLine
 10
-2.9355747157
 20
19.412307853
 30
0.0
 11
-2.9355747157
 21
18.1996398878
 31
0.0
  0
LINE
  5
204
330
1CC
100
AcDbEntity
  8
0
  6
Continuous
 62
     7
370
    25
100
AcDbLine
 10
0.602097771
 20
17.2381763091
 30
0.0
 11
0.602097771
 21
18.4508442743
 31
0.0
  0
LINE
  5
205
330
1CC
100
AcDbEntity
  8
0
  6
Continuous
 62
     7
370
    25
100
AcDbLine
 10
19.5416809676
 20
-5.0525425916
 30
0.0
 11
18.2904602046
 21
-4.7124875987
 31
0.0
  0
LINE
  5
206
330
1CC
100
AcDbEntity
  8
0
  6
Continuous
 62
     7
370
    25
100
AcDbLine
 10
18.2904602046
 20
-8.1411568015
 30
0.0
 11
19.5416809676
 21
-8.4812117944
 31
0.0
  0
LINE
  5
207
330
1CC
100
AcDbEntity
  8
0
  6
Continuous
 62
     7
370
    25
100
AcDbLine
 10
0.602097771
 20
-21.689852887
 30
0.0
 11
0.602097771
 21
-20.4771849218
 31
0.0
  0
LINE
  5
208
330
1CC
100
AcDbEntity
  8
0
  6
Continuous
 62
     7
370
    25
100
AcDbLine
 10
-2.9355747157
 20
-19.5157213431
 30
0.0
 11
-2.9355747157
 21
-20.7283893083
 31
0.0
  0
LINE
  5
209
330
1CC
100
AcDbEntity
  8
0
  6
Continuous
 62
     7
370
    25
100
AcDbLine
 10
-21.8751579122
 20
2.7749975576
 30
0.0
 11
-20.6239371492
 21
2.4349425646
 31
0.0
  0
LINE
  5
20A
330
1CC
100
AcDbEntity
  8
0
  6
Continuous
 62
     7
370
    25
100
AcDbLine
 10
1.7688362434
 20
19.5896167913
 30
0.0
 11
0.602097771
 21
18.4508442743
 31
0.0
  0
LINE
  5
20B
330
1CC
100
AcDbEntity
  8
0
  6
Continuous
 62
     7
370
    25
100
AcDbLine
 10
19.5416809676
 20
-5.0525425916
 30
0.0
 11
20.7084194399
 21
-3.9137700746
 31
0.0
  0
LINE
  5
20C
330
1CC
100
AcDbEntity
  8
0
  6
Continuous
 62
     7
370
    25
100
AcDbLine
 10
-2.9355747157
 20
19.412307853
 30
0.0
 11
-1.7688362434
 21
20.55108037
 31
0.0
  0
LINE
  5
20D
330
1CC
100
AcDbEntity
  8
0
  6
Continuous
 62
     7
370
    25
100
AcDbLine
 10
-1.7688362434
 20
20.55108037
 30
0.0
 11
-1.7688362434
 21
19.3384124048
 31
0.0
  0
LINE
  5
20E
330
1CC
100
AcDbEntity
  8
0
  6
Continuous
 62
     7
370
    25
100
AcDbLine
 10
20.7084194399
 20
-7.3424392774
 30
0.0
 11
19.5416809676
 21
-8.4812117944
 31
0.0
  0
LINE
  5
20F
330
1CC
100
AcDbEntity
  8
0
  6
Continuous
 62
     7
370
    25
100
AcDbLine
 10
19.4571986769
 20
-7.0023842845
 30
0.0
 11
20.7084194399
 21
-7.3424392774
 31
0.0
  0
LINE
  5
210
330
1CC
100
AcDbEntity
  8
0
  6
Continuous
 62
     7
370
    25
100
AcDbLine
 10
-1.761236858
 20
-18.2202731999
 30
0.0
 11
-1.7688362434
 21
-18.3769488261
 31
0.0
  0
LINE
  5
211
330
1CC
100
AcDbEntity
  8
0
  6
Continuous
 62
     7
370
    25
100
AcDbLine
 10
-21.8751579122
 20
2.7749975576
 30
0.0
 11
-20.7084194399
 21
3.9137700746
 31
0.0
  0
LINE
  5
212
330
1CC
100
AcDbEntity
  8
0
  6
Continuous
 62
     7
370
    25
100
AcDbLine
 10
-20.7084194399
 20
3.9137700746
 30
0.0
 11
-19.4571986769
 21
3.5737150816
 31
0.0
  0
LINE
  5
213
330
1CC
100
AcDbEntity
  8
0
  6
Continuous
 62
     7
370
    25
100
AcDbLine
 10
-1.7688362434
 20
-19.5896167913
 30
0.0
 11
-2.9355747157
 21
-20.7283893083
 31
0.0
  0
LINE
  5
214
330
1CC
100
AcDbEntity
  8
0
  6
Continuous
 62
     7
370
    25
100
AcDbLine
 10
-1.7688362434
 20
-18.3769488261
 30
0.0
 11
-1.7688362434
 21
-19.5896167913
 31
0.0
  0
ARC
  5
215
330
1CC
100
AcDbEntity
  8
0
  6
Continuous
 62
     7
370
    25
100
AcDbCircle
 10
-20.1602828986
 20
3.6550681345
 30
0.0
 40
1.305251573567189
100
AcDbArc
 50
249.192940872
 51
0.5916122484
  0
ARC
  5
216
330
1CC
100
AcDbEntity
  8
0
  6
Continuous
 62
     7
370
    25
100
AcDbCircle
 10
-21.2706005265
 20
3.5322970071
 30
0.0
 40
2.419339173280733
100
AcDbArc
 50
3.2283976279
 51
74.4969745105
  0
ARC
  5
217
330
1CC
100
AcDbEntity
  8
0
  6
Continuous
 62
     7
370
    25
100
AcDbCircle
 10
-9.1824828891
 20
-8.8164762199
 30
0.0
 40
28.96972187689083
100
AcDbArc
 50
7.4653431774
 51
70.260028961
  0
ARC
  5
218
330
1CC
100
AcDbEntity
  8
0
  6
Continuous
 62
     7
370
    25
100
AcDbCircle
 10
6.8490059445
 20
6.5389311858
 30
0.0
 40
28.9697218768908
100
AcDbArc
 50
187.4653431774
 51
250.260028961
  0
ARC
  5
219
330
1CC
100
AcDbEntity
  8
0
  6
Continuous
 62
     7
370
    25
100
AcDbCircle
 10
3.3124420801
 20
-6.1236398659
 30
0.0
 40
12.50711679568054
100
AcDbArc
 50
315.5712431145
 51
1.6945140313
  0
ARC
  5
21A
330
1CC
100
AcDbEntity
  8
0
  6
Continuous
 62
     7
370
    25
100
AcDbCircle
 10
-8.0157444168
 20
-7.6777037028
 30
0.0
 40
28.96972187689085
100
AcDbArc
 50
7.4653431774
 51
70.260028961
  0
ARC
  5
21B
330
1CC
100
AcDbEntity
  8
0
  6
Continuous
 62
     7
370
    25
100
AcDbCircle
 10
0.5819493544
 20
19.4342036854
 30
0.0
 40
2.352736469769083
100
AcDbArc
 50
182.3334332844
 51
270.30560581
  0
ARC
  5
21C
330
1CC
100
AcDbEntity
  8
0
  6
Continuous
 62
     7
370
    25
100
AcDbCircle
 10
-5.569201149
 20
4.8680435971
 30
0.0
 40
16.13692708777014
100
AcDbArc
 50
76.3784689115
 51
132.2265074362
  0
ARC
  5
21D
330
1CC
100
AcDbEntity
  8
0
  6
Continuous
 62
     7
370
    25
100
AcDbCircle
 10
20.0853130712
 20
-4.6966121907
 30
0.0
 40
2.389793430526765
100
AcDbArc
 50
178.8977938395
 51
254.7618252536
  0
ARC
  5
21E
330
1CC
100
AcDbEntity
  8
0
  6
Continuous
 62
     7
370
    25
100
AcDbCircle
 10
5.8210013323
 20
-6.3057584634
 30
0.0
 40
14.92346893389948
100
AcDbArc
 50
315.2216818845
 51
356.0166559843
  0
ARC
  5
21F
330
1CC
100
AcDbEntity
  8
0
  6
Continuous
 62
     7
370
    25
100
AcDbCircle
 10
-0.818803335
 20
1.1669515464
 30
0.0
 40
3.338169473650011
100
AcDbArc
 50
155.2085377085
 51
180.6390543144
  0
ARC
  5
220
330
1CC
100
AcDbEntity
  8
0
  6
Continuous
 62
     7
370
    25
100
AcDbCircle
 10
1.1063941083
 20
1.1724807205
 30
0.0
 40
5.263332985153377
100
AcDbArc
 50
180.4654945216
 51
285.0443028882
  0
ARC
  5
221
330
1CC
100
AcDbEntity
  8
0
  6
Continuous
 62
     7
370
    25
100
AcDbCircle
 10
-18.9823209725
 20
5.2502756079
 30
0.0
 40
1.742516580234361
100
AcDbArc
 50
254.1854811215
 51
273.9363497907
  0
VIEWPORT
  5
288
330
1CC
100
AcDbEntity
  8
0
100
AcDbViewport
 10
0.0
 20
0.0
 30
0.0
 40
205.6
 41
156.0
 68
     1
 69
     1
 12
-0.5833692362
 22
-0.5268235171
 13
0.0
 23
0.0
 14
10.0
 24
10.0
 15
10.0
 25
10.0
 16
0.0
 26
0.0
 36
1.0
 17
0.0
 27
0.0
 37
0.0
 42
50.0
 43
0.0
 44
0.0
 45
43.9248601721
 50
0.0
 51
0.0
 72
   100
 90
   557152
  1

281
     0
 71
     1
 74
     0
110
0.0
120
0.0
130
0.0
111
1.0
121
0.0
131
0.0
112
0.0
122
1.0
132
0.0
 79
     0
146
0.0
  0
ENDBLK
  5
1CF
330
1CC
100
AcDbEntity
  8
0
100
AcDbBlockEnd
  0
BLOCK
  5
224
330
222
100
AcDbEntity
  8
0
100
AcDbBlockBegin
  2
*Paper_Space7
 70
     0
 10
0.0
 20
0.0
 30
0.0
  3
*Paper_Space7
  1

  0
LWPOLYLINE
  5
22F
330
222
100
AcDbEntity
  8
0
  6
Continuous
 62
     7
370
    25
100
AcDbPolyline
 90
       21
 70
   128
 43
0.0
 10
-2.7547121697
 20
20.1979892203
 10
-2.7316791641
 20
19.9001116782
 10
-2.6631472961
 20
19.6037650979
 10
-2.5508040478
 20
19.3162465158
 10
-2.3974156828
 20
19.0446355934
 10
-2.2067591319
 20
18.7956202932
 10
-1.9835289919
 20
18.5753321983
 10
-1.7332219297
 20
18.3891955327
 10
-1.4620013361
 20
18.2417935988
 10
-1.1765455621
 20
18.1367559214
 10
-0.8838834763
 20
18.0766688768
 10
-0.5912213904
 20
18.0630120074
 10
-0.3057656164
 20
18.0961215907
 10
-0.0345450228
 20
18.1751823588
 10
0.2157620393
 20
18.2982475733
 10
0.4389921793
 20
18.46228696
 10
0.6296487303
 20
18.663261325
 10
0.7830370952
 20
18.8962220124
 10
0.8953803435
 20
19.1554327568
 10
0.9639122115
 20
19.4345109295
 10
0.9869452172
 20
19.7265846997
  0
LWPOLYLINE
  5
233
330
222
100
AcDbEntity
  8
0
  6
Continuous
 62
     7
370
    25
100
AcDbPolyline
 90
       21
 70
   128
 43
0.0
 10
19.6952321517
 20
-1.4866187353
 10
19.4025700658
 20
-1.4729618659
 10
19.1171142918
 20
-1.5060714492
 10
18.8458936982
 20
-1.5851322173
 10
18.5955866361
 20
-1.7081974318
 10
18.3723564961
 20
-1.8722368186
 10
18.1816999451
 20
-2.0732111836
 10
18.0283115801
 20
-2.306171871
 10
17.9159683319
 20
-2.5653826154
 10
17.8474364639
 20
-2.8444607881
 10
17.8244034582
 20
-3.1365345583
 10
17.8474364639
 20
-3.4344121003
 10
17.9159683319
 20
-3.7307586806
 10
18.0283115801
 20
-4.0182772628
 10
18.1816999451
 20
-4.2898881851
 10
18.3723564961
 20
-4.5389034853
 10
18.5955866361
 20
-4.7591915803
 10
18.8458936982
 20
-4.9453282459
 10
19.1171142918
 20
-5.0927301798
 10
19.4025700658
 20
-5.1977678572
 10
19.6952321517
 20
-5.2578549018
  0
LWPOLYLINE
  5
237
330
222
100
AcDbEntity
  8
0
  6
Continuous
 62
     7
370
    25
100
AcDbPolyline
 90
       21
 70
   128
 43
0.0
 10
0.9869452172
 20
-21.7570131311
 10
0.9639122115
 20
-21.4591355891
 10
0.8953803435
 20
-21.1627890088
 10
0.7830370952
 20
-20.8752704266
 10
0.6296487303
 20
-20.6036595043
 10
0.4389921793
 20
-20.3546442041
 10
0.2157620393
 20
-20.1343561091
 10
-0.0345450228
 20
-19.9482194435
 10
-0.3057656164
 20
-19.8008175096
 10
-0.5912213904
 20
-19.6957798322
 10
-0.8838834763
 20
-19.6356927876
 10
-1.1765455621
 20
-19.6220359182
 10
-1.4620013361
 20
-19.6551455015
 10
-1.7332219297
 20
-19.7342062696
 10
-1.9835289919
 20
-19.8572714841
 10
-2.2067591319
 20
-20.0213108709
 10
-2.3974156828
 20
-20.2222852359
 10
-2.5508040478
 20
-20.4552459232
 10
-2.6631472961
 20
-20.7144566677
 10
-2.7316791641
 20
-20.9935348404
 10
-2.7547121697
 20
-21.2856086106
  0
LWPOLYLINE
  5
23B
330
222
100
AcDbEntity
  8
0
  6
Continuous
 62
     7
370
    25
100
AcDbPolyline
 90
       49
 70
   128
 43
0.0
 10
17.0760719808
 20
-3.0422536542
 10
17.0544384279
 20
-2.1513083002
 10
16.9895898863
 20
-1.2570581686
 10
16.8816825819
 20
-0.3616575864
 10
16.7309764727
 20
0.532736348
 10
16.5378346231
 20
1.4239689614
 10
16.3027223286
 20
2.3098931962
 10
16.0262059953
 20
3.1883747833
 10
15.7089517754
 20
4.0572973838
 10
15.3517239619
 20
4.914567687
 10
14.9553831481
 20
5.7581204535
 10
14.5208841536
 20
6.5859234909
 10
14.0492737246
 20
7.3959825492
 10
13.5416880119
 20
8.1863461252
 10
12.999349834
 20
8.9551101637
 10
12.423565731
 20
9.7004226449
 10
11.8157228172
 20
10.4204880457
 10
11.1772854396
 20
11.1135716655
 10
10.5097916496
 20
11.7780038051
 10
9.8148494982
 20
12.4121837894
 10
9.094133162
 20
13.0145838232
 10
8.3493789098
 20
13.583752672
 10
7.5823809197
 20
14.1183191582
 10
6.7949869572
 20
14.6169954644
 10
5.9890939232
 20
15.0785802357
 10
5.1666432846
 20
15.5019614738
 10
4.3296163971
 20
15.8861192164
 10
3.4800297317
 20
16.2301279937
 10
2.6199300172
 20
16.5331590586
 10
1.7513893091
 20
16.7944823825
 10
0.8764999981
 20
17.0134684148
 10
-0.002630231
 20
17.1895895989
 10
-0.8838834763
 20
17.3224216435
 10
-1.7651367216
 20
17.4116445445
 10
-2.6442669506
 20
17.4570433561
 10
-3.5191562617
 20
17.4585087086
 10
-4.3876969698
 20
17.4160370719
 10
-5.2477966843
 20
17.3297307638
 10
-6.0973833497
 20
17.1997977039
 10
-6.9344102372
 20
17.0265509121
 10
-7.7568608757
 20
16.8104077553
 10
-8.5627539097
 20
16.5518889412
 10
-9.3501478723
 20
16.2516172644
 10
-10.1171458624
 20
15.9103161054
 10
-10.8619001146
 20
15.5288076888
 10
-11.5826164508
 20
15.1080111018
 10
-12.2775586021
 20
14.6489400801
 10
-12.9450523922
 20
14.1527005661
 10
-13.5834897698
 20
13.6204880442
  0
LWPOLYLINE
  5
240
330
222
100
AcDbEntity
  8
0
  6
Continuous
 62
     7
370
    25
100
AcDbPolyline
 90
       65
 70
   128
 43
0.0
 10
16.9169729551
 20
-3.1825658061
 10
16.8953394022
 20
-2.2916204521
 10
16.8304908606
 20
-1.3973703206
 10
16.7225835562
 20
-0.5019697384
 10
16.571877447
 20
0.3924241961
 10
16.3787355974
 20
1.2836568094
 10
16.1436233028
 20
2.1695810442
 10
15.8671069696
 20
3.0480626314
 10
15.5498527496
 20
3.9169852319
 10
15.1926249362
 20
4.774255535
 10
14.7962841224
 20
5.6178083015
 10
14.3617851279
 20
6.445611339
 10
13.8901746989
 20
7.2556703973
 10
13.3825889862
 20
8.0460339732
 10
12.8402508083
 20
8.8147980117
 10
12.2644667053
 20
9.5601104929
 10
11.6566237915
 20
10.2801758937
 10
11.0181864139
 20
10.9732595135
 10
10.3506926239
 20
11.6376916532
 10
9.6557504725
 20
12.2718716374
 10
8.9350341363
 20
12.8742716712
 10
8.1902798841
 20
13.44344052
 10
7.423281894
 20
13.9780070062
 10
6.6358879315
 20
14.4766833124
 10
5.8299948974
 20
14.9382680837
 10
5.0075442589
 20
15.3616493218
 10
4.1705173714
 20
15.7458070644
 10
3.320930706
 20
16.0898158418
 10
2.4608309915
 20
16.3928469066
 10
1.5922902834
 20
16.6541702306
 10
0.7174009723
 20
16.8731562629
 10
-0.1617292567
 20
17.049277447
 10
-1.042982502
 20
17.1821094915
 10
-1.9242357473
 20
17.2713323925
 10
-2.8033659764
 20
17.3167312041
 10
-3.6782552874
 20
17.3181965566
 10
-4.5467959955
 20
17.2757249199
 10
-5.40689571
 20
17.1894186118
 10
-6.2564823754
 20
17.0594855519
 10
-7.0935092629
 20
16.8862387602
 10
-7.9159599015
 20
16.6700956034
 10
-8.7218529355
 20
16.4115767893
 10
-9.509246898
 20
16.1113051124
 10
-10.2762448881
 20
15.7700039534
 10
-11.0209991403
 20
15.3884955369
 10
-11.7417154765
 20
14.9676989498
 10
-12.4366576279
 20
14.5086279281
 10
-13.1041514179
 20
14.0123884141
 10
-13.7425887955
 20
13.4801758922
 10
-14.3504317093
 20
12.9132725091
 10
-14.9262158123
 20
12.3130439845
 10
-15.4685539902
 20
11.6809363217
 10
-15.9761397029
 20
11.0184723233
 10
-16.4477501319
 20
10.3272479231
 10
-16.8822491264
 20
9.6089283412
 10
-17.2785899402
 20
8.8652440725
 10
-17.6358177536
 20
8.0979867175
 10
-17.9530719736
 20
7.3090046664
 10
-18.2295883069
 20
6.5001986459
 10
-18.4647006014
 20
5.6735171408
 10
-18.657842451
 20
4.830951699
 10
-18.8085485602
 20
3.9745321346
 10
-18.9164558646
 20
3.1063216374
 10
-18.9813044062
 20
2.2284118024
 10
-19.0029379591
 20
1.3429175913
  0
LWPOLYLINE
  5
241
330
222
100
AcDbEntity
  8
0
  6
Continuous
 62
     7
370
    25
100
AcDbPolyline
 90
       65
 70
   128
 43
0.0
 10
-19.0029379591
 20
1.3429175913
 10
-18.9813044062
 20
0.4519722373
 10
-18.9164558646
 20
-0.4422778942
 10
-18.8085485602
 20
-1.3376784764
 10
-18.657842451
 20
-2.2320724108
 10
-18.4647006014
 20
-3.1233050242
 10
-18.2295883069
 20
-4.009229259
 10
-17.9530719736
 20
-4.8877108462
 10
-17.6358177536
 20
-5.7566334466
 10
-17.2785899402
 20
-6.6139037498
 10
-16.8822491264
 20
-7.4574565163
 10
-16.4477501319
 20
-8.2852595537
 10
-15.9761397029
 20
-9.0953186121
 10
-15.4685539902
 20
-9.885682188
 10
-14.9262158123
 20
-10.6544462265
 10
-14.3504317093
 20
-11.3997587077
 10
-13.7425887955
 20
-12.1198241085
 10
-13.1041514179
 20
-12.8129077283
 10
-12.4366576279
 20
-13.477339868
 10
-11.7417154765
 20
-14.1115198522
 10
-11.0209991403
 20
-14.713919886
 10
-10.2762448881
 20
-15.2830887348
 10
-9.509246898
 20
-15.817655221
 10
-8.7218529355
 20
-16.3163315272
 10
-7.9159599015
 20
-16.7779162985
 10
-7.0935092629
 20
-17.2012975366
 10
-6.2564823754
 20
-17.5854552792
 10
-5.40689571
 20
-17.9294640566
 10
-4.5467959955
 20
-18.2324951214
 10
-3.6782552874
 20
-18.4938184454
 10
-2.8033659764
 20
-18.7128044777
 10
-1.9242357473
 20
-18.8889256618
 10
-1.042982502
 20
-19.0217577063
 10
-0.1617292567
 20
-19.1109806073
 10
0.7174009723
 20
-19.1563794189
 10
1.5922902834
 20
-19.1578447714
 10
2.4608309915
 20
-19.1153731347
 10
3.320930706
 20
-19.0290668266
 10
4.1705173714
 20
-18.8991337667
 10
5.0075442589
 20
-18.7258869749
 10
5.8299948974
 20
-18.5097438181
 10
6.6358879315
 20
-18.2512250041
 10
7.423281894
 20
-17.9509533272
 10
8.1902798841
 20
-17.6096521682
 10
8.9350341363
 20
-17.2281437516
 10
9.6557504725
 20
-16.8073471646
 10
10.3506926239
 20
-16.3482761429
 10
11.0181864139
 20
-15.8520366289
 10
11.6566237915
 20
-15.319824107
 10
12.2644667053
 20
-14.7529207239
 10
12.8402508083
 20
-14.1526921993
 10
13.3825889862
 20
-13.5205845365
 10
13.8901746989
 20
-12.858120538
 10
14.3617851279
 20
-12.1668961378
 10
14.7962841224
 20
-11.448576556
 10
15.1926249362
 20
-10.7048922873
 10
15.5498527496
 20
-9.9376349323
 10
15.8671069696
 20
-9.1486528811
 10
16.1436233028
 20
-8.3398468607
 10
16.3787355974
 20
-7.5131653555
 10
16.571877447
 20
-6.6705999138
 10
16.7225835562
 20
-5.8141803494
 10
16.8304908606
 20
-4.9459698522
 10
16.8953394022
 20
-4.0680600172
 10
16.9169729551
 20
-3.1825658061
  0
LWPOLYLINE
  5
242
330
222
100
AcDbEntity
  8
0
  6
Continuous
 62
     7
370
    25
100
AcDbPolyline
 90
       33
 70
   128
 43
0.0
 10
3.3534649276
 20
-1.4737244191
 10
3.3322948315
 20
-1.0367234408
 10
3.268988423
 20
-0.5985966581
 10
3.1641553773
 20
-0.1635634713
 10
3.018805294
 20
0.2641865121
 10
2.8343379737
 20
0.680533826
 10
2.6125299378
 20
1.0814688182
 10
2.3555173187
 20
1.4631302655
 10
2.0657752886
 20
1.8218425595
 10
1.7460942215
 20
2.1541511048
 10
1.3995528209
 20
2.4568555884
 10
1.0294884699
 20
2.7270408006
 10
0.6394650906
 20
2.9621047102
 10
0.2332388212
 20
3.1597835232
 10
-0.1852781572
 20
3.3181734846
 10
-0.6120552974
 20
3.4357492124
 10
-1.042982502
 20
3.5113783882
 10
-1.4739097067
 20
3.5443326616
 10
-1.9006868468
 20
3.5342946649
 10
-2.3192038252
 20
3.4813610696
 10
-2.7254300946
 20
3.3860416551
 10
-3.115453474
 20
3.2492543995
 10
-3.4855178249
 20
3.0723166389
 10
-3.8320592255
 20
2.8569323805
 10
-4.1517402926
 20
2.6051758925
 10
-4.4414823228
 20
2.3194717276
 10
-4.6984949418
 20
2.002571373
 10
-4.9203029778
 20
1.6575267524
 10
-5.104770298
 20
1.2876608341
 10
-5.2501203813
 20
0.8965356291
 10
-5.354953427
 20
0.4879178869
 10
-5.4182598356
 20
0.0657428197
 10
-5.4394299316
 20
-0.3659237957
  0
LWPOLYLINE
  5
243
330
222
100
AcDbEntity
  8
0
  6
Continuous
 62
     7
370
    25
100
AcDbPolyline
 90
       33
 70
   128
 43
0.0
 10
-5.4394299316
 20
-0.3659237957
 10
-5.4182598356
 20
-0.802924774
 10
-5.354953427
 20
-1.2410515567
 10
-5.2501203813
 20
-1.6760847435
 10
-5.104770298
 20
-2.1038347269
 10
-4.9203029778
 20
-2.5201820408
 10
-4.6984949418
 20
-2.921117033
 10
-4.4414823228
 20
-3.3027784803
 10
-4.1517402926
 20
-3.6614907743
 10
-3.8320592255
 20
-3.9937993196
 10
-3.4855178249
 20
-4.2965038032
 10
-3.115453474
 20
-4.5666890154
 10
-2.7254300946
 20
-4.801752925
 10
-2.3192038252
 20
-4.999431738
 10
-1.9006868468
 20
-5.1578216994
 10
-1.4739097067
 20
-5.2753974272
 10
-1.042982502
 20
-5.351026603
 10
-0.6120552974
 20
-5.3839808764
 10
-0.1852781572
 20
-5.3739428797
 10
0.2332388212
 20
-5.3210092844
 10
0.6394650906
 20
-5.2256898699
 10
1.0294884699
 20
-5.0889026143
 10
1.3995528209
 20
-4.9119648536
 10
1.7460942215
 20
-4.6965805953
 10
2.0657752886
 20
-4.4448241073
 10
2.3555173187
 20
-4.1591199424
 10
2.6125299378
 20
-3.8422195878
 10
2.8343379737
 20
-3.4971749672
 10
3.018805294
 20
-3.1273090489
 10
3.1641553773
 20
-2.7361838439
 10
3.268988423
 20
-2.3275661017
 10
3.3322948315
 20
-1.9053910345
 10
3.3534649276
 20
-1.4737244191
  0
LINE
  5
254
330
222
100
AcDbEntity
  8
0
  6
Continuous
 62
     7
370
    25
100
AcDbLine
 10
-13.5834897696
 20
13.6204880444
 30
0.0
 11
-13.7425887953
 21
13.4801758925
 31
0.0
  0
LINE
  5
255
330
222
100
AcDbEntity
  8
0
  6
Continuous
 62
     7
370
    25
100
AcDbLine
 10
14.6599054764
 20
-18.4045119552
 30
0.0
 11
15.5437889527
 21
-17.6249999998
 31
0.0
  0
LINE
  5
256
330
222
100
AcDbEntity
  8
0
  6
Continuous
 62
     7
370
    25
100
AcDbLine
 10
-15.5437889527
 20
17.6249999998
 30
0.0
 11
-16.427672429
 21
16.8454880444
 31
0.0
  0
LINE
  5
257
330
222
100
AcDbEntity
  8
0
  6
Continuous
 62
     7
370
    25
100
AcDbLine
 10
11.6566237913
 20
-15.3198241072
 30
0.0
 11
11.815722817
 21
-15.1795119553
 31
0.0
  0
LINE
  5
258
330
222
100
AcDbEntity
  8
0
  6
Continuous
 62
     7
370
    25
100
AcDbLine
 10
-21.4629991042
 20
3.6988309909
 30
0.0
 11
-22.786366213
 21
3.8655595748
 31
0.0
  0
LINE
  5
259
330
222
100
AcDbEntity
  8
0
  6
Continuous
 62
     7
370
    25
100
AcDbLine
 10
-2.7547121697
 20
21.5318178919
 30
0.0
 11
-2.7547121697
 21
20.1979892203
 31
0.0
  0
LINE
  5
25A
330
222
100
AcDbEntity
  8
0
  6
Continuous
 62
     7
370
    25
100
AcDbLine
 10
0.9869452172
 20
19.7265846997
 30
0.0
 11
0.9869452172
 21
21.0604133714
 31
0.0
  0
LINE
  5
25B
330
222
100
AcDbEntity
  8
0
  6
Continuous
 62
     7
370
    25
100
AcDbLine
 10
21.0185992604
 20
-1.6533473192
 30
0.0
 11
19.6952321517
 21
-1.4866187353
 31
0.0
  0
LINE
  5
25C
330
222
100
AcDbEntity
  8
0
  6
Continuous
 62
     7
370
    25
100
AcDbLine
 10
19.6952321517
 20
-5.2578549018
 30
0.0
 11
21.0185992604
 21
-5.4245834856
 31
0.0
  0
LINE
  5
25D
330
222
100
AcDbEntity
  8
0
  6
Continuous
 62
     7
370
    25
100
AcDbLine
 10
0.9869452172
 20
-23.0908418028
 30
0.0
 11
0.9869452172
 21
-21.7570131311
 31
0.0
  0
LINE
  5
25E
330
222
100
AcDbEntity
  8
0
  6
Continuous
 62
     7
370
    25
100
AcDbLine
 10
-2.7547121697
 20
-21.2856086106
 30
0.0
 11
-2.7547121697
 21
-22.6194372822
 31
0.0
  0
LINE
  5
25F
330
222
100
AcDbEntity
  8
0
  6
Continuous
 62
     7
370
    25
100
AcDbLine
 10
-22.786366213
 20
0.0943234084
 30
0.0
 11
-21.4629991042
 21
-0.0724051755
 31
0.0
  0
LINE
  5
260
330
222
100
AcDbEntity
  8
0
  6
Continuous
 62
     7
370
    25
100
AcDbLine
 10
1.8708286934
 20
21.8399253268
 30
0.0
 11
0.9869452172
 21
21.0604133714
 31
0.0
  0
LINE
  5
261
330
222
100
AcDbEntity
  8
0
  6
Continuous
 62
     7
370
    25
100
AcDbLine
 10
21.0185992604
 20
-1.6533473192
 30
0.0
 11
21.9024827367
 21
-0.8738353638
 31
0.0
  0
LINE
  5
262
330
222
100
AcDbEntity
  8
0
  6
Continuous
 62
     7
370
    25
100
AcDbLine
 10
21.9024827367
 20
-4.6450715302
 30
0.0
 11
21.0185992604
 21
-5.4245834856
 31
0.0
  0
LINE
  5
263
330
222
100
AcDbEntity
  8
0
  6
Continuous
 62
     7
370
    25
100
AcDbLine
 10
20.5791156279
 20
-4.4783429464
 30
0.0
 11
21.9024827367
 21
-4.6450715302
 31
0.0
  0
LINE
  5
264
330
222
100
AcDbEntity
  8
0
  6
Continuous
 62
     7
370
    25
100
AcDbLine
 10
-2.7547121697
 20
21.5318178919
 30
0.0
 11
-1.8708286934
 21
22.3113298473
 31
0.0
  0
LINE
  5
265
330
222
100
AcDbEntity
  8
0
  6
Continuous
 62
     7
370
    25
100
AcDbLine
 10
-1.8708286934
 20
22.3113298473
 30
0.0
 11
-1.8708286934
 21
20.9775011757
 31
0.0
  0
LINE
  5
266
330
222
100
AcDbEntity
  8
0
  6
Continuous
 62
     7
370
    25
100
AcDbLine
 10
-1.8708286934
 20
-21.8399253268
 30
0.0
 11
-2.7547121697
 21
-22.6194372822
 31
0.0
  0
LINE
  5
267
330
222
100
AcDbEntity
  8
0
  6
Continuous
 62
     7
370
    25
100
AcDbLine
 10
-1.8708286934
 20
-20.5060966551
 30
0.0
 11
-1.8708286934
 21
-21.8399253268
 31
0.0
  0
LINE
  5
268
330
222
100
AcDbEntity
  8
0
  6
Continuous
 62
     7
370
    25
100
AcDbLine
 10
-22.786366213
 20
0.0943234084
 30
0.0
 11
-21.9024827367
 21
0.8738353638
 31
0.0
  0
LINE
  5
269
330
222
100
AcDbEntity
  8
0
  6
Continuous
 62
     7
370
    25
100
AcDbLine
 10
-21.9024827367
 20
0.8738353638
 30
0.0
 11
-20.5791156279
 21
0.7071067799
 31
0.0
  0
ARC
  5
26A
330
222
100
AcDbEntity
  8
0
  6
Continuous
 62
     7
370
    25
100
AcDbCircle
 10
-21.2227583497
 20
1.5408054972
 30
0.0
 40
1.631001009989696
100
AcDbArc
 50
261.5297123691
 51
1.2895318533
  0
ARC
  5
26B
330
222
100
AcDbEntity
  8
0
  6
Continuous
 62
     7
370
    25
100
AcDbCircle
 10
-21.7718800743
 20
1.5408054972
 30
0.0
 40
2.180018689223425
100
AcDbArc
 50
0.9647392397
 51
81.8545049821
  0
ARC
  5
26C
330
222
100
AcDbEntity
  8
0
  6
Continuous
 62
     7
370
    25
100
AcDbCircle
 10
-3.8569173291
 20
2.5915915648
 30
0.0
 40
18.97227001540843
100
AcDbArc
 50
86.6694928094
 51
176.149751413
  0
ARC
  5
26D
330
222
100
AcDbEntity
  8
0
  6
Continuous
 62
     7
370
    25
100
AcDbCircle
 10
-4.7063555724
 20
-4.1506154755
 30
0.0
 40
25.84588263914745
100
AcDbArc
 50
5.5446547692
 51
77.2745894527
  0
ARC
  5
26E
330
222
100
AcDbEntity
  8
0
  6
Continuous
 62
     7
370
    25
100
AcDbCircle
 10
2.0891503766
 20
-4.1506154756
 30
0.0
 40
18.97227001540838
100
AcDbArc
 50
266.6694928094
 51
356.149751413
  0
ARC
  5
26F
330
222
100
AcDbEntity
  8
0
  6
Continuous
 62
     7
370
    25
100
AcDbCircle
 10
2.9385886199
 20
2.5915915646
 30
0.0
 40
25.84588263914743
100
AcDbArc
 50
185.5446547692
 51
257.2745894527
  0
ARC
  5
270
330
222
100
AcDbEntity
  8
0
  6
Continuous
 62
     7
370
    25
100
AcDbCircle
 10
1.0737649365
 20
-3.3153329308
 30
0.0
 40
16.00463692286582
100
AcDbArc
 50
312.158037431
 51
0.9776572489
  0
ARC
  5
271
330
222
100
AcDbEntity
  8
0
  6
Continuous
 62
     7
370
    25
100
AcDbCircle
 10
-3.8224720962
 20
-3.3711035201
 30
0.0
 40
25.84588263914747
100
AcDbArc
 50
5.5446547692
 51
77.2745894527
  0
ARC
  5
272
330
222
100
AcDbEntity
  8
0
  6
Continuous
 62
     7
370
    25
100
AcDbCircle
 10
20.8378115114
 20
-2.38324899
 30
0.0
 40
2.111005032190308
100
AcDbArc
 50
157.3018396946
 51
262.9609195721
  0
ARC
  5
273
330
222
100
AcDbEntity
  8
0
  6
Continuous
 62
     7
370
    25
100
AcDbCircle
 10
0.2366565754
 20
20.9676714437
 30
0.0
 40
2.107508192657426
100
AcDbArc
 50
179.7327629831
 51
285.6429661919
  0
ARC
  5
274
330
222
100
AcDbEntity
  8
0
  6
Continuous
 62
     7
370
    25
100
AcDbCircle
 10
2.6288016533
 20
-3.2506361691
 30
0.0
 40
19.32405838534208
100
AcDbArc
 50
311.9388593636
 51
355.8619064305
  0
ARC
  5
275
330
222
100
AcDbEntity
  8
0
  6
Continuous
 62
     7
370
    25
100
AcDbCircle
 10
-2.8965403833
 20
3.014512804
 30
0.0
 40
19.32405838520812
100
AcDbArc
 50
86.9573377918
 51
130.8803848565
  0
ARC
  5
276
330
222
100
AcDbEntity
  8
0
  6
Continuous
 62
     7
370
    25
100
AcDbCircle
 10
-0.3840438594
 20
0.5969868733
 30
0.0
 40
4.012634902610984
100
AcDbArc
 50
142.9412108462
 51
180.6152380256
  0
ARC
  5
277
330
222
100
AcDbEntity
  8
0
  6
Continuous
 62
     7
370
    25
100
AcDbCircle
 10
0.4582932605
 20
0.4505029348
 30
0.0
 40
4.855841655719733
100
AcDbArc
 50
178.7798858563
 51
295.427175102
  0
ARC
  5
278
330
222
100
AcDbEntity
  8
0
  6
Continuous
 62
     7
370
    25
100
AcDbCircle
 10
-0.1221079062
 20
-20.4946472882
 30
0.0
 40
1.748758267972427
100
AcDbArc
 50
153.6237052726
 51
180.3751262259
  0
ARC
  5
279
330
222
100
AcDbEntity
  8
0
  6
Continuous
 62
     7
370
    25
100
AcDbCircle
 10
-20.3491659631
 20
2.4406807274
 30
0.0
 40
1.748758267956538
100
AcDbArc
 50
262.4441179962
 51
289.1955389474
  0
VIEWPORT
  5
28A
330
222
100
AcDbEntity
  8
0
100
AcDbViewport
 10
0.0
 20
0.0
 30
0.0
 40
205.6
 41
156.0
 68
     1
 69
     1
 12
-0.5833692362
 22
-0.5268235171
 13
0.0
 23
0.0
 14
10.0
 24
10.0
 15
10.0
 25
10.0
 16
0.0
 26
0.0
 36
1.0
 17
0.0
 27
0.0
 37
0.0
 42
50.0
 43
0.0
 44
0.0
 45
43.9248601721
 50
0.0
 51
0.0
 72
   100
 90
   557152
  1

281
     0
 71
     1
 74
     0
110
0.0
120
0.0
130
0.0
111
1.0
121
0.0
131
0.0
112
0.0
122
1.0
132
0.0
 79
     0
146
0.0
  0
ENDBLK
  5
225
330
222
100
AcDbEntity
  8
0
100
AcDbBlockEnd
  0
ENDSEC
  0
SECTION
  2
ENTITIES
  0
LWPOLYLINE
  5
7A
330
1F
100
AcDbEntity
  8
0
  6
Continuous
 62
     7
370
    25
100
AcDbPolyline
 90
       32
 70
   128
 43
0.0
 10
-2.9355747157
 20
19.412307853
 10
-3.8689231717
 20
19.568081151
 10
-4.796758374
 20
19.6816063605
 10
-5.7171872651
 20
19.7526518564
 10
-6.6283318986
 20
19.7810726851
 10
-7.5283332706
 20
19.7668108597
 10
-8.4153551131
 20
19.7098954784
 10
-9.2875876398
 20
19.6104426655
 10
-10.143251239
 20
19.468655334
 10
-10.9806001048
 20
19.284822772
 10
-11.7979257984
 20
19.0593200519
 10
-12.5935607344
 20
18.792607266
 10
-13.3658815829
 20
18.4852285869
 10
-14.1133125815
 20
18.1378111578
 10
-14.8343287505
 20
17.7510638128
 10
-15.5274590044
 20
17.3257756304
 10
-16.191289153
 20
16.862814324
 10
-16.8244647869
 20
16.3631244713
 10
-17.4256940412
 20
15.8277255868
 10
-17.9937502309
 20
15.2577100422
 10
-18.5274743538
 20
14.6542408374
 10
-19.0257774552
 20
14.0185492274
 10
-19.4876428499
 20
13.3519322108
 10
-19.9121281963
 20
12.6557498827
 10
-20.298367419
 20
11.9314226604
 10
-20.6455724762
 20
11.1804283852
 10
-20.953034967
 20
10.4042993069
 10
-21.2201275774
 20
9.6046189576
 10
-21.4463053597
 20
8.7830189211
 10
-21.6311068444
 20
7.9411755038
 10
-21.774154982
 20
7.0808063146
 10
-21.8751579122
 20
6.2036667604
  0
LWPOLYLINE
  5
7C
330
1F
100
AcDbEntity
  8
0
  6
Continuous
 62
     7
370
    25
100
AcDbPolyline
 90
       21
 70
   128
 43
0.0
 10
-2.9355747157
 20
18.1996398878
 10
-2.9137974063
 20
17.9255402655
 10
-2.8490017078
 20
17.6463526734
 10
-2.7427831054
 20
17.3689516367
 10
-2.5977570535
 20
17.1001676896
 10
-2.4174945748
 20
16.8466191848
 10
-2.2064343299
 20
16.614549328
 10
-1.9697733224
 20
16.4096724492
 10
-1.7133389318
 20
16.2370332973
 10
-1.4434454238
 20
16.100882821
 10
-1.1667384723
 20
16.004573497
 10
-0.8900315209
 20
15.9504767805
 10
-0.6201380129
 20
15.939924712
 10
-0.3637036222
 20
15.9731771186
 10
-0.1270426148
 20
16.0494152158
 10
0.0840176302
 20
16.1667617684
 10
0.2642801088
 20
16.3223273149
 10
0.4093061607
 20
16.5122813153
 10
0.5155247632
 20
16.7319464717
 10
0.5803204617
 20
16.9759138989
 10
0.602097771
 20
17.2381763091
  0
LWPOLYLINE
  5
80
330
1F
100
AcDbEntity
  8
0
  6
Continuous
 62
     7
370
    25
100
AcDbPolyline
 90
       21
 70
   128
 43
0.0
 10
18.2904602046
 20
-4.7124875987
 10
18.0137532531
 20
-4.6583908821
 10
17.7438597451
 20
-4.6478388136
 10
17.4874253545
 20
-4.6810912203
 10
17.250764347
 20
-4.7573293174
 10
17.0397041021
 20
-4.87467587
 10
16.8594416234
 20
-5.0302414165
 10
16.7144155715
 20
-5.2201954169
 10
16.6081969691
 20
-5.4398605733
 10
16.5434012706
 20
-5.6838280005
 10
16.5216239612
 20
-5.9460904107
 10
16.5434012706
 20
-6.220190033
 10
16.6081969691
 20
-6.4993776251
 10
16.7144155715
 20
-6.7767786618
 10
16.8594416234
 20
-7.0455626089
 10
17.0397041021
 20
-7.2991111137
 10
17.250764347
 20
-7.5311809705
 10
17.4874253545
 20
-7.7360578493
 10
17.7438597451
 20
-7.9086970012
 10
18.0137532531
 20
-8.0448474774
 10
18.2904602046
 20
-8.1411568015
  0
LWPOLYLINE
  5
82
330
1F
100
AcDbEntity
  8
0
  6
Continuous
 62
     7
370
    25
100
AcDbPolyline
 90
       32
 70
   128
 43
0.0
 10
0.602097771
 20
-21.689852887
 10
1.5354462271
 20
-21.8456261851
 10
2.4632814293
 20
-21.9591513945
 10
3.3837103204
 20
-22.0301968905
 10
4.2948549539
 20
-22.0586177191
 10
5.194856326
 20
-22.0443558937
 10
6.0818781684
 20
-21.9874405124
 10
6.9541106951
 20
-21.8879876995
 10
7.8097742944
 20
-21.7462003681
 10
8.6471231601
 20
-21.562367806
 10
9.4644488538
 20
-21.3368650859
 10
10.2600837898
 20
-21.0701523
 10
11.0324046382
 20
-20.7627736209
 10
11.7798356368
 20
-20.4153561919
 10
12.5008518059
 20
-20.0286088468
 10
13.1939820597
 20
-19.6033206644
 10
13.8578122083
 20
-19.1403593581
 10
14.4909878423
 20
-18.6406695053
 10
15.0922170966
 20
-18.1052706208
 10
15.6602732863
 20
-17.5352550762
 10
16.1939974091
 20
-16.9317858714
 10
16.6923005106
 20
-16.2960942614
 10
17.1541659053
 20
-15.6294772448
 10
17.5786512517
 20
-14.9332949167
 10
17.9648904744
 20
-14.2089676945
 10
18.3120955315
 20
-13.4579734193
 10
18.6195580224
 20
-12.6818443409
 10
18.8866506328
 20
-11.8821639916
 10
19.112828415
 20
-11.0605639551
 10
19.2976298998
 20
-10.2187205378
 10
19.4406780374
 20
-9.3583513486
 10
19.5416809676
 20
-8.4812117944
  0
LWPOLYLINE
  5
84
330
1F
100
AcDbEntity
  8
0
  6
Continuous
 62
     7
370
    25
100
AcDbPolyline
 90
       21
 70
   128
 43
0.0
 10
0.602097771
 20
-20.4771849218
 10
0.5803204617
 20
-20.2030852995
 10
0.5155247632
 20
-19.9238977074
 10
0.4093061607
 20
-19.6464966708
 10
0.2642801088
 20
-19.3777127236
 10
0.0840176302
 20
-19.1241642188
 10
-0.1270426148
 20
-18.892094362
 10
-0.3637036222
 20
-18.6872174833
 10
-0.6201380129
 20
-18.5145783313
 10
-0.8900315209
 20
-18.3784278551
 10
-1.1667384723
 20
-18.2821185311
 10
-1.4434454238
 20
-18.2280218145
 10
-1.7133389318
 20
-18.217469746
 10
-1.9697733224
 20
-18.2507221527
 10
-2.2064343299
 20
-18.3269602498
 10
-2.4174945748
 20
-18.4443068024
 10
-2.5977570535
 20
-18.5998723489
 10
-2.7427831054
 20
-18.7898263493
 10
-2.8490017078
 20
-19.0094915057
 10
-2.9137974063
 20
-19.2534589329
 10
-2.9355747157
 20
-19.5157213431
  0
LWPOLYLINE
  5
88
330
1F
100
AcDbEntity
  8
0
  6
Continuous
 62
     7
370
    25
100
AcDbPolyline
 90
       52
 70
   128
 43
0.0
 10
15.8140894639
 20
-5.7537976949
 10
15.793635313
 20
-4.9407019407
 10
15.732322136
 20
-4.1184470054
 10
15.6302976419
 20
-3.2890137733
 10
15.4878076166
 20
-2.4544004217
 10
15.3051953309
 20
-1.6166176072
 10
15.082900714
 20
-0.777683622
 10
14.8214592929
 20
0.0603804683
 10
14.521500903
 20
0.8955556942
 10
14.1837481704
 20
1.7258300451
 10
13.8090147709
 20
2.5492033176
 10
13.3982034701
 20
3.3636919333
 10
12.9523039484
 20
4.1673337177
 10
12.4723904168
 20
4.9581926275
 10
11.9596190291
 20
5.7343634141
 10
11.4152250965
 20
6.4939762144
 10
10.8405201115
 20
7.2352010543
 10
10.236888589
 20
7.9562522585
 10
9.6057847299
 20
8.6553927514
 10
8.948728919
 20
9.3309382422
 10
8.2673040611
 20
9.9812612828
 10
7.5631517684
 20
10.604795188
 10
6.8379684054
 20
11.2000378099
 10
6.0935010025
 20
11.7655551571
 10
5.3315430467
 20
12.2999848485
 10
4.5539301616
 20
12.8020393964
 10
3.7625356847
 20
13.2705093073
 10
2.9592661545
 20
13.7042659962
 10
2.1460567178
 20
14.1022645052
 10
1.3248664674
 20
14.4635460211
 10
0.4976737224
 20
14.787240185
 10
-0.3335287373
 20
15.0725671894
 10
-1.1667384723
 20
15.3188396565
 10
-1.9999482073
 20
15.5254642943
 10
-2.8311506671
 20
15.691943326
 10
-3.658343412
 20
15.8178756891
 10
-4.4795336625
 20
15.9029580014
 10
-5.2927430992
 20
15.9469852922
 10
-6.0960126293
 20
15.9498514959
 10
-6.8874071062
 20
15.9115497076
 10
-7.6650199914
 20
15.8321721996
 10
-8.4269779471
 20
15.7119101993
 10
-9.1714453501
 20
15.5510534284
 10
-9.896628713
 20
15.349989405
 10
-10.6007810057
 20
15.1092025098
 10
-11.2822058636
 20
14.8292728196
 10
-11.9392616746
 20
14.5108747096
 10
-12.5703655336
 20
14.1547752287
 10
-13.1739970562
 20
13.7618322517
 10
-13.7487020411
 20
13.3329924126
 10
-14.2930959738
 20
12.8692888243
 10
-14.5775191184
 20
12.6013498428
  0
LWPOLYLINE
  5
8D
330
1F
100
AcDbEntity
  8
0
  6
Continuous
 62
     7
370
    25
100
AcDbPolyline
 90
       65
 70
   128
 43
0.0
 10
15.6040765389
 20
-5.958776748
 10
15.5836223879
 20
-5.1456809937
 10
15.522309211
 20
-4.3234260585
 10
15.4202847169
 20
-3.4939928264
 10
15.2777946915
 20
-2.6593794747
 10
15.0951824059
 20
-1.8215966603
 10
14.8728877889
 20
-0.9826626751
 10
14.6114463679
 20
-0.1445985847
 10
14.311487978
 20
0.6905766411
 10
13.9737352454
 20
1.5208509921
 10
13.5990018458
 20
2.3442242645
 10
13.188190545
 20
3.1587128802
 10
12.7422910234
 20
3.9623546646
 10
12.2623774918
 20
4.7532135744
 10
11.7496061041
 20
5.5293843611
 10
11.2052121714
 20
6.2889971613
 10
10.6305071865
 20
7.0302220013
 10
10.0268756639
 20
7.7512732054
 10
9.3957718049
 20
8.4504136983
 10
8.738715994
 20
9.1259591891
 10
8.057291136
 20
9.7762822297
 10
7.3531388433
 20
10.3998161349
 10
6.6279554804
 20
10.9950587569
 10
5.8834880774
 20
11.560576104
 10
5.1215301217
 20
12.0950057955
 10
4.3439172366
 20
12.5970603434
 10
3.5525227596
 20
13.0655302543
 10
2.7492532295
 20
13.4992869432
 10
1.9360437928
 20
13.8972854522
 10
1.1148535424
 20
14.2585669681
 10
0.2876607974
 20
14.582261132
 10
-0.5435416624
 20
14.8675881363
 10
-1.3767513973
 20
15.1138606034
 10
-2.2099611323
 20
15.3204852412
 10
-3.0411635921
 20
15.486964273
 10
-3.8683563371
 20
15.612896636
 10
-4.6895465875
 20
15.6979789483
 10
-5.5027560242
 20
15.7420062392
 10
-6.3060255543
 20
15.7448724429
 10
-7.0974200313
 20
15.7065706545
 10
-7.8750329164
 20
15.6271931466
 10
-8.6369908721
 20
15.5069311463
 10
-9.3814582751
 20
15.3460743754
 10
-10.106641638
 20
15.1450103519
 10
-10.8107939307
 20
14.9042234567
 10
-11.4922187886
 20
14.6242937666
 10
-12.1492745996
 20
14.3058956565
 10
-12.7803784586
 20
13.9497961756
 10
-13.3840099812
 20
13.5568531986
 10
-13.9587149661
 20
13.1280133596
 10
-14.5031088988
 20
12.6643097712
 10
-15.0158802865
 20
12.1668595362
 10
-15.495793818
 20
11.6368610556
 10
-15.9416933397
 20
11.0755911422
 10
-16.3525046405
 20
10.4844019444
 10
-16.72723804
 20
9.8647176887
 10
-17.0649907727
 20
9.2180312489
 10
-17.3649491626
 20
8.5459005492
 10
-17.6263905836
 20
7.8499448113
 10
-17.8486852006
 20
7.1318406535
 10
-18.0312974862
 20
6.3933180517
 10
-18.1737875116
 20
5.6361561715
 10
-18.2758120057
 20
4.8621790821
 10
-18.3371251826
 20
4.0732513623
 10
-18.3575793336
 20
3.2712736079
  0
LWPOLYLINE
  5
8E
330
1F
100
AcDbEntity
  8
0
  6
Continuous
 62
     7
370
    25
100
AcDbPolyline
 90
       65
 70
   128
 43
0.0
 10
-18.3575793336
 20
3.2712736079
 10
-18.3371251826
 20
2.4581778536
 10
-18.2758120057
 20
1.6359229183
 10
-18.1737875116
 20
0.8064896862
 10
-18.0312974862
 20
-0.0281236654
 10
-17.8486852006
 20
-0.8659064799
 10
-17.6263905836
 20
-1.704840465
 10
-17.3649491626
 20
-2.5429045554
 10
-17.0649907727
 20
-3.3780797812
 10
-16.72723804
 20
-4.2083541322
 10
-16.3525046405
 20
-5.0317274047
 10
-15.9416933397
 20
-5.8462160203
 10
-15.495793818
 20
-6.6498578048
 10
-15.0158802865
 20
-7.4407167145
 10
-14.5031088988
 20
-8.2168875012
 10
-13.9587149661
 20
-8.9765003014
 10
-13.3840099812
 20
-9.7177251414
 10
-12.7803784586
 20
-10.4387763456
 10
-12.1492745996
 20
-11.1379168384
 10
-11.4922187886
 20
-11.8134623293
 10
-10.8107939307
 20
-12.4637853699
 10
-10.106641638
 20
-13.0873192751
 10
-9.3814582751
 20
-13.682561897
 10
-8.6369908721
 20
-14.2480792441
 10
-7.8750329164
 20
-14.7825089356
 10
-7.0974200313
 20
-15.2845634835
 10
-6.3060255543
 20
-15.7530333944
 10
-5.5027560242
 20
-16.1867900833
 10
-4.6895465875
 20
-16.5847885923
 10
-3.8683563371
 20
-16.9460701082
 10
-3.0411635921
 20
-17.2697642721
 10
-2.2099611323
 20
-17.5550912765
 10
-1.3767513973
 20
-17.8013637436
 10
-0.5435416624
 20
-18.0079883814
 10
0.2876607974
 20
-18.1744674131
 10
1.1148535424
 20
-18.3003997762
 10
1.9360437928
 20
-18.3854820885
 10
2.7492532295
 20
-18.4295093793
 10
3.5525227596
 20
-18.432375583
 10
4.3439172366
 20
-18.3940737947
 10
5.1215301217
 20
-18.3146962867
 10
5.8834880774
 20
-18.1944342864
 10
6.6279554804
 20
-18.0335775155
 10
7.3531388433
 20
-17.8325134921
 10
8.057291136
 20
-17.5917265969
 10
8.738715994
 20
-17.3117969067
 10
9.3957718049
 20
-16.9933987967
 10
10.0268756639
 20
-16.6372993158
 10
10.6305071865
 20
-16.2443563387
 10
11.2052121714
 20
-15.8155164997
 10
11.7496061041
 20
-15.3518129114
 10
12.2623774918
 20
-14.8543626763
 10
12.7422910234
 20
-14.3243641957
 10
13.188190545
 20
-13.7630942823
 10
13.5990018458
 20
-13.1719050845
 10
13.9737352454
 20
-12.5522208289
 10
14.311487978
 20
-11.9055343891
 10
14.6114463679
 20
-11.2334036893
 10
14.8728877889
 20
-10.5374479514
 10
15.0951824059
 20
-9.8193437936
 10
15.2777946915
 20
-9.0808211918
 10
15.4202847169
 20
-8.3236593116
 10
15.522309211
 20
-7.5496822223
 10
15.5836223879
 20
-6.7607545024
 10
15.6040765389
 20
-5.958776748
  0
LWPOLYLINE
  5
8F
330
1F
100
AcDbEntity
  8
0
  6
Continuous
 62
     7
370
    25
100
AcDbPolyline
 90
       33
 70
   128
 43
0.0
 10
2.7800137745
 20
-2.4734712751
 10
2.7599978141
 20
-2.0731510542
 10
2.7001426973
 20
-1.6658063176
 10
2.6010248618
 20
-1.2553600177
 10
2.4635988664
 20
-0.8457649767
 10
2.2891881986
 20
-0.4409658189
 10
2.0794725286
 20
-0.0448609814
 10
1.8364715327
 20
0.3387348297
 10
1.5625254435
 20
0.7061273771
 10
1.2602725115
 20
1.0537784696
 10
0.9326235978
 20
1.3783400372
 10
0.5827341404
 20
1.6766863745
 10
0.2139737662
 20
1.9459442434
 10
-0.170106161
 20
2.1835205432
 10
-0.5658067414
 20
2.3871272843
 10
-0.9693171622
 20
2.5548036226
 10
-1.3767513973
 20
2.6849347432
 10
-1.7841856325
 20
2.7762674123
 10
-2.1876960533
 20
2.8279220464
 10
-2.5833966337
 20
2.8394011831
 10
-2.9674765609
 20
2.810594272
 10
-3.3362369351
 20
2.7417787395
 10
-3.6861263925
 20
2.6336173167
 10
-4.0137753062
 20
2.4871516573
 10
-4.3160282382
 20
2.3037923056
 10
-4.5899743274
 20
2.0853051124
 10
-4.8329753232
 20
1.8337942289
 10
-5.0426909933
 20
1.5516818423
 10
-5.2171016611
 20
1.2416848492
 10
-5.3545276565
 20
0.9067886899
 10
-5.453645492
 20
0.5502185978
 10
-5.5135006088
 20
0.1754085375
 10
-5.5335165692
 20
-0.2140318651
  0
LWPOLYLINE
  5
90
330
1F
100
AcDbEntity
  8
0
  6
Continuous
 62
     7
370
    25
100
AcDbPolyline
 90
       33
 70
   128
 43
0.0
 10
-5.5335165692
 20
-0.2140318651
 10
-5.5135006088
 20
-0.6143520859
 10
-5.453645492
 20
-1.0216968226
 10
-5.3545276565
 20
-1.4321431225
 10
-5.2171016611
 20
-1.8417381634
 10
-5.0426909933
 20
-2.2465373213
 10
-4.8329753232
 20
-2.6426421588
 10
-4.5899743274
 20
-3.0262379699
 10
-4.3160282382
 20
-3.3936305172
 10
-4.0137753062
 20
-3.7412816097
 10
-3.6861263925
 20
-4.0658431773
 10
-3.3362369351
 20
-4.3641895147
 10
-2.9674765609
 20
-4.6334473835
 10
-2.5833966337
 20
-4.8710236833
 10
-2.1876960533
 20
-5.0746304245
 10
-1.7841856325
 20
-5.2423067628
 10
-1.3767513973
 20
-5.3724378834
 10
-0.9693171622
 20
-5.4637705525
 10
-0.5658067414
 20
-5.5154251866
 10
-0.170106161
 20
-5.5269043232
 10
0.2139737662
 20
-5.4980974122
 10
0.5827341404
 20
-5.4292818796
 10
0.9326235978
 20
-5.3211204568
 10
1.2602725115
 20
-5.1746547974
 10
1.5625254435
 20
-4.9912954457
 10
1.8364715327
 20
-4.7728082526
 10
2.0794725286
 20
-4.5212973691
 10
2.2891881986
 20
-4.2391849825
 10
2.4635988664
 20
-3.9291879893
 10
2.6010248618
 20
-3.5942918301
 10
2.7001426973
 20
-3.2377217379
 10
2.7599978141
 20
-2.8629116776
 10
2.7800137745
 20
-2.4734712751
  0
LINE
  5
A1
330
1F
100
AcDbEntity
  8
0
  6
Continuous
 62
     7
370
    25
100
AcDbLine
 10
-14.5775191184
 20
12.6013498428
 30
0.0
 11
-14.7875320434
 21
12.3963707897
 31
0.0
  0
LINE
  5
A2
330
1F
100
AcDbEntity
  8
0
  6
Continuous
 62
     7
370
    25
100
AcDbLine
 10
-16.4142367283
 20
16.8173372633
 30
0.0
 11
-17.5809752006
 21
15.6785647463
 31
0.0
  0
LINE
  5
A3
330
1F
100
AcDbEntity
  8
0
  6
Continuous
 62
     7
370
    25
100
AcDbLine
 10
15.247498256
 20
-17.9561097803
 30
0.0
 11
16.4142367283
 21
-16.8173372633
 31
0.0
  0
LINE
  5
A4
330
1F
100
AcDbEntity
  8
0
  6
Continuous
 62
     7
370
    25
100
AcDbLine
 10
12.0340292487
 20
-15.0838739299
 30
0.0
 11
12.2440421738
 21
-14.8788948768
 31
0.0
  0
LINE
  5
A5
330
1F
100
AcDbEntity
  8
0
  6
Continuous
 62
     7
370
    25
100
AcDbLine
 10
-20.6239371492
 20
5.8636117674
 30
0.0
 11
-21.8751579122
 21
6.2036667604
 31
0.0
  0
LINE
  5
A6
330
1F
100
AcDbEntity
  8
0
  6
Continuous
 62
     7
370
    25
100
AcDbLine
 10
-2.9355747157
 20
19.412307853
 30
0.0
 11
-2.9355747157
 21
18.1996398878
 31
0.0
  0
LINE
  5
A7
330
1F
100
AcDbEntity
  8
0
  6
Continuous
 62
     7
370
    25
100
AcDbLine
 10
0.602097771
 20
17.2381763091
 30
0.0
 11
0.602097771
 21
18.4508442743
 31
0.0
  0
LINE
  5
A8
330
1F
100
AcDbEntity
  8
0
  6
Continuous
 62
     7
370
    25
100
AcDbLine
 10
19.5416809676
 20
-5.0525425916
 30
0.0
 11
18.2904602046
 21
-4.7124875987
 31
0.0
  0
LINE
  5
A9
330
1F
100
AcDbEntity
  8
0
  6
Continuous
 62
     7
370
    25
100
AcDbLine
 10
18.2904602046
 20
-8.1411568015
 30
0.0
 11
19.5416809676
 21
-8.4812117944
 31
0.0
  0
LINE
  5
AA
330
1F
100
AcDbEntity
  8
0
  6
Continuous
 62
     7
370
    25
100
AcDbLine
 10
0.602097771
 20
-21.689852887
 30
0.0
 11
0.602097771
 21
-20.4771849218
 31
0.0
  0
LINE
  5
AB
330
1F
100
AcDbEntity
  8
0
  6
Continuous
 62
     7
370
    25
100
AcDbLine
 10
-2.9355747157
 20
-19.5157213431
 30
0.0
 11
-2.9355747157
 21
-20.7283893083
 31
0.0
  0
LINE
  5
AC
330
1F
100
AcDbEntity
  8
0
  6
Continuous
 62
     7
370
    25
100
AcDbLine
 10
-21.8751579122
 20
2.7749975576
 30
0.0
 11
-20.6239371492
 21
2.4349425646
 31
0.0
  0
LINE
  5
AD
330
1F
100
AcDbEntity
  8
0
  6
Continuous
 62
     7
370
    25
100
AcDbLine
 10
1.7688362434
 20
19.5896167913
 30
0.0
 11
0.602097771
 21
18.4508442743
 31
0.0
  0
LINE
  5
AE
330
1F
100
AcDbEntity
  8
0
  6
Continuous
 62
     7
370
    25
100
AcDbLine
 10
19.5416809676
 20
-5.0525425916
 30
0.0
 11
20.7084194399
 21
-3.9137700746
 31
0.0
  0
LINE
  5
AF
330
1F
100
AcDbEntity
  8
0
  6
Continuous
 62
     7
370
    25
100
AcDbLine
 10
-2.9355747157
 20
19.412307853
 30
0.0
 11
-1.7688362434
 21
20.55108037
 31
0.0
  0
LINE
  5
B0
330
1F
100
AcDbEntity
  8
0
  6
Continuous
 62
     7
370
    25
100
AcDbLine
 10
-1.7688362434
 20
20.55108037
 30
0.0
 11
-1.7688362434
 21
19.3384124048
 31
0.0
  0
LINE
  5
B1
330
1F
100
AcDbEntity
  8
0
  6
Continuous
 62
     7
370
    25
100
AcDbLine
 10
20.7084194399
 20
-7.3424392774
 30
0.0
 11
19.5416809676
 21
-8.4812117944
 31
0.0
  0
LINE
  5
B2
330
1F
100
AcDbEntity
  8
0
  6
Continuous
 62
     7
370
    25
100
AcDbLine
 10
19.4571986769
 20
-7.0023842845
 30
0.0
 11
20.7084194399
 21
-7.3424392774
 31
0.0
  0
LINE
  5
B3
330
1F
100
AcDbEntity
  8
0
  6
Continuous
 62
     7
370
    25
100
AcDbLine
 10
-1.761236858
 20
-18.2202731999
 30
0.0
 11
-1.7688362434
 21
-18.3769488261
 31
0.0
  0
LINE
  5
B4
330
1F
100
AcDbEntity
  8
0
  6
Continuous
 62
     7
370
    25
100
AcDbLine
 10
-21.8751579122
 20
2.7749975576
 30
0.0
 11
-20.7084194399
 21
3.9137700746
 31
0.0
  0
LINE
  5
B5
330
1F
100
AcDbEntity
  8
0
  6
Continuous
 62
     7
370
    25
100
AcDbLine
 10
-20.7084194399
 20
3.9137700746
 30
0.0
 11
-19.4571986769
 21
3.5737150816
 31
0.0
  0
LINE
  5
B6
330
1F
100
AcDbEntity
  8
0
  6
Continuous
 62
     7
370
    25
100
AcDbLine
 10
-1.7688362434
 20
-19.5896167913
 30
0.0
 11
-2.9355747157
 21
-20.7283893083
 31
0.0
  0
LINE
  5
B7
330
1F
100
AcDbEntity
  8
0
  6
Continuous
 62
     7
370
    25
100
AcDbLine
 10
-1.7688362434
 20
-18.3769488261
 30
0.0
 11
-1.7688362434
 21
-19.5896167913
 31
0.0
  0
ARC
  5
B8
330
1F
100
AcDbEntity
  8
0
  6
Continuous
 62
     7
370
    25
100
AcDbCircle
 10
-20.1602828986
 20
3.6550681345
 30
0.0
 40
1.305251573567189
100
AcDbArc
 50
249.192940872
 51
0.5916122484
  0
ARC
  5
B9
330
1F
100
AcDbEntity
  8
0
  6
Continuous
 62
     7
370
    25
100
AcDbCircle
 10
-21.2706005265
 20
3.5322970071
 30
0.0
 40
2.419339173280733
100
AcDbArc
 50
3.2283976279
 51
74.4969745105
  0
ARC
  5
BA
330
1F
100
AcDbEntity
  8
0
  6
Continuous
 62
     7
370
    25
100
AcDbCircle
 10
-9.1824828891
 20
-8.8164762199
 30
0.0
 40
28.96972187689083
100
AcDbArc
 50
7.4653431774
 51
70.260028961
  0
ARC
  5
BB
330
1F
100
AcDbEntity
  8
0
  6
Continuous
 62
     7
370
    25
100
AcDbCircle
 10
6.8490059445
 20
6.5389311858
 30
0.0
 40
28.9697218768908
100
AcDbArc
 50
187.4653431774
 51
250.260028961
  0
ARC
  5
BC
330
1F
100
AcDbEntity
  8
0
  6
Continuous
 62
     7
370
    25
100
AcDbCircle
 10
3.3124420801
 20
-6.1236398659
 30
0.0
 40
12.50711679568054
100
AcDbArc
 50
315.5712431145
 51
1.6945140313
  0
ARC
  5
BD
330
1F
100
AcDbEntity
  8
0
  6
Continuous
 62
     7
370
    25
100
AcDbCircle
 10
-8.0157444168
 20
-7.6777037028
 30
0.0
 40
28.96972187689085
100
AcDbArc
 50
7.4653431774
 51
70.260028961
  0
ARC
  5
BE
330
1F
100
AcDbEntity
  8
0
  6
Continuous
 62
     7
370
    25
100
AcDbCircle
 10
0.5819493544
 20
19.4342036854
 30
0.0
 40
2.352736469769083
100
AcDbArc
 50
182.3334332844
 51
270.30560581
  0
ARC
  5
BF
330
1F
100
AcDbEntity
  8
0
  6
Continuous
 62
     7
370
    25
100
AcDbCircle
 10
-5.569201149
 20
4.8680435971
 30
0.0
 40
16.13692708777014
100
AcDbArc
 50
76.3784689115
 51
132.2265074362
  0
ARC
  5
C0
330
1F
100
AcDbEntity
  8
0
  6
Continuous
 62
     7
370
    25
100
AcDbCircle
 10
20.0853130712
 20
-4.6966121907
 30
0.0
 40
2.389793430526765
100
AcDbArc
 50
178.8977938395
 51
254.7618252536
  0
ARC
  5
C1
330
1F
100
AcDbEntity
  8
0
  6
Continuous
 62
     7
370
    25
100
AcDbCircle
 10
5.8210013323
 20
-6.3057584634
 30
0.0
 40
14.92346893389948
100
AcDbArc
 50
315.2216818845
 51
356.0166559843
  0
ARC
  5
C2
330
1F
100
AcDbEntity
  8
0
  6
Continuous
 62
     7
370
    25
100
AcDbCircle
 10
-0.818803335
 20
1.1669515464
 30
0.0
 40
3.338169473650011
100
AcDbArc
 50
155.2085377085
 51
180.6390543144
  0
ARC
  5
C3
330
1F
100
AcDbEntity
  8
0
  6
Continuous
 62
     7
370
    25
100
AcDbCircle
 10
1.1063941083
 20
1.1724807205
 30
0.0
 40
5.263332985153377
100
AcDbArc
 50
180.4654945216
 51
285.0443028882
  0
ARC
  5
C4
330
1F
100
AcDbEntity
  8
0
  6
Continuous
 62
     7
370
    25
100
AcDbCircle
 10
-18.9823209725
 20
5.2502756079
 30
0.0
 40
1.742516580234361
100
AcDbArc
 50
254.1854811215
 51
273.9363497907
  0
LINE
  5
DA
330
1B
100
AcDbEntity
 67
     1
  8
0
  6
Continuous
 62
     7
370
    25
100
AcDbLine
 10
2.0
 20
22.0
 30
0.0
 11
2.0
 21
23.4147389479
 31
0.0
  0
LINE
  5
DB
330
1B
100
AcDbEntity
 67
     1
  8
0
  6
Continuous
 62
     7
370
    25
100
AcDbLine
 10
-2.0
 20
-22.0
 30
0.0
 11
-2.0
 21
-23.4147389479
 31
0.0
  0
LINE
  5
DC
330
1B
100
AcDbEntity
 67
     1
  8
0
  6
Continuous
 62
     7
370
    25
100
AcDbLine
 10
23.4147389479
 20
2.0
 30
0.0
 11
22.0
 21
2.0
 31
0.0
  0
LINE
  5
DD
330
1B
100
AcDbEntity
 67
     1
  8
0
  6
Continuous
 62
     7
370
    25
100
AcDbLine
 10
-2.0
 20
23.4147389479
 30
0.0
 11
-2.0
 21
22.0
 31
0.0
  0
LINE
  5
DE
330
1B
100
AcDbEntity
 67
     1
  8
0
  6
Continuous
 62
     7
370
    25
100
AcDbLine
 10
22.0
 20
-2.0
 30
0.0
 11
23.4147389479
 21
-2.0
 31
0.0
  0
LINE
  5
DF
330
1B
100
AcDbEntity
 67
     1
  8
0
  6
Continuous
 62
     7
370
    25
100
AcDbLine
 10
-23.4147389479
 20
-2.0
 30
0.0
 11
-22.0
 21
-2.0
 31
0.0
  0
LINE
  5
E0
330
1B
100
AcDbEntity
 67
     1
  8
0
  6
Continuous
 62
     7
370
    25
100
AcDbLine
 10
-22.0
 20
2.0
 30
0.0
 11
-23.4147389479
 21
2.0
 31
0.0
  0
LINE
  5
E1
330
1B
100
AcDbEntity
 67
     1
  8
0
  6
Continuous
 62
     7
370
    25
100
AcDbLine
 10
2.0
 20
-23.4147389479
 30
0.0
 11
2.0
 21
-22.0
 31
0.0
  0
ARC
  5
E2
330
1B
100
AcDbEntity
 67
     1
  8
0
  6
Continuous
 62
     7
370
    25
100
AcDbCircle
 10
0.0
 20
0.0
 30
0.0
 40
19.2
100
AcDbArc
 50
0.0
 51
180.0
  0
ARC
  5
E3
330
1B
100
AcDbEntity
 67
     1
  8
0
  6
Continuous
 62
     7
370
    25
100
AcDbCircle
 10
0.0
 20
0.0
 30
0.0
 40
4.7
100
AcDbArc
 50
0.0
 51
180.0
  0
ARC
  5
E4
330
1B
100
AcDbEntity
 67
     1
  8
0
  6
Continuous
 62
     7
370
    25
100
AcDbCircle
 10
-22.0
 20
0.0
 30
0.0
 40
2.000000000000005
100
AcDbArc
 50
270.0
 51
90.0
  0
ARC
  5
E5
330
1B
100
AcDbEntity
 67
     1
  8
0
  6
Continuous
 62
     7
370
    25
100
AcDbCircle
 10
0.0
 20
0.0
 30
0.0
 40
23.50000000000008
100
AcDbArc
 50
4.8821423325
 51
85.1178576675
  0
ARC
  5
E6
330
1B
100
AcDbEntity
 67
     1
  8
0
  6
Continuous
 62
     7
370
    25
100
AcDbCircle
 10
0.0
 20
0.0
 30
0.0
 40
23.49999999999996
100
AcDbArc
 50
274.8821423325
 51
355.1178576675
  0
ARC
  5
E7
330
1B
100
AcDbEntity
 67
     1
  8
0
  6
Continuous
 62
     7
370
    25
100
AcDbCircle
 10
0.0
 20
0.0
 30
0.0
 40
23.50000000000006
100
AcDbArc
 50
184.8821423325
 51
265.1178576675
  0
ARC
  5
E8
330
1B
100
AcDbEntity
 67
     1
  8
0
  6
Continuous
 62
     7
370
    25
100
AcDbCircle
 10
0.0
 20
0.0
 30
0.0
 40
23.50000000000003
100
AcDbArc
 50
94.8821423325
 51
175.1178576675
  0
ARC
  5
E9
330
1B
100
AcDbEntity
 67
     1
  8
0
  6
Continuous
 62
     7
370
    25
100
AcDbCircle
 10
0.0
 20
22.0
 30
0.0
 40
2.0
100
AcDbArc
 50
180.0
 51
0.0
  0
ARC
  5
EA
330
1B
100
AcDbEntity
 67
     1
  8
0
  6
Continuous
 62
     7
370
    25
100
AcDbCircle
 10
22.0
 20
0.0
 30
0.0
 40
2.0
100
AcDbArc
 50
90.0
 51
270.0
  0
ARC
  5
EB
330
1B
100
AcDbEntity
 67
     1
  8
0
  6
Continuous
 62
     7
370
    25
100
AcDbCircle
 10
0.0
 20
-22.0
 30
0.0
 40
2.0
100
AcDbArc
 50
0.0
 51
180.0
  0
VIEWPORT
  5
27A
330
1B
100
AcDbEntity
 67
     1
  8
0
100
AcDbViewport
 10
0.0
 20
0.0
 30
0.0
 40
205.6
 41
156.0
 68
     1
 69
     1
 12
-0.5833692362
 22
-0.5268235171
 13
0.0
 23
0.0
 14
10.0
 24
10.0
 15
10.0
 25
10.0
 16
0.0
 26
0.0
 36
1.0
 17
0.0
 27
0.0
 37
0.0
 42
50.0
 43
0.0
 44
0.0
 45
43.9248601721
 50
0.0
 51
0.0
 72
   100
 90
   557152
  1

281
     0
 71
     1
 74
     0
110
0.0
120
0.0
130
0.0
111
1.0
121
0.0
131
0.0
112
0.0
122
1.0
132
0.0
 79
     0
146
0.0
  0
ENDSEC
  0
SECTION
  2
OBJECTS
  0
DICTIONARY
  5
C
330
0
100
AcDbDictionary
281
     1
  3
ACAD_GROUP
350
D
  3
ACAD_LAYOUT
350
1A
  3
ACAD_MLINESTYLE
350
17
  3
ACAD_PLOTSETTINGS
350
19
  3
ACAD_PLOTSTYLENAME
350
E
  3
ACAD_SCALELIST
350
47
  3
DWGPROPS
350
28C
  0
DICTIONARY
  5
D
102
{ACAD_REACTORS
330
C
102
}
330
C
100
AcDbDictionary
281
     1
  0
DICTIONARY
  5
1A
102
{ACAD_REACTORS
330
C
102
}
330
C
100
AcDbDictionary
281
     1
  3
_Back
350
26
  3
_Bottom
350
163
  3
_Dimetric
350
223
  3
_Front
350
1E
  3
_Isometric
350
17D
  3
_Left
350
111
  3
_Right
350
12E
  3
_Top
350
149
  3
_Trimetric
350
1CD
  3
Model
350
22
  0
DICTIONARY
  5
17
102
{ACAD_REACTORS
330
C
102
}
330
C
100
AcDbDictionary
281
     1
  3
Standard
350
18
  0
DICTIONARY
  5
19
102
{ACAD_REACTORS
330
C
102
}
330
C
100
AcDbDictionary
281
     1
  0
ACDBDICTIONARYWDFLT
  5
E
102
{ACAD_REACTORS
330
C
102
}
330
C
100
AcDbDictionary
281
     1
  3
Normal
350
F
100
AcDbDictionaryWithDefault
340
F
  0
DICTIONARY
  5
47
102
{ACAD_REACTORS
330
C
102
}
330
C
100
AcDbDictionary
281
     1
  3
A0
350
48
  3
A1
350
49
  3
A2
350
4A
  3
A3
350
4B
  3
A4
350
4C
  3
A5
350
4D
  3
A6
350
4E
  3
A7
350
4F
  3
A8
350
50
  3
A9
350
51
  3
B0
350
52
  3
B1
350
53
  3
B2
350
54
  3
B3
350
55
  3
B4
350
56
  3
B5
350
57
  3
B6
350
58
  3
B7
350
59
  3
B8
350
5A
  3
B9
350
5B
  3
C0
350
5C
  3
C1
350
5D
  3
C2
350
5E
  3
C3
350
5F
  3
C4
350
60
  3
C5
350
61
  3
C6
350
62
  3
C7
350
63
  3
C8
350
64
  3
C9
350
65
  3
D0
350
66
  3
D1
350
67
  3
D2
350
68
  0
XRECORD
  5
28C
102
{ACAD_REACTORS
330
C
102
}
330
C
100
AcDbXrecord
280
     1
  1
DWGPROPS COOKIE
  2

  3

  4

  6

  7

  8
16097
  9

300
=
301
=
302
=
303
=
304
=
305
=
306
=
307
=
308
=
309
=
 40
0.0
 41
2460461.739840949
 42
2460461.739882743
  1

 90
        0
  0
LAYOUT
  5
26
102
{ACAD_REACTORS
330
1A
102
}
330
1A
100
AcDbPlotSettings
  1

  2
none_device
  4
ISO_A4_(210.00_x_297.00_MM)
  6

 40
7.5
 41
20.0
 42
7.5
 43
20.0
 44
210.0
 45
297.0
 46
0.0
 47
0.0
 48
0.0
 49
0.0
140
0.0
141
0.0
142
1.0
143
0.2401511687
 70
   688
 72
     1
 73
     1
 74
     1
  7

 75
     0
147
4.1640438622
148
23.4147389479
149
23.4147389479
100
AcDbLayout
  1
_Back
 70
     1
 71
     2
 10
0.0
 20
0.0
 11
0.0
 21
0.0
 12
0.0
 22
0.0
 32
0.0
 14
0.0
 24
0.0
 34
0.0
 15
0.0
 25
0.0
 35
0.0
146
0.0
 13
0.0
 23
0.0
 33
0.0
 16
1.0
 26
0.0
 36
0.0
 17
0.0
 27
1.0
 37
0.0
 76
     0
330
23
331
27C
  0
LAYOUT
  5
163
102
{ACAD_REACTORS
330
1A
102
}
330
1A
100
AcDbPlotSettings
  1

  2
none_device
  4
ISO_A4_(210.00_x_297.00_MM)
  6

 40
7.5
 41
20.0
 42
7.5
 43
20.0
 44
210.0
 45
297.0
 46
0.0
 47
0.0
 48
0.0
 49
0.0
140
0.0
141
0.0
142
1.0
143
0.2401511687
 70
   688
 72
     1
 73
     1
 74
     1
  7

 75
     0
147
4.1640438622
148
23.4147389479
149
23.4147389479
100
AcDbLayout
  1
_Bottom
 70
     1
 71
     6
 10
0.0
 20
0.0
 11
0.0
 21
0.0
 12
0.0
 22
0.0
 32
0.0
 14
0.0
 24
0.0
 34
0.0
 15
0.0
 25
0.0
 35
0.0
146
0.0
 13
0.0
 23
0.0
 33
0.0
 16
1.0
 26
0.0
 36
0.0
 17
0.0
 27
1.0
 37
0.0
 76
     0
330
162
331
284
  0
LAYOUT
  5
223
102
{ACAD_REACTORS
330
1A
102
}
330
1A
100
AcDbPlotSettings
  1

  2
none_device
  4
ISO_A4_(210.00_x_297.00_MM)
  6

 40
7.5
 41
20.0
 42
7.5
 43
20.0
 44
210.0
 45
297.0
 46
0.0
 47
0.0
 48
0.0
 49
0.0
140
0.0
141
0.0
142
1.0
143
0.2401511687
 70
   688
 72
     1
 73
     1
 74
     1
  7

 75
     0
147
4.1640438622
148
23.4147389479
149
23.4147389479
100
AcDbLayout
  1
_Dimetric
 70
     1
 71
     9
 10
0.0
 20
0.0
 11
0.0
 21
0.0
 12
0.0
 22
0.0
 32
0.0
 14
0.0
 24
0.0
 34
0.0
 15
0.0
 25
0.0
 35
0.0
146
0.0
 13
0.0
 23
0.0
 33
0.0
 16
1.0
 26
0.0
 36
0.0
 17
0.0
 27
1.0
 37
0.0
 76
     0
330
222
331
28A
  0
LAYOUT
  5
1E
102
{ACAD_REACTORS
330
1A
102
}
330
1A
100
AcDbPlotSettings
  1

  2
none_device
  4
ISO_A4_(210.00_x_297.00_MM)
  6

 40
7.5
 41
20.0
 42
7.5
 43
20.0
 44
210.0
 45
297.0
 46
0.0
 47
0.0
 48
0.0
 49
0.0
140
0.0
141
0.0
142
1.0
143
0.2401511687
 70
   688
 72
     1
 73
     1
 74
     1
  7

 75
     0
147
4.1640438622
148
23.4147389479
149
23.4147389479
100
AcDbLayout
  1
_Front
 70
     1
 71
     1
 10
-28.2177623219
 20
-25.2158727132
 11
43.1071347811
 21
25.2158727132
 12
0.0
 22
0.0
 32
0.0
 14
-23.4147389479
 24
-23.4147389479
 34
0.0
 15
23.4147389479
 25
23.4147389479
 35
0.0
146
0.0
 13
0.0
 23
0.0
 33
0.0
 16
1.0
 26
0.0
 36
0.0
 17
0.0
 27
1.0
 37
0.0
 76
     0
330
1B
331
27A
  0
LAYOUT
  5
17D
102
{ACAD_REACTORS
330
1A
102
}
330
1A
100
AcDbPlotSettings
  1

  2
none_device
  4
ISO_A4_(210.00_x_297.00_MM)
  6

 40
7.5
 41
20.0
 42
7.5
 43
20.0
 44
210.0
 45
297.0
 46
0.0
 47
0.0
 48
0.0
 49
0.0
140
0.0
141
0.0
142
1.0
143
0.2401511687
 70
   688
 72
     1
 73
     1
 74
     1
  7

 75
     0
147
4.1640438622
148
23.4147389479
149
23.4147389479
100
AcDbLayout
  1
_Isometric
 70
     1
 71
     7
 10
0.0
 20
0.0
 11
0.0
 21
0.0
 12
0.0
 22
0.0
 32
0.0
 14
0.0
 24
0.0
 34
0.0
 15
0.0
 25
0.0
 35
0.0
146
0.0
 13
0.0
 23
0.0
 33
0.0
 16
1.0
 26
0.0
 36
0.0
 17
0.0
 27
1.0
 37
0.0
 76
     0
330
17C
331
286
  0
LAYOUT
  5
111
102
{ACAD_REACTORS
330
1A
102
}
330
1A
100
AcDbPlotSettings
  1

  2
none_device
  4
ISO_A4_(210.00_x_297.00_MM)
  6

 40
7.5
 41
20.0
 42
7.5
 43
20.0
 44
210.0
 45
297.0
 46
0.0
 47
0.0
 48
0.0
 49
0.0
140
0.0
141
0.0
142
1.0
143
0.2401511687
 70
   688
 72
     1
 73
     1
 74
     1
  7

 75
     0
147
4.1640438622
148
23.4147389479
149
23.4147389479
100
AcDbLayout
  1
_Left
 70
     1
 71
     3
 10
0.0
 20
0.0
 11
0.0
 21
0.0
 12
0.0
 22
0.0
 32
0.0
 14
0.0
 24
0.0
 34
0.0
 15
0.0
 25
0.0
 35
0.0
146
0.0
 13
0.0
 23
0.0
 33
0.0
 16
1.0
 26
0.0
 36
0.0
 17
0.0
 27
1.0
 37
0.0
 76
     0
330
110
331
27E
  0
LAYOUT
  5
12E
102
{ACAD_REACTORS
330
1A
102
}
330
1A
100
AcDbPlotSettings
  1

  2
none_device
  4
ISO_A4_(210.00_x_297.00_MM)
  6

 40
7.5
 41
20.0
 42
7.5
 43
20.0
 44
210.0
 45
297.0
 46
0.0
 47
0.0
 48
0.0
 49
0.0
140
0.0
141
0.0
142
1.0
143
0.2401511687
 70
   688
 72
     1
 73
     1
 74
     1
  7

 75
     0
147
4.1640438622
148
23.4147389479
149
23.4147389479
100
AcDbLayout
  1
_Right
 70
     1
 71
     4
 10
0.0
 20
0.0
 11
0.0
 21
0.0
 12
0.0
 22
0.0
 32
0.0
 14
0.0
 24
0.0
 34
0.0
 15
0.0
 25
0.0
 35
0.0
146
0.0
 13
0.0
 23
0.0
 33
0.0
 16
1.0
 26
0.0
 36
0.0
 17
0.0
 27
1.0
 37
0.0
 76
     0
330
12D
331
280
  0
LAYOUT
  5
149
102
{ACAD_REACTORS
330
1A
102
}
330
1A
100
AcDbPlotSettings
  1

  2
none_device
  4
ISO_A4_(210.00_x_297.00_MM)
  6

 40
7.5
 41
20.0
 42
7.5
 43
20.0
 44
210.0
 45
297.0
 46
0.0
 47
0.0
 48
0.0
 49
0.0
140
0.0
141
0.0
142
1.0
143
0.2401511687
 70
   688
 72
     1
 73
     1
 74
     1
  7

 75
     0
147
4.1640438622
148
23.4147389479
149
23.4147389479
100
AcDbLayout
  1
_Top
 70
     1
 71
     5
 10
0.0
 20
0.0
 11
0.0
 21
0.0
 12
0.0
 22
0.0
 32
0.0
 14
0.0
 24
0.0
 34
0.0
 15
0.0
 25
0.0
 35
0.0
146
0.0
 13
0.0
 23
0.0
 33
0.0
 16
1.0
 26
0.0
 36
0.0
 17
0.0
 27
1.0
 37
0.0
 76
     0
330
148
331
282
  0
LAYOUT
  5
1CD
102
{ACAD_REACTORS
330
1A
102
}
330
1A
100
AcDbPlotSettings
  1

  2
none_device
  4
ISO_A4_(210.00_x_297.00_MM)
  6

 40
7.5
 41
20.0
 42
7.5
 43
20.0
 44
210.0
 45
297.0
 46
0.0
 47
0.0
 48
0.0
 49
0.0
140
0.0
141
0.0
142
1.0
143
0.2401511687
 70
   688
 72
     1
 73
     1
 74
     1
  7

 75
     0
147
4.1640438622
148
23.4147389479
149
23.4147389479
100
AcDbLayout
  1
_Trimetric
 70
     1
 71
     8
 10
0.0
 20
0.0
 11
0.0
 21
0.0
 12
0.0
 22
0.0
 32
0.0
 14
0.0
 24
0.0
 34
0.0
 15
0.0
 25
0.0
 35
0.0
146
0.0
 13
0.0
 23
0.0
 33
0.0
 16
1.0
 26
0.0
 36
0.0
 17
0.0
 27
1.0
 37
0.0
 76
     0
330
1CC
331
288
  0
LAYOUT
  5
22
102
{ACAD_REACTORS
330
1A
102
}
330
1A
100
AcDbPlotSettings
  1

  2
none_device
  4
ANSI_A_(11.00_x_8.50_Inches)
  6

 40
6.35
 41
19.05
 42
6.35000508
 43
19.05000254
 44
279.4
 45
215.9
 46
136.2454812905
 47
91.5148246084
 48
0.0
 49
0.0
140
0.0
141
0.0
142
0.195408704
143
1.0
 70
  1696
 72
     0
 73
     0
 74
     0
  7

 75
     0
147
0.0179189148
148
-1300.4909072572
149
0.0
100
AcDbLayout
  1
Model
 70
     1
 71
     0
 10
0.0
 20
0.0
 11
420.0
 21
297.0
 12
0.0
 22
0.0
 32
0.0
 14
-21.8751579122
 24
-22.0586177191
 34
0.0
 15
20.7084194399
 25
21.0049706849
 35
0.0
146
0.0
 13
0.0
 23
0.0
 33
0.0
 16
1.0
 26
0.0
 36
0.0
 17
0.0
 27
1.0
 37
0.0
 76
     0
330
1F
331
29
  0
MLINESTYLE
  5
18
102
{ACAD_REACTORS
330
17
102
}
330
17
100
AcDbMlineStyle
  2
Standard
 70
     0
  3

 62
   256
 51
90.0
 52
90.0
 71
     2
 49
0.5
 62
   256
  6
BYLAYER
 49
-0.5
 62
   256
  6
BYLAYER
  0
ACDBPLACEHOLDER
  5
F
102
{ACAD_REACTORS
330
E
102
}
330
E
  0
SCALE
  5
48
102
{ACAD_REACTORS
330
47
102
}
330
47
100
AcDbScale
 70
     0
300
1:1
140
1.0
141
1.0
290
     1
  0
SCALE
  5
49
102
{ACAD_REACTORS
330
47
102
}
330
47
100
AcDbScale
 70
     0
300
1:2
140
1.0
141
2.0
290
     0
  0
SCALE
  5
4A
102
{ACAD_REACTORS
330
47
102
}
330
47
100
AcDbScale
 70
     0
300
1:4
140
1.0
141
4.0
290
     0
  0
SCALE
  5
4B
102
{ACAD_REACTORS
330
47
102
}
330
47
100
AcDbScale
 70
     0
300
1:5
140
1.0
141
5.0
290
     0
  0
SCALE
  5
4C
102
{ACAD_REACTORS
330
47
102
}
330
47
100
AcDbScale
 70
     0
300
1:8
140
1.0
141
8.0
290
     0
  0
SCALE
  5
4D
102
{ACAD_REACTORS
330
47
102
}
330
47
100
AcDbScale
 70
     0
300
1:10
140
1.0
141
10.0
290
     0
  0
SCALE
  5
4E
102
{ACAD_REACTORS
330
47
102
}
330
47
100
AcDbScale
 70
     0
300
1:16
140
1.0
141
16.0
290
     0
  0
SCALE
  5
4F
102
{ACAD_REACTORS
330
47
102
}
330
47
100
AcDbScale
 70
     0
300
1:20
140
1.0
141
20.0
290
     0
  0
SCALE
  5
50
102
{ACAD_REACTORS
330
47
102
}
330
47
100
AcDbScale
 70
     0
300
1:30
140
1.0
141
30.0
290
     0
  0
SCALE
  5
51
102
{ACAD_REACTORS
330
47
102
}
330
47
100
AcDbScale
 70
     0
300
1:40
140
1.0
141
40.0
290
     0
  0
SCALE
  5
52
102
{ACAD_REACTORS
330
47
102
}
330
47
100
AcDbScale
 70
     0
300
1:50
140
1.0
141
50.0
290
     0
  0
SCALE
  5
53
102
{ACAD_REACTORS
330
47
102
}
330
47
100
AcDbScale
 70
     0
300
1:100
140
1.0
141
100.0
290
     0
  0
SCALE
  5
54
102
{ACAD_REACTORS
330
47
102
}
330
47
100
AcDbScale
 70
     0
300
2:1
140
2.0
141
1.0
290
     0
  0
SCALE
  5
55
102
{ACAD_REACTORS
330
47
102
}
330
47
100
AcDbScale
 70
     0
300
4:1
140
4.0
141
1.0
290
     0
  0
SCALE
  5
56
102
{ACAD_REACTORS
330
47
102
}
330
47
100
AcDbScale
 70
     0
300
8:1
140
8.0
141
1.0
290
     0
  0
SCALE
  5
57
102
{ACAD_REACTORS
330
47
102
}
330
47
100
AcDbScale
 70
     0
300
10:1
140
10.0
141
1.0
290
     0
  0
SCALE
  5
58
102
{ACAD_REACTORS
330
47
102
}
330
47
100
AcDbScale
 70
     0
300
100:1
140
100.0
141
1.0
290
     0
  0
SCALE
  5
59
102
{ACAD_REACTORS
330
47
102
}
330
47
100
AcDbScale
 70
     0
300
1/128" = 1'-0"
140
0.0078125
141
12.0
290
     0
  0
SCALE
  5
5A
102
{ACAD_REACTORS
330
47
102
}
330
47
100
AcDbScale
 70
     0
300
1/64" = 1'-0"
140
0.015625
141
12.0
290
     0
  0
SCALE
  5
5B
102
{ACAD_REACTORS
330
47
102
}
330
47
100
AcDbScale
 70
     0
300
1/32" = 1'-0"
140
0.03125
141
12.0
290
     0
  0
SCALE
  5
5C
102
{ACAD_REACTORS
330
47
102
}
330
47
100
AcDbScale
 70
     0
300
1/16" = 1'-0"
140
0.0625
141
12.0
290
     0
  0
SCALE
  5
5D
102
{ACAD_REACTORS
330
47
102
}
330
47
100
AcDbScale
 70
     0
300
3/32" = 1'-0"
140
0.09375
141
12.0
290
     0
  0
SCALE
  5
5E
102
{ACAD_REACTORS
330
47
102
}
330
47
100
AcDbScale
 70
     0
300
1/8" = 1'-0"
140
0.125
141
12.0
290
     0
  0
SCALE
  5
5F
102
{ACAD_REACTORS
330
47
102
}
330
47
100
AcDbScale
 70
     0
300
3/16" = 1'-0"
140
0.1875
141
12.0
290
     0
  0
SCALE
  5
60
102
{ACAD_REACTORS
330
47
102
}
330
47
100
AcDbScale
 70
     0
300
1/4" = 1'-0"
140
0.25
141
12.0
290
     0
  0
SCALE
  5
61
102
{ACAD_REACTORS
330
47
102
}
330
47
100
AcDbScale
 70
     0
300
3/8" = 1'-0"
140
0.375
141
12.0
290
     0
  0
SCALE
  5
62
102
{ACAD_REACTORS
330
47
102
}
330
47
100
AcDbScale
 70
     0
300
1/2" = 1'-0"
140
0.5
141
12.0
290
     0
  0
SCALE
  5
63
102
{ACAD_REACTORS
330
47
102
}
330
47
100
AcDbScale
 70
     0
300
3/4" = 1'-0"
140
0.75
141
12.0
290
     0
  0
SCALE
  5
64
102
{ACAD_REACTORS
330
47
102
}
330
47
100
AcDbScale
 70
     0
300
1" = 1'-0"
140
1.0
141
12.0
290
     0
  0
SCALE
  5
65
102
{ACAD_REACTORS
330
47
102
}
330
47
100
AcDbScale
 70
     0
300
1-1/2" = 1'-0"
140
1.5
141
12.0
290
     0
  0
SCALE
  5
66
102
{ACAD_REACTORS
330
47
102
}
330
47
100
AcDbScale
 70
     0
300
3" = 1'-0"
140
3.0
141
12.0
290
     0
  0
SCALE
  5
67
102
{ACAD_REACTORS
330
47
102
}
330
47
100
AcDbScale
 70
     0
300
6" = 1'-0"
140
6.0
141
12.0
290
     0
  0
SCALE
  5
68
102
{ACAD_REACTORS
330
47
102
}
330
47
100
AcDbScale
 70
     0
300
1'-0" = 1'-0"
140
12.0
141
12.0
290
     0
  0
ENDSEC
  0
EOF
