  0
SECTION
  2
HEADER
  9
$ACADVER
  1
AC1015
  9
$ACADMAINTVER
 70
     6
  9
$DWGCODEPAGE
  3
ANSI_1252
  9
$INSBASE
 10
0.0
 20
0.0
 30
0.0
  9
$EXTMIN
 10
-1.968503937
 20
-1.0137138456
 30
0.0
  9
$EXTMAX
 10
1.968503937
 20
3.4227377608
 30
0.0
  9
$LIMMIN
 10
0.0
 20
0.0
  9
$LIMMAX
 10
12.0
 20
9.0
  9
$ORTHOMODE
 70
     0
  9
$REGENMODE
 70
     1
  9
$FILLMODE
 70
     1
  9
$QTEXTMODE
 70
     0
  9
$MIRRTEXT
 70
     1
  9
$LTSCALE
 40
1.0
  9
$ATTMODE
 70
     1
  9
$TEXTSIZE
 40
0.1377952756
  9
$TRACEWID
 40
0.05
  9
$TEXTSTYLE
  7
Standard
  9
$CLAYER
  8
0
  9
$CELTYPE
  6
ByLayer
  9
$CECOLOR
 62
   256
  9
$CELTSCALE
 40
1.0
  9
$DISPSILH
 70
     0
  9
$DIMSCALE
 40
1.0
  9
$DIMASZ
 40
0.13
  9
$DIMEXO
 40
0.0
  9
$DIMDLI
 40
0.38
  9
$DIMRND
 40
0.0
  9
$DIMDLE
 40
0.0
  9
$DIMEXE
 40
0.125
  9
$DIMTP
 40
0.0
  9
$DIMTM
 40
0.0
  9
$DIMTXT
 40
0.1377952756
  9
$DIMCEN
 40
0.09
  9
$DIMTSZ
 40
0.0
  9
$DIMTOL
 70
     0
  9
$DIMLIM
 70
     0
  9
$DIMTIH
 70
     1
  9
$DIMTOH
 70
     1
  9
$DIMSE1
 70
     0
  9
$DIMSE2
 70
     0
  9
$DIMTAD
 70
     1
  9
$DIMZIN
 70
     1
  9
$DIMBLK
  1

  9
$DIMASO
 70
     1
  9
$DIMSHO
 70
     1
  9
$DIMPOST
  1

  9
$DIMAPOST
  1

  9
$DIMALT
 70
     0
  9
$DIMALTD
 70
     2
  9
$DIMALTF
 40
25.4
  9
$DIMLFAC
 40
1.0
  9
$DIMTOFL
 70
     0
  9
$DIMTVP
 40
0.0
  9
$DIMTIX
 70
     0
  9
$DIMSOXD
 70
     0
  9
$DIMSAH
 70
     0
  9
$DIMBLK1
  1

  9
$DIMBLK2
  1

  9
$DIMSTYLE
  2
Standard
  9
$DIMCLRD
 70
     0
  9
$DIMCLRE
 70
     0
  9
$DIMCLRT
 70
     0
  9
$DIMTFAC
 40
1.0
  9
$DIMGAP
 40
0.06
  9
$DIMJUST
 70
     0
  9
$DIMSD1
 70
     0
  9
$DIMSD2
 70
     0
  9
$DIMTOLJ
 70
     1
  9
$DIMTZIN
 70
     1
  9
$DIMALTZ
 70
     0
  9
$DIMALTTZ
 70
     0
  9
$DIMUPT
 70
     0
  9
$DIMDEC
 70
     2
  9
$DIMTDEC
 70
     2
  9
$DIMALTU
 70
     2
  9
$DIMALTTD
 70
     2
  9
$DIMTXSTY
  7
Standard
  9
$DIMAUNIT
 70
     0
  9
$DIMADEC
 70
     2
  9
$DIMALTRND
 40
0.0
  9
$DIMAZIN
 70
     0
  9
$DIMDSEP
 70
    46
  9
$DIMATFIT
 70
     3
  9
$DIMFRAC
 70
     0
  9
$DIMLDRBLK
  1

  9
$DIMLUNIT
 70
     2
  9
$DIMLWD
 70
    -2
  9
$DIMLWE
 70
    -2
  9
$DIMTMOVE
 70
     0
  9
$LUNITS
 70
     2
  9
$LUPREC
 70
     2
  9
$SKETCHINC
 40
0.1
  9
$FILLETRAD
 40
0.5
  9
$AUNITS
 70
     0
  9
$AUPREC
 70
     2
  9
$MENU
  1
.
  9
$ELEVATION
 40
0.0
  9
$PELEVATION
 40
0.0
  9
$THICKNESS
 40
0.0
  9
$LIMCHECK
 70
     0
  9
$CHAMFERA
 40
0.0
  9
$CHAMFERB
 40
0.0
  9
$CHAMFERC
 40
0.0
  9
$CHAMFERD
 40
0.0
  9
$SKPOLY
 70
     0
  9
$TDCREATE
 40
2460929.577433935
  9
$TDUCREATE
 40
2460929.744100602
  9
$TDUPDATE
 40
2460929.577464572
  9
$TDUUPDATE
 40
2460929.744131238
  9
$TDINDWG
 40
0.0000000116
  9
$TDUSRTIMER
 40
0.0000000116
  9
$USRTIMER
 70
     1
  9
$ANGBASE
 50
0.0
  9
$ANGDIR
 70
     0
  9
$PDMODE
 70
     0
  9
$PDSIZE
 40
-1.0
  9
$PLINEWID
 40
0.0
  9
$SPLFRAME
 70
     0
  9
$SPLINETYPE
 70
     6
  9
$SPLINESEGS
 70
     8
  9
$HANDSEED
  5
2AA
  9
$SURFTAB1
 70
     6
  9
$SURFTAB2
 70
     6
  9
$SURFTYPE
 70
     6
  9
$SURFU
 70
     6
  9
$SURFV
 70
     6
  9
$UCSBASE
  2

  9
$UCSNAME
  2

  9
$UCSORG
 10
0.0
 20
0.0
 30
0.0
  9
$UCSXDIR
 10
1.0
 20
0.0
 30
0.0
  9
$UCSYDIR
 10
0.0
 20
1.0
 30
0.0
  9
$UCSORTHOREF
  2

  9
$UCSORTHOVIEW
 70
     0
  9
$UCSORGTOP
 10
0.0
 20
0.0
 30
0.0
  9
$UCSORGBOTTOM
 10
0.0
 20
0.0
 30
0.0
  9
$UCSORGLEFT
 10
0.0
 20
0.0
 30
0.0
  9
$UCSORGRIGHT
 10
0.0
 20
0.0
 30
0.0
  9
$UCSORGFRONT
 10
0.0
 20
0.0
 30
0.0
  9
$UCSORGBACK
 10
0.0
 20
0.0
 30
0.0
  9
$PUCSBASE
  2

  9
$PUCSNAME
  2

  9
$PUCSORG
 10
0.0
 20
0.0
 30
0.0
  9
$PUCSXDIR
 10
1.0
 20
0.0
 30
0.0
  9
$PUCSYDIR
 10
0.0
 20
1.0
 30
0.0
  9
$PUCSORTHOREF
  2

  9
$PUCSORTHOVIEW
 70
     0
  9
$PUCSORGTOP
 10
0.0
 20
0.0
 30
0.0
  9
$PUCSORGBOTTOM
 10
0.0
 20
0.0
 30
0.0
  9
$PUCSORGLEFT
 10
0.0
 20
0.0
 30
0.0
  9
$PUCSORGRIGHT
 10
0.0
 20
0.0
 30
0.0
  9
$PUCSORGFRONT
 10
0.0
 20
0.0
 30
0.0
  9
$PUCSORGBACK
 10
0.0
 20
0.0
 30
0.0
  9
$USERI1
 70
     0
  9
$USERI2
 70
     0
  9
$USERI3
 70
     0
  9
$USERI4
 70
     0
  9
$USERI5
 70
     0
  9
$USERR1
 40
0.0
  9
$USERR2
 40
0.0
  9
$USERR3
 40
0.0
  9
$USERR4
 40
0.0
  9
$USERR5
 40
0.0
  9
$WORLDVIEW
 70
     1
  9
$SHADEDGE
 70
     3
  9
$SHADEDIF
 70
    70
  9
$TILEMODE
 70
     1
  9
$MAXACTVP
 70
    64
  9
$PINSBASE
 10
0.0
 20
0.0
 30
0.0
  9
$PLIMCHECK
 70
     0
  9
$PEXTMIN
 10
-1.968503937
 20
0.0
 30
0.0
  9
$PEXTMAX
 10
1.968503937
 20
2.9527559055
 30
0.0
  9
$PLIMMIN
 10
-2.0622423709
 20
-0.0937382862
  9
$PLIMMAX
 10
2.0622422232
 20
3.0933634456
  9
$UNITMODE
 70
     0
  9
$VISRETAIN
 70
     1
  9
$PLINEGEN
 70
     0
  9
$PSLTSCALE
 70
     1
  9
$TREEDEPTH
 70
  3020
  9
$CMLSTYLE
  2
Standard
  9
$CMLJUST
 70
     0
  9
$CMLSCALE
 40
1.0
  9
$PROXYGRAPHICS
 70
     1
  9
$MEASUREMENT
 70
     0
  9
$CELWEIGHT
370
    -1
  9
$ENDCAPS
280
     0
  9
$JOINSTYLE
280
     0
  9
$LWDISPLAY
290
     1
  9
$INSUNITS
 70
     1
  9
$HYPERLINKBASE
  1

  9
$STYLESHEET
  1

  9
$XEDIT
290
     1
  9
$CEPSNTYPE
380
     0
  9
$PSTYLEMODE
290
     1
  9
$FINGERPRINTGUID
  2
{7afcb5e6-75e2-46c2-bcb7-722384528a34}
  9
$VERSIONGUID
  2
{FAEB1C32-E019-11D5-929B-00C0DF256EC4}
  9
$EXTNAMES
290
     1
  9
$PSVPSCALE
 40
0.0
  9
$OLESTARTUP
290
     0
  0
ENDSEC
  0
SECTION
  2
CLASSES
  0
CLASS
  1
ACDBDICTIONARYWDFLT
  2
AcDbDictionaryWithDefault
  3
ObjectDBX Classes
 90
        0
280
     0
281
     0
  0
CLASS
  1
VISUALSTYLE
  2
AcDbVisualStyle
  3
ObjectDBX Classes
 90
     4095
280
     0
281
     0
  0
CLASS
  1
MATERIAL
  2
AcDbMaterial
  3
ObjectDBX Classes
 90
     1153
280
     0
281
     0
  0
CLASS
  1
SCALE
  2
AcDbScale
  3
ObjectDBX Classes
 90
     1153
280
     0
281
     0
  0
CLASS
  1
TABLESTYLE
  2
AcDbTableStyle
  3
ObjectDBX Classes
 90
     4095
280
     0
281
     0
  0
CLASS
  1
MLEADERSTYLE
  2
AcDbMLeaderStyle
  3
ACDB_MLEADERSTYLE_CLASS
 90
     4095
280
     0
281
     0
  0
CLASS
  1
SUN
  2
AcDbSun
  3
SCENEOE
 90
     1153
280
     0
281
     0
  0
CLASS
  1
ACDBPLACEHOLDER
  2
AcDbPlaceHolder
  3
ObjectDBX Classes
 90
        0
280
     0
281
     0
  0
CLASS
  1
LAYOUT
  2
AcDbLayout
  3
ObjectDBX Classes
 90
        0
280
     0
281
     0
  0
ENDSEC
  0
SECTION
  2
TABLES
  0
TABLE
  2
VPORT
  5
8
330
0
100
AcDbSymbolTable
 70
     1
  0
VPORT
  5
29
330
8
100
AcDbSymbolTableRecord
100
AcDbViewportTableRecord
  2
*Active
 70
     0
 10
0.0
 20
0.0
 11
1.0
 21
1.0
 12
0.0
 22
1.2045119576
 13
0.0
 23
0.0
 14
0.5
 24
0.5
 15
0.5
 25
0.5
 16
0.0
 26
0.0
 36
1.0
 17
0.0
 27
0.0
 37
0.0
 40
4.5251806385
 41
0.8874227025
 42
50.0
 43
0.0
 44
0.0
 50
0.0
 51
0.0
 71
     0
 72
   100
 73
     1
 74
     3
 75
     0
 76
     0
 77
     0
 78
     0
281
     0
 65
     1
110
0.0
120
0.0
130
0.0
111
1.0
121
0.0
131
0.0
112
0.0
122
1.0
132
0.0
 79
     0
146
0.0
  0
ENDTAB
  0
TABLE
  2
LTYPE
  5
5
330
0
100
AcDbSymbolTable
 70
     6
  0
LTYPE
  5
14
330
5
100
AcDbSymbolTableRecord
100
AcDbLinetypeTableRecord
  2
ByBlock
 70
     0
  3

 72
    65
 73
     0
 40
0.0
  0
LTYPE
  5
15
330
5
100
AcDbSymbolTableRecord
100
AcDbLinetypeTableRecord
  2
ByLayer
 70
     0
  3

 72
    65
 73
     0
 40
0.0
  0
LTYPE
  5
16
330
5
100
AcDbSymbolTableRecord
100
AcDbLinetypeTableRecord
  2
Continuous
 70
     0
  3
Solid line
 72
    65
 73
     0
 40
0.0
  0
LTYPE
  5
6E
330
5
100
AcDbSymbolTableRecord
100
AcDbLinetypeTableRecord
  2
HIDDEN
 70
     0
  3
Hidden __ __ __ __ __ __ __ __ __ __ __ __ __ __
 72
    65
 73
     2
 40
0.075
 49
0.05
 74
     0
 49
-0.025
 74
     0
  0
LTYPE
  5
6F
330
5
100
AcDbSymbolTableRecord
100
AcDbLinetypeTableRecord
  2
PHANTOM
 70
     0
  3
Phantom ______  __  __  ______  __  __  ______
 72
    65
 73
     6
 40
0.5
 49
0.25
 74
     0
 49
-0.05
 74
     0
 49
0.05
 74
     0
 49
-0.05
 74
     0
 49
0.05
 74
     0
 49
-0.05
 74
     0
  0
LTYPE
  5
70
330
5
100
AcDbSymbolTableRecord
100
AcDbLinetypeTableRecord
  2
CENTER
 70
     0
  3
Center ____ _ ____ _ ____ _ ____ _ ____ _ ____
 72
    65
 73
     4
 40
0.4
 49
0.25
 74
     0
 49
-0.05
 74
     0
 49
0.05
 74
     0
 49
-0.05
 74
     0
  0
LTYPE
  5
71
330
5
100
AcDbSymbolTableRecord
100
AcDbLinetypeTableRecord
  2
CENTERX2
 70
     0
  3
Center (2x) ________  __  ________  __  _____
 72
    65
 73
     4
 40
0.8
 49
0.5
 74
     0
 49
-0.1
 74
     0
 49
0.1
 74
     0
 49
-0.1
 74
     0
  0
LTYPE
  5
72
330
5
100
AcDbSymbolTableRecord
100
AcDbLinetypeTableRecord
  2
DOT2
 70
     0
  3
Dot (.5x) ........................................
 72
    65
 73
     2
 40
0.025
 49
0.0
 74
     0
 49
-0.025
 74
     0
  0
ENDTAB
  0
TABLE
  2
LAYER
  5
2
330
0
100
AcDbSymbolTable
 70
     1
  0
LAYER
  5
10
330
2
100
AcDbSymbolTableRecord
100
AcDbLayerTableRecord
  2
0
 70
     0
 62
     7
  6
Continuous
370
    -3
390
F
  0
ENDTAB
  0
TABLE
  2
STYLE
  5
3
330
0
100
AcDbSymbolTable
 70
     1
  0
STYLE
  5
11
330
3
100
AcDbSymbolTableRecord
100
AcDbTextStyleTableRecord
  2
Standard
 70
     0
 40
0.0
 41
1.0
 50
0.0
 71
     0
 42
0.1377952756
  3
txt
  4

  0
ENDTAB
  0
TABLE
  2
VIEW
  5
6
330
0
100
AcDbSymbolTable
 70
     0
  0
ENDTAB
  0
TABLE
  2
UCS
  5
7
330
0
100
AcDbSymbolTable
 70
     0
  0
ENDTAB
  0
TABLE
  2
APPID
  5
9
330
0
100
AcDbSymbolTable
 70
     1
  0
APPID
  5
12
330
9
100
AcDbSymbolTableRecord
100
AcDbRegAppTableRecord
  2
ACAD
 70
     0
  0
ENDTAB
  0
TABLE
  2
DIMSTYLE
  5
A
330
0
100
AcDbSymbolTable
 70
     1
100
AcDbDimStyleTable
  0
DIMSTYLE
105
27
330
A
100
AcDbSymbolTableRecord
100
AcDbDimStyleTableRecord
  2
Standard
 70
     0
178
     0
340
11
  0
ENDTAB
  0
TABLE
  2
BLOCK_RECORD
  5
1
330
0
100
AcDbSymbolTable
 70
     8
  0
BLOCK_RECORD
  5
1F
330
1
100
AcDbSymbolTableRecord
100
AcDbBlockTableRecord
  2
*Model_Space
340
22
  0
BLOCK_RECORD
  5
1B
330
1
100
AcDbSymbolTableRecord
100
AcDbBlockTableRecord
  2
*Paper_Space
340
1E
  0
BLOCK_RECORD
  5
23
330
1
100
AcDbSymbolTableRecord
100
AcDbBlockTableRecord
  2
*Paper_Space0
340
26
  0
BLOCK_RECORD
  5
F1
330
1
100
AcDbSymbolTableRecord
100
AcDbBlockTableRecord
  2
*Paper_Space1
340
F2
  0
BLOCK_RECORD
  5
123
330
1
100
AcDbSymbolTableRecord
100
AcDbBlockTableRecord
  2
*Paper_Space2
340
124
  0
BLOCK_RECORD
  5
144
330
1
100
AcDbSymbolTableRecord
100
AcDbBlockTableRecord
  2
*Paper_Space3
340
145
  0
BLOCK_RECORD
  5
180
330
1
100
AcDbSymbolTableRecord
100
AcDbBlockTableRecord
  2
*Paper_Space4
340
181
  0
BLOCK_RECORD
  5
1DD
330
1
100
AcDbSymbolTableRecord
100
AcDbBlockTableRecord
  2
*Paper_Space5
340
1DE
  0
BLOCK_RECORD
  5
21A
330
1
100
AcDbSymbolTableRecord
100
AcDbBlockTableRecord
  2
*Paper_Space6
340
21B
  0
BLOCK_RECORD
  5
256
330
1
100
AcDbSymbolTableRecord
100
AcDbBlockTableRecord
  2
*Paper_Space7
340
257
  0
ENDTAB
  0
ENDSEC
  0
SECTION
  2
BLOCKS
  0
BLOCK
  5
20
330
1F
100
AcDbEntity
  8
0
100
AcDbBlockBegin
  2
*Model_Space
 70
     0
 10
0.0
 20
0.0
 30
0.0
  3
*Model_Space
  1

  0
ENDBLK
  5
21
330
1F
100
AcDbEntity
  8
0
100
AcDbBlockEnd
  0
BLOCK
  5
1C
330
1B
100
AcDbEntity
 67
     1
  8
0
100
AcDbBlockBegin
  2
*Paper_Space
 70
     0
 10
0.0
 20
0.0
 30
0.0
  3
*Paper_Space
  1

  0
ENDBLK
  5
1D
330
1B
100
AcDbEntity
 67
     1
  8
0
100
AcDbBlockEnd
  0
BLOCK
  5
24
330
23
100
AcDbEntity
  8
0
100
AcDbBlockBegin
  2
*Paper_Space0
 70
     0
 10
0.0
 20
0.0
 30
0.0
  3
*Paper_Space0
  1

  0
LINE
  5
E4
330
23
100
AcDbEntity
  8
0
  6
Continuous
 62
     7
370
    25
100
AcDbLine
 10
-1.968503937
 20
1.868503937
 30
0.0
 11
-1.968503937
 21
0.0
 31
0.0
  0
LINE
  5
E5
330
23
100
AcDbEntity
  8
0
  6
Continuous
 62
     7
370
    25
100
AcDbLine
 10
-1.868503937
 20
1.968503937
 30
0.0
 11
-1.968503937
 21
1.868503937
 31
0.0
  0
LINE
  5
E6
330
23
100
AcDbEntity
  8
0
  6
Continuous
 62
     7
370
    25
100
AcDbLine
 10
1.968503937
 20
1.868503937
 30
0.0
 11
1.868503937
 21
1.968503937
 31
0.0
  0
LINE
  5
E7
330
23
100
AcDbEntity
  8
0
  6
Continuous
 62
     7
370
    25
100
AcDbLine
 10
1.968503937
 20
0.375
 30
0.0
 11
1.968503937
 21
1.868503937
 31
0.0
  0
LINE
  5
E8
330
23
100
AcDbEntity
  8
0
  6
Continuous
 62
     7
370
    25
100
AcDbLine
 10
0.0
 20
1.968503937
 30
0.0
 11
0.0
 21
0.0
 31
0.0
  0
LINE
  5
E9
330
23
100
AcDbEntity
  8
0
  6
Continuous
 62
     7
370
    25
100
AcDbLine
 10
-1.968503937
 20
0.0
 30
0.0
 11
1.9595539033
 21
0.0
 31
0.0
  0
LINE
  5
EA
330
23
100
AcDbEntity
  8
0
  6
Continuous
 62
     7
370
    25
100
AcDbLine
 10
-1.968503937
 20
0.375
 30
0.0
 11
1.968503937
 21
0.375
 31
0.0
  0
LINE
  5
EB
330
23
100
AcDbEntity
  8
0
  6
Continuous
 62
     7
370
    25
100
AcDbLine
 10
1.9595539033
 20
0.375
 30
0.0
 11
1.9595539033
 21
0.0
 31
0.0
  0
LINE
  5
EC
330
23
100
AcDbEntity
  8
0
  6
Continuous
 62
     7
370
    25
100
AcDbLine
 10
-1.7315112698
 20
2.9527559055
 30
0.0
 11
1.7315112698
 21
2.9527559055
 31
0.0
  0
LINE
  5
ED
330
23
100
AcDbEntity
  8
0
  6
Continuous
 62
     7
370
    25
100
AcDbLine
 10
1.968503937
 20
1.868503937
 30
0.0
 11
-1.968503937
 21
1.868503937
 31
0.0
  0
LINE
  5
EE
330
23
100
AcDbEntity
  8
0
  6
Continuous
 62
     7
370
    25
100
AcDbLine
 10
-1.868503937
 20
1.968503937
 30
0.0
 11
1.868503937
 21
1.968503937
 31
0.0
  0
ARC
  5
EF
330
23
100
AcDbEntity
  8
0
  6
Continuous
 62
     7
370
    25
100
AcDbCircle
 10
0.0
 20
2.5777559055
 30
0.0
 40
1.771653543307087
100
AcDbArc
 50
339.8860158308
 51
12.220041071
  0
ARC
  5
F0
330
23
100
AcDbEntity
  8
0
  6
Continuous
 62
     7
370
    25
100
AcDbCircle
 10
0.0
 20
2.5777559055
 30
0.0
 40
1.771653543307087
100
AcDbArc
 50
167.779958929
 51
200.1139841692
  0
VIEWPORT
  5
299
330
23
100
AcDbEntity
  8
0
100
AcDbViewport
 10
0.0
 20
0.0
 30
0.0
 40
8.4
 41
6.4
 68
     1
 69
     1
 12
0.0
 22
1.2045119576
 13
0.0
 23
0.0
 14
0.5
 24
0.5
 15
0.5
 25
0.5
 16
0.0
 26
0.0
 36
1.0
 17
0.0
 27
0.0
 37
0.0
 42
50.0
 43
0.0
 44
0.0
 45
4.5251806385
 50
0.0
 51
0.0
 72
   100
 90
   557152
  1

281
     0
 71
     1
 74
     0
110
0.0
120
0.0
130
0.0
111
1.0
121
0.0
131
0.0
112
0.0
122
1.0
132
0.0
 79
     0
146
0.0
  0
ENDBLK
  5
25
330
23
100
AcDbEntity
  8
0
100
AcDbBlockEnd
  0
BLOCK
  5
F3
330
F1
100
AcDbEntity
  8
0
100
AcDbBlockBegin
  2
*Paper_Space1
 70
     0
 10
0.0
 20
0.0
 30
0.0
  3
*Paper_Space1
  1

  0
LINE
  5
111
330
F1
100
AcDbEntity
  8
0
  6
Continuous
 62
     7
370
    25
100
AcDbLine
 10
-0.1875
 20
0.375
 30
0.0
 11
-0.1875
 21
0.0
 31
0.0
  0
LINE
  5
112
330
F1
100
AcDbEntity
  8
0
  6
Continuous
 62
     7
370
    25
100
AcDbLine
 10
-1.968503937
 20
1.868503937
 30
0.0
 11
-1.968503937
 21
0.0
 31
0.0
  0
LINE
  5
113
330
F1
100
AcDbEntity
  8
0
  6
Continuous
 62
     7
370
    25
100
AcDbLine
 10
0.1875
 20
0.0
 30
0.0
 11
0.1875
 21
0.375
 31
0.0
  0
LINE
  5
114
330
F1
100
AcDbEntity
  8
0
  6
Continuous
 62
     7
370
    25
100
AcDbLine
 10
1.968503937
 20
1.868503937
 30
0.0
 11
1.968503937
 21
0.0
 31
0.0
  0
LINE
  5
115
330
F1
100
AcDbEntity
  8
0
  6
Continuous
 62
     7
370
    25
100
AcDbLine
 10
1.968503937
 20
0.375
 30
0.0
 11
-1.968503937
 21
0.375
 31
0.0
  0
LINE
  5
116
330
F1
100
AcDbEntity
  8
0
  6
Continuous
 62
     7
370
    25
100
AcDbLine
 10
-1.968503937
 20
0.0
 30
0.0
 11
1.968503937
 21
0.0
 31
0.0
  0
LINE
  5
117
330
F1
100
AcDbEntity
  8
0
  6
Continuous
 62
     7
370
    25
100
AcDbLine
 10
0.0625
 20
0.1875
 30
0.0
 11
0.0826771654
 21
0.1875
 31
0.0
  0
LINE
  5
118
330
F1
100
AcDbEntity
  8
0
  6
Continuous
 62
     7
370
    25
100
AcDbLine
 10
-0.0625
 20
0.1875
 30
0.0
 11
-0.0826771654
 21
0.1875
 31
0.0
  0
LINE
  5
119
330
F1
100
AcDbEntity
  8
0
  6
Continuous
 62
     7
370
    25
100
AcDbLine
 10
-1.7315112698
 20
2.9527559055
 30
0.0
 11
1.7315112698
 21
2.9527559055
 31
0.0
  0
LINE
  5
11A
330
F1
100
AcDbEntity
  8
0
  6
Continuous
 62
     7
370
    25
100
AcDbLine
 10
1.968503937
 20
1.868503937
 30
0.0
 11
-1.968503937
 21
1.868503937
 31
0.0
  0
LINE
  5
11B
330
F1
100
AcDbEntity
  8
0
  6
Continuous
 62
     7
370
    25
100
AcDbLine
 10
-1.868503937
 20
1.968503937
 30
0.0
 11
-1.968503937
 21
1.868503937
 31
0.0
  0
LINE
  5
11C
330
F1
100
AcDbEntity
  8
0
  6
Continuous
 62
     7
370
    25
100
AcDbLine
 10
-1.868503937
 20
1.968503937
 30
0.0
 11
1.868503937
 21
1.968503937
 31
0.0
  0
LINE
  5
11D
330
F1
100
AcDbEntity
  8
0
  6
Continuous
 62
     7
370
    25
100
AcDbLine
 10
1.868503937
 20
1.968503937
 30
0.0
 11
1.968503937
 21
1.868503937
 31
0.0
  0
LINE
  5
11E
330
F1
100
AcDbEntity
  8
0
  6
Continuous
 62
     8
370
    25
100
AcDbLine
 10
0.0
 20
1.968503937
 30
0.0
 11
0.0
 21
2.9527559055
 31
0.0
  0
ARC
  5
11F
330
F1
100
AcDbEntity
  8
0
  6
Continuous
 62
     7
370
    25
100
AcDbCircle
 10
0.0
 20
2.5777559055
 30
0.0
 40
1.771653543307086
100
AcDbArc
 50
167.779958929
 51
200.1139841692
  0
ARC
  5
120
330
F1
100
AcDbEntity
  8
0
  6
Continuous
 62
     7
370
    25
100
AcDbCircle
 10
0.0
 20
2.5777559055
 30
0.0
 40
1.771653543307242
100
AcDbArc
 50
339.8860158309
 51
12.220041071
  0
ARC
  5
121
330
F1
100
AcDbEntity
  8
0
  6
Continuous
 62
     7
370
    25
100
AcDbCircle
 10
0.0
 20
0.1875
 30
0.0
 40
0.0826771653543307
100
AcDbArc
 50
180.0
 51
0.0
  0
ARC
  5
122
330
F1
100
AcDbEntity
  8
0
  6
Continuous
 62
     7
370
    25
100
AcDbCircle
 10
0.0
 20
0.1875
 30
0.0
 40
0.0625
100
AcDbArc
 50
0.0
 51
180.0
  0
VIEWPORT
  5
29B
330
F1
100
AcDbEntity
  8
0
100
AcDbViewport
 10
0.0
 20
0.0
 30
0.0
 40
8.4
 41
6.4
 68
     1
 69
     1
 12
0.0
 22
1.2045119576
 13
0.0
 23
0.0
 14
0.5
 24
0.5
 15
0.5
 25
0.5
 16
0.0
 26
0.0
 36
1.0
 17
0.0
 27
0.0
 37
0.0
 42
50.0
 43
0.0
 44
0.0
 45
4.5251806385
 50
0.0
 51
0.0
 72
   100
 90
   557152
  1

281
     0
 71
     1
 74
     0
110
0.0
120
0.0
130
0.0
111
1.0
121
0.0
131
0.0
112
0.0
122
1.0
132
0.0
 79
     0
146
0.0
  0
ENDBLK
  5
F4
330
F1
100
AcDbEntity
  8
0
100
AcDbBlockEnd
  0
BLOCK
  5
125
330
123
100
AcDbEntity
  8
0
100
AcDbBlockBegin
  2
*Paper_Space2
 70
     0
 10
0.0
 20
0.0
 30
0.0
  3
*Paper_Space2
  1

  0
LINE
  5
138
330
123
100
AcDbEntity
  8
0
  6
Continuous
 62
     7
370
    25
100
AcDbLine
 10
-1.968503937
 20
1.868503937
 30
0.0
 11
-1.968503937
 21
0.0
 31
0.0
  0
LINE
  5
139
330
123
100
AcDbEntity
  8
0
  6
Continuous
 62
     7
370
    25
100
AcDbLine
 10
1.968503937
 20
1.868503937
 30
0.0
 11
1.968503937
 21
0.0
 31
0.0
  0
LINE
  5
13A
330
123
100
AcDbEntity
  8
0
  6
Continuous
 62
     7
370
    25
100
AcDbLine
 10
-1.968503937
 20
0.0
 30
0.0
 11
1.968503937
 21
0.0
 31
0.0
  0
LINE
  5
13B
330
123
100
AcDbEntity
  8
0
  6
Continuous
 62
     7
370
    25
100
AcDbLine
 10
1.968503937
 20
0.375
 30
0.0
 11
-1.968503937
 21
0.375
 31
0.0
  0
LINE
  5
13C
330
123
100
AcDbEntity
  8
0
  6
Continuous
 62
     7
370
    25
100
AcDbLine
 10
-1.7315112698
 20
2.9527559055
 30
0.0
 11
1.7315112698
 21
2.9527559055
 31
0.0
  0
LINE
  5
13D
330
123
100
AcDbEntity
  8
0
  6
Continuous
 62
     7
370
    25
100
AcDbLine
 10
1.968503937
 20
1.868503937
 30
0.0
 11
-1.968503937
 21
1.868503937
 31
0.0
  0
LINE
  5
13E
330
123
100
AcDbEntity
  8
0
  6
Continuous
 62
     7
370
    25
100
AcDbLine
 10
1.868503937
 20
1.968503937
 30
0.0
 11
1.968503937
 21
1.868503937
 31
0.0
  0
LINE
  5
13F
330
123
100
AcDbEntity
  8
0
  6
Continuous
 62
     7
370
    25
100
AcDbLine
 10
-1.868503937
 20
1.968503937
 30
0.0
 11
-1.968503937
 21
1.868503937
 31
0.0
  0
LINE
  5
140
330
123
100
AcDbEntity
  8
0
  6
Continuous
 62
     7
370
    25
100
AcDbLine
 10
-1.868503937
 20
1.968503937
 30
0.0
 11
1.868503937
 21
1.968503937
 31
0.0
  0
LINE
  5
141
330
123
100
AcDbEntity
  8
0
  6
Continuous
 62
     8
370
    25
100
AcDbLine
 10
0.0
 20
1.968503937
 30
0.0
 11
0.0
 21
2.9527559055
 31
0.0
  0
ARC
  5
142
330
123
100
AcDbEntity
  8
0
  6
Continuous
 62
     7
370
    25
100
AcDbCircle
 10
0.0
 20
2.5777559055
 30
0.0
 40
1.771653543307242
100
AcDbArc
 50
339.8860158309
 51
12.220041071
  0
ARC
  5
143
330
123
100
AcDbEntity
  8
0
  6
Continuous
 62
     7
370
    25
100
AcDbCircle
 10
0.0
 20
2.5777559055
 30
0.0
 40
1.771653543307086
100
AcDbArc
 50
167.779958929
 51
200.1139841692
  0
VIEWPORT
  5
29D
330
123
100
AcDbEntity
  8
0
100
AcDbViewport
 10
0.0
 20
0.0
 30
0.0
 40
8.4
 41
6.4
 68
     1
 69
     1
 12
0.0
 22
1.2045119576
 13
0.0
 23
0.0
 14
0.5
 24
0.5
 15
0.5
 25
0.5
 16
0.0
 26
0.0
 36
1.0
 17
0.0
 27
0.0
 37
0.0
 42
50.0
 43
0.0
 44
0.0
 45
4.5251806385
 50
0.0
 51
0.0
 72
   100
 90
   557152
  1

281
     0
 71
     1
 74
     0
110
0.0
120
0.0
130
0.0
111
1.0
121
0.0
131
0.0
112
0.0
122
1.0
132
0.0
 79
     0
146
0.0
  0
ENDBLK
  5
126
330
123
100
AcDbEntity
  8
0
100
AcDbBlockEnd
  0
BLOCK
  5
146
330
144
100
AcDbEntity
  8
0
100
AcDbBlockBegin
  2
*Paper_Space3
 70
     0
 10
0.0
 20
0.0
 30
0.0
  3
*Paper_Space3
  1

  0
LINE
  5
16D
330
144
100
AcDbEntity
  8
0
  6
Continuous
 62
     7
370
    25
100
AcDbLine
 10
0.0
 20
1.1923228346
 30
0.0
 11
0.0
 21
1.3576771654
 31
0.0
  0
LINE
  5
16E
330
144
100
AcDbEntity
  8
0
  6
Continuous
 62
     7
370
    25
100
AcDbLine
 10
1.275
 20
0.0826771654
 30
0.0
 11
1.275
 21
-0.0826771654
 31
0.0
  0
LINE
  5
16F
330
144
100
AcDbEntity
  8
0
  6
Continuous
 62
     7
370
    25
100
AcDbLine
 10
-1.275
 20
0.0826771654
 30
0.0
 11
-1.275
 21
-0.0826771654
 31
0.0
  0
LINE
  5
170
330
144
100
AcDbEntity
  8
0
  6
Continuous
 62
     7
370
    25
100
AcDbLine
 10
0.0
 20
0.0826771654
 30
0.0
 11
0.0
 21
-0.0826771654
 31
0.0
  0
LINE
  5
171
330
144
100
AcDbEntity
  8
0
  6
Continuous
 62
     7
370
    25
100
AcDbLine
 10
0.0
 20
-1.1923228346
 30
0.0
 11
0.0
 21
-1.3576771654
 31
0.0
  0
LINE
  5
172
330
144
100
AcDbEntity
  8
0
  6
Continuous
 62
     7
370
    25
100
AcDbLine
 10
0.0
 20
1.868503937
 30
0.0
 11
0.0
 21
1.968503937
 31
0.0
  0
LINE
  5
173
330
144
100
AcDbEntity
  8
0
  6
Continuous
 62
     7
370
    25
100
AcDbLine
 10
0.0
 20
-1.868503937
 30
0.0
 11
0.0
 21
-1.968503937
 31
0.0
  0
LINE
  5
174
330
144
100
AcDbEntity
  8
0
  6
Continuous
 62
     8
370
    25
100
AcDbLine
 10
-1.7716535433
 20
0.0
 30
0.0
 11
-1.7315112698
 21
0.0
 31
0.0
  0
LINE
  5
175
330
144
100
AcDbEntity
  8
0
  6
Continuous
 62
     8
370
    25
100
AcDbLine
 10
1.7716535433
 20
0.0
 30
0.0
 11
1.7315112698
 21
0.0
 31
0.0
  0
ARC
  5
176
330
144
100
AcDbEntity
  8
0
  6
Continuous
 62
     7
370
    25
100
AcDbCircle
 10
0.0
 20
0.0
 30
0.0
 40
1.771653543307089
100
AcDbArc
 50
0.0
 51
270.0
  0
ARC
  5
177
330
144
100
AcDbEntity
  8
0
  6
Continuous
 62
     7
370
    25
100
AcDbCircle
 10
0.0
 20
0.0
 30
0.0
 40
1.780503937007874
100
AcDbArc
 50
90.0
 51
270.0
  0
ARC
  5
178
330
144
100
AcDbEntity
  8
0
  6
Continuous
 62
     7
370
    25
100
AcDbCircle
 10
0.0
 20
0.0
 30
0.0
 40
1.731511269819679
100
AcDbArc
 50
0.0
 51
180.0
  0
ARC
  5
179
330
144
100
AcDbEntity
  8
0
  6
Continuous
 62
     7
370
    25
100
AcDbCircle
 10
0.0
 20
0.0
 30
0.0
 40
0.0826771653543307
100
AcDbArc
 50
90.0
 51
270.0
  0
ARC
  5
17A
330
144
100
AcDbEntity
  8
0
  6
Continuous
 62
     7
370
    25
100
AcDbCircle
 10
1.275
 20
0.0
 30
0.0
 40
0.0826771653543307
100
AcDbArc
 50
90.0
 51
270.0
  0
ARC
  5
17B
330
144
100
AcDbEntity
  8
0
  6
Continuous
 62
     7
370
    25
100
AcDbCircle
 10
0.0
 20
1.275
 30
0.0
 40
0.082677165354331
100
AcDbArc
 50
90.0
 51
270.0
  0
ARC
  5
17C
330
144
100
AcDbEntity
  8
0
  6
Continuous
 62
     7
370
    25
100
AcDbCircle
 10
-1.275
 20
0.0
 30
0.0
 40
0.0826771653543307
100
AcDbArc
 50
90.0
 51
270.0
  0
ARC
  5
17D
330
144
100
AcDbEntity
  8
0
  6
Continuous
 62
     7
370
    25
100
AcDbCircle
 10
0.0
 20
-1.275
 30
0.0
 40
0.0826771653543308
100
AcDbArc
 50
90.0
 51
270.0
  0
ARC
  5
17E
330
144
100
AcDbEntity
  8
0
  6
Continuous
 62
     7
370
    25
100
AcDbCircle
 10
0.0
 20
0.0
 30
0.0
 40
1.968503937007874
100
AcDbArc
 50
90.0
 51
270.0
  0
ARC
  5
17F
330
144
100
AcDbEntity
  8
0
  6
Continuous
 62
     7
370
    25
100
AcDbCircle
 10
0.0
 20
0.0
 30
0.0
 40
1.868503937007874
100
AcDbArc
 50
90.0
 51
270.0
  0
VIEWPORT
  5
29F
330
144
100
AcDbEntity
  8
0
100
AcDbViewport
 10
0.0
 20
0.0
 30
0.0
 40
8.4
 41
6.4
 68
     1
 69
     1
 12
0.0
 22
1.2045119576
 13
0.0
 23
0.0
 14
0.5
 24
0.5
 15
0.5
 25
0.5
 16
0.0
 26
0.0
 36
1.0
 17
0.0
 27
0.0
 37
0.0
 42
50.0
 43
0.0
 44
0.0
 45
4.5251806385
 50
0.0
 51
0.0
 72
   100
 90
   557152
  1

281
     0
 71
     1
 74
     0
110
0.0
120
0.0
130
0.0
111
1.0
121
0.0
131
0.0
112
0.0
122
1.0
132
0.0
 79
     0
146
0.0
  0
ENDBLK
  5
147
330
144
100
AcDbEntity
  8
0
100
AcDbBlockEnd
  0
BLOCK
  5
182
330
180
100
AcDbEntity
  8
0
100
AcDbBlockBegin
  2
*Paper_Space4
 70
     0
 10
0.0
 20
0.0
 30
0.0
  3
*Paper_Space4
  1

  0
LINE
  5
1BF
330
180
100
AcDbEntity
  8
0
  6
Continuous
 62
     7
370
    25
100
AcDbLine
 10
-1.918503937
 20
-0.1875
 30
0.0
 11
-1.918503937
 21
0.1875
 31
0.0
  0
LINE
  5
1C0
330
180
100
AcDbEntity
  8
0
  6
Continuous
 62
     7
370
    25
100
AcDbLine
 10
-1.918503937
 20
0.1875
 30
0.0
 11
-1.9595539033
 21
0.1875
 31
0.0
  0
LINE
  5
1C1
330
180
100
AcDbEntity
  8
0
  6
Continuous
 62
     7
370
    25
100
AcDbLine
 10
-1.9595539033
 20
-0.1875
 30
0.0
 11
-1.918503937
 21
-0.1875
 31
0.0
  0
LINE
  5
1C2
330
180
100
AcDbEntity
  8
0
  6
Continuous
 62
     7
370
    25
100
AcDbLine
 10
0.0
 20
-1.7627874016
 30
0.0
 11
0.0
 21
-1.8612125984
 31
0.0
  0
LINE
  5
1C3
330
180
100
AcDbEntity
  8
0
  6
Continuous
 62
     7
370
    25
100
AcDbLine
 10
1.5692380317
 20
-0.8567874016
 30
0.0
 11
1.5692380317
 21
-0.9552125984
 31
0.0
  0
LINE
  5
1C4
330
180
100
AcDbEntity
  8
0
  6
Continuous
 62
     7
370
    25
100
AcDbLine
 10
-1.5692380317
 20
-0.8567874016
 30
0.0
 11
-1.5692380317
 21
-0.9552125984
 31
0.0
  0
LINE
  5
1C5
330
180
100
AcDbEntity
  8
0
  6
Continuous
 62
     7
370
    25
100
AcDbLine
 10
1.5692380317
 20
0.8567874016
 30
0.0
 11
1.5692380317
 21
0.9552125984
 31
0.0
  0
LINE
  5
1C6
330
180
100
AcDbEntity
  8
0
  6
Continuous
 62
     7
370
    25
100
AcDbLine
 10
-1.5692380317
 20
0.8567874016
 30
0.0
 11
-1.5692380317
 21
0.9552125984
 31
0.0
  0
LINE
  5
1C7
330
180
100
AcDbEntity
  8
0
  6
Continuous
 62
     7
370
    25
100
AcDbLine
 10
0.0
 20
1.7627874016
 30
0.0
 11
0.0
 21
1.8612125984
 31
0.0
  0
ARC
  5
1C8
330
180
100
AcDbEntity
  8
0
  6
Continuous
 62
     7
370
    25
100
AcDbCircle
 10
0.0
 20
0.0
 30
0.0
 40
1.968503937009703
100
AcDbArc
 50
185.4657090075
 51
174.5342909925
  0
ARC
  5
1C9
330
180
100
AcDbEntity
  8
0
  6
Continuous
 62
     7
370
    25
100
AcDbCircle
 10
0.0
 20
0.0
 30
0.0
 40
0.0826771653543307
100
AcDbArc
 50
90.0
 51
270.0
  0
ARC
  5
1CA
330
180
100
AcDbEntity
  8
0
  6
Continuous
 62
     7
370
    25
100
AcDbCircle
 10
-1.5692380317
 20
0.906
 30
0.0
 40
0.127952755905512
100
AcDbArc
 50
90.0
 51
270.0
  0
ARC
  5
1CB
330
180
100
AcDbEntity
  8
0
  6
Continuous
 62
     7
370
    25
100
AcDbCircle
 10
-1.5692380317
 20
-0.906
 30
0.0
 40
0.1279527559055118
100
AcDbArc
 50
90.0
 51
270.0
  0
ARC
  5
1CC
330
180
100
AcDbEntity
  8
0
  6
Continuous
 62
     7
370
    25
100
AcDbCircle
 10
0.0
 20
-1.812
 30
0.0
 40
0.1279527559055118
100
AcDbArc
 50
90.0
 51
270.0
  0
ARC
  5
1CD
330
180
100
AcDbEntity
  8
0
  6
Continuous
 62
     7
370
    25
100
AcDbCircle
 10
1.5692380317
 20
-0.906
 30
0.0
 40
0.1279527559055118
100
AcDbArc
 50
90.0
 51
270.0
  0
ARC
  5
1CE
330
180
100
AcDbEntity
  8
0
  6
Continuous
 62
     7
370
    25
100
AcDbCircle
 10
1.5692380317
 20
0.906
 30
0.0
 40
0.1279527559055119
100
AcDbArc
 50
90.0
 51
270.0
  0
ARC
  5
1CF
330
180
100
AcDbEntity
  8
0
  6
Continuous
 62
     7
370
    25
100
AcDbCircle
 10
0.0
 20
1.812
 30
0.0
 40
0.1279527559055118
100
AcDbArc
 50
90.0
 51
270.0
  0
ARC
  5
1D0
330
180
100
AcDbEntity
  8
0
  6
Continuous
 62
     7
370
    25
100
AcDbCircle
 10
0.0
 20
-1.812
 30
0.0
 40
0.0629921259842521
100
AcDbArc
 50
90.0
 51
270.0
  0
ARC
  5
1D1
330
180
100
AcDbEntity
  8
0
  6
Continuous
 62
     7
370
    25
100
AcDbCircle
 10
-1.5692380317
 20
-0.906
 30
0.0
 40
0.0629921259842412
100
AcDbArc
 50
90.0
 51
270.0
  0
ARC
  5
1D2
330
180
100
AcDbEntity
  8
0
  6
Continuous
 62
     7
370
    25
100
AcDbCircle
 10
1.5692380317
 20
-0.906
 30
0.0
 40
0.0629921259842451
100
AcDbArc
 50
90.0
 51
270.0
  0
ARC
  5
1D3
330
180
100
AcDbEntity
  8
0
  6
Continuous
 62
     7
370
    25
100
AcDbCircle
 10
-1.5692380317
 20
0.906
 30
0.0
 40
0.0629921259842451
100
AcDbArc
 50
90.0
 51
270.0
  0
ARC
  5
1D4
330
180
100
AcDbEntity
  8
0
  6
Continuous
 62
     7
370
    25
100
AcDbCircle
 10
1.5692380317
 20
0.906
 30
0.0
 40
0.0629921259842472
100
AcDbArc
 50
90.0
 51
270.0
  0
ARC
  5
1D5
330
180
100
AcDbEntity
  8
0
  6
Continuous
 62
     7
370
    25
100
AcDbCircle
 10
0.0
 20
1.812
 30
0.0
 40
0.0629921259842521
100
AcDbArc
 50
90.0
 51
270.0
  0
ARC
  5
1D6
330
180
100
AcDbEntity
  8
0
  6
Continuous
 62
     7
370
    25
100
AcDbCircle
 10
0.0
 20
0.0
 30
0.0
 40
0.0625
100
AcDbArc
 50
90.0
 51
270.0
  0
ARC
  5
1D7
330
180
100
AcDbEntity
  8
0
  6
Continuous
 62
     7
370
    25
100
AcDbCircle
 10
0.0
 20
1.812
 30
0.0
 40
0.0492125984251972
100
AcDbArc
 50
90.0
 51
270.0
  0
ARC
  5
1D8
330
180
100
AcDbEntity
  8
0
  6
Continuous
 62
     7
370
    25
100
AcDbCircle
 10
1.5692380317
 20
0.906
 30
0.0
 40
0.049212598425197
100
AcDbArc
 50
90.0
 51
270.0
  0
ARC
  5
1D9
330
180
100
AcDbEntity
  8
0
  6
Continuous
 62
     7
370
    25
100
AcDbCircle
 10
1.5692380317
 20
-0.906
 30
0.0
 40
0.0492125984251969
100
AcDbArc
 50
90.0
 51
270.0
  0
ARC
  5
1DA
330
180
100
AcDbEntity
  8
0
  6
Continuous
 62
     7
370
    25
100
AcDbCircle
 10
0.0
 20
-1.812
 30
0.0
 40
0.049212598425197
100
AcDbArc
 50
90.0
 51
270.0
  0
ARC
  5
1DB
330
180
100
AcDbEntity
  8
0
  6
Continuous
 62
     7
370
    25
100
AcDbCircle
 10
-1.5692380317
 20
-0.906
 30
0.0
 40
0.0492125984251958
100
AcDbArc
 50
90.0
 51
270.0
  0
ARC
  5
1DC
330
180
100
AcDbEntity
  8
0
  6
Continuous
 62
     7
370
    25
100
AcDbCircle
 10
-1.5692380317
 20
0.906
 30
0.0
 40
0.0492125984251959
100
AcDbArc
 50
90.0
 51
270.0
  0
VIEWPORT
  5
2A1
330
180
100
AcDbEntity
  8
0
100
AcDbViewport
 10
0.0
 20
0.0
 30
0.0
 40
8.4
 41
6.4
 68
     1
 69
     1
 12
0.0
 22
1.2045119576
 13
0.0
 23
0.0
 14
0.5
 24
0.5
 15
0.5
 25
0.5
 16
0.0
 26
0.0
 36
1.0
 17
0.0
 27
0.0
 37
0.0
 42
50.0
 43
0.0
 44
0.0
 45
4.5251806385
 50
0.0
 51
0.0
 72
   100
 90
   557152
  1

281
     0
 71
     1
 74
     0
110
0.0
120
0.0
130
0.0
111
1.0
121
0.0
131
0.0
112
0.0
122
1.0
132
0.0
 79
     0
146
0.0
  0
ENDBLK
  5
183
330
180
100
AcDbEntity
  8
0
100
AcDbBlockEnd
  0
BLOCK
  5
1DF
330
1DD
100
AcDbEntity
  8
0
100
AcDbBlockBegin
  2
*Paper_Space5
 70
     0
 10
0.0
 20
0.0
 30
0.0
  3
*Paper_Space5
  1

  0
LWPOLYLINE
  5
1E8
330
1DD
100
AcDbEntity
  8
0
  6
Continuous
 62
     7
370
    25
100
AcDbPolyline
 90
       21
 70
   128
 43
0.0
 10
-1.7464911221
 20
1.8073113252
 10
-1.7571721758
 20
1.773217482
 10
-1.769308502
 20
1.7224479502
 10
-1.7770460485
 20
1.671392301
 10
-1.7803655785
 20
1.620177467
 10
-1.7792588391
 20
1.5689307762
 10
-1.773728582
 20
1.5177796359
 10
-1.7637885561
 20
1.4668512159
 10
-1.749463474
 20
1.4162721324
 10
-1.73078895
 20
1.3661681329
 10
-1.707811412
 20
1.3166637839
 10
-1.6805879857
 20
1.2678821609
 10
-1.6491863529
 20
1.2199445427
 10
-1.613684583
 20
1.1729701099
 10
-1.5741709389
 20
1.1270756482
 10
-1.5307436579
 20
1.0823752586
 10
-1.4835107069
 20
1.0389800732
 10
-1.4325895146
 20
0.9969979793
 10
-1.378106679
 20
0.956533351
 10
-1.3201976531
 20
0.9176867898
 10
-1.2590064078
 20
0.8805548743
  0
LWPOLYLINE
  5
1E9
330
1DD
100
AcDbEntity
  8
0
  6
Continuous
 62
     7
370
    25
100
AcDbPolyline
 90
       53
 70
   128
 43
0.0
 10
-1.2590064078
 20
0.8805548743
 10
-1.1946850742
 20
0.8452299203
 10
-1.1273935653
 20
0.8117997512
 10
-1.0572991783
 20
0.7803474797
 10
-0.984576179
 20
0.7509513011
 10
-0.9094053681
 20
0.7236842989
 10
-0.8319736323
 20
0.6986142632
 10
-0.7524734789
 20
0.675803522
 10
-0.6711025579
 20
0.6553087865
 10
-0.5880631701
 20
0.6371810097
 10
-0.5035617647
 20
0.6214652602
 10
-0.4178084254
 20
0.6082006099
 10
-0.3310163485
 20
0.5974200367
 10
-0.2434013128
 20
0.5891503428
 10
-0.1551811431
 20
0.583412088
 10
-0.0665751686
 20
0.5802195385
 10
0.0221963222
 20
0.5795806315
 10
0.1109126295
 20
0.5814969553
 10
0.1993531905
 20
0.5859637459
 10
0.2872981281
 20
0.5929698978
 10
0.3745287972
 20
0.6024979929
 10
0.4608283288
 20
0.6145243427
 10
0.5459821685
 20
0.6290190478
 10
0.6297786105
 20
0.6459460722
 10
0.7120093237
 20
0.6652633324
 10
0.7924698695
 20
0.686922803
 10
0.8709602103
 20
0.7108706348
 10
0.9472852069
 20
0.7370472899
 10
1.0212551031
 20
0.7653876891
 10
1.0926859982
 20
0.7958213734
 10
1.1614003038
 20
0.8282726802
 10
1.2272271853
 20
0.8626609302
 10
1.2900029866
 20
0.8989006289
 10
1.3495716372
 20
0.9369016787
 10
1.4057850401
 20
0.976569603
 10
1.4585034399
 20
1.017805781
 10
1.5075957703
 20
1.0605076932
 10
1.5529399801
 20
1.1045691758
 10
1.5944233364
 20
1.1498806851
 10
1.6319427051
 20
1.1963295695
 10
1.6654048071
 20
1.2438003497
 10
1.6947264503
 20
1.292175006
 10
1.7198347366
 20
1.3413332713
 10
1.7406672427
 20
1.3911529305
 10
1.7571721758
 20
1.4415101239
 10
1.769308502
 20
1.4922796557
 10
1.7770460485
 20
1.5433353048
 10
1.7803655785
 20
1.5945501389
 10
1.7792588391
 20
1.6457968297
 10
1.773728582
 20
1.69694797
 10
1.7637885561
 20
1.7478763899
 10
1.749463474
 20
1.7984554734
 10
1.7464911221
 20
1.8073113252
  0
LWPOLYLINE
  5
1EB
330
1DD
100
AcDbEntity
  8
0
  6
Continuous
 62
     7
370
    25
100
AcDbPolyline
 90
       42
 70
   128
 43
0.0
 10
-1.6068710759
 20
1.3587050956
 10
-1.5911876275
 20
1.3271025093
 10
-1.5640859806
 20
1.280187113
 10
-1.5328366589
 20
1.2341393305
 10
-1.4975225299
 20
1.1890812722
 10
-1.4582372404
 20
1.145132424
 10
-1.4150849678
 20
1.1024093303
 10
-1.3681801443
 20
1.0610252851
 10
-1.317647153
 20
1.0210900314
 10
-1.2636199984
 20
0.9827094704
 10
-1.2062419507
 20
0.9459853804
 10
-1.1456651661
 20
0.911015147
 10
-1.0820502835
 20
0.8778915051
 10
-1.0155659981
 20
0.8467022926
 10
-0.9463886142
 20
0.8175302177
 10
-0.8747015778
 20
0.7904526394
 10
-0.8006949901
 20
0.7655413628
 10
-0.7245651032
 20
0.7428624478
 10
-0.6465137999
 20
0.7224760351
 10
-0.5667480583
 20
0.7044361857
 10
-0.4854794027
 20
0.6887907379
 10
-0.402923343
 20
0.6755811808
 10
-0.319298803
 20
0.6648425438
 10
-0.2348275399
 20
0.6566033036
 10
-0.1497335565
 20
0.6508853094
 10
-0.0642425066
 20
0.6477037242
 10
0.0214189029
 20
0.647066985
 10
0.1070235133
 20
0.6489767804
 10
0.1923443166
 20
0.6534280458
 10
0.2771550574
 20
0.6604089774
 10
0.3612308327
 20
0.669901063
 10
0.4443486888
 20
0.6818791312
 10
0.5262882121
 20
0.6963114183
 10
0.6068321137
 20
0.7131596527
 10
0.6857668056
 20
0.7323791556
 10
0.7628829672
 20
0.7539189606
 10
0.8379761003
 20
0.7777219479
 10
0.9108470714
 20
0.8037249962
 10
0.9813026398
 20
0.8318591502
 10
1.0491559701
 20
0.8620498031
 10
1.1142271273
 20
0.8942168947
 10
1.1763435545
 20
0.9282751237
  0
LWPOLYLINE
  5
1EC
330
1DD
100
AcDbEntity
  8
0
  6
Continuous
 62
     7
370
    25
100
AcDbPolyline
 90
       52
 70
   128
 43
0.0
 10
-1.3919424827
 20
-0.4973484867
 10
-1.3251690934
 20
-0.5341295637
 10
-1.2554826949
 20
-0.5690634077
 10
-1.183036473
 20
-0.6020732267
 10
-1.1079896802
 20
-0.6330864578
 10
-1.0305072855
 20
-0.6620349272
 10
-0.9507596122
 20
-0.688855
 10
-0.868921963
 20
-0.7134877198
 10
-0.7851742346
 20
-0.7358789385
 10
-0.6997005229
 20
-0.7559794354
 10
-0.6126887176
 20
-0.7737450252
 10
-0.5243300896
 20
-0.7891366552
 10
-0.4348188702
 20
-0.8021204915
 10
-0.3443518245
 20
-0.8126679925
 10
-0.2531278188
 20
-0.8207559728
 10
-0.1613473833
 20
-0.8263666531
 10
-0.0692122711
 20
-0.8294876999
 10
0.0230749846
 20
-0.8301122524
 10
0.1153115165
 20
-0.8282389379
 10
0.2072945687
 20
-0.8238718743
 10
0.2988219424
 20
-0.8170206612
 10
0.3896924406
 20
-0.8077003592
 10
0.4797063103
 20
-0.7959314563
 10
0.5686656814
 20
-0.781739823
 10
0.6563750019
 20
-0.7651566558
 10
0.7426414677
 20
-0.746218408
 10
0.8272754464
 20
-0.7249667099
 10
0.9100908941
 20
-0.7014482774
 10
0.9909057645
 20
-0.6757148092
 10
1.069542409
 20
-0.647822873
 10
1.1458279672
 20
-0.6178337812
 10
1.2195947468
 20
-0.5858134565
 10
1.2906805924
 20
-0.5518322865
 10
1.358929242
 20
-0.5159649691
 10
1.4241906702
 20
-0.4782903486
 10
1.4863214183
 20
-0.4388912418
 10
1.5451849092
 20
-0.3978542566
 10
1.6006517484
 20
-0.3552696012
 10
1.6526000077
 20
-0.3112308858
 10
1.7009154934
 20
-0.2658349172
 10
1.7454919978
 20
-0.2191814856
 10
1.786231532
 20
-0.1713731453
 10
1.8230445415
 20
-0.1225149893
 10
1.8558501036
 20
-0.0727144187
 10
1.8845761043
 20
-0.0220809057
 10
1.9091593977
 20
0.0292742461
 10
1.9295459444
 20
0.081238147
 10
1.9456909304
 20
0.133696569
 10
1.9575588655
 20
0.1865341972
 10
1.9651236613
 20
0.2396348829
 10
1.9683686888
 20
0.2928818994
 10
1.968503937
 20
0.3062028045
  0
LWPOLYLINE
  5
1ED
330
1DD
100
AcDbEntity
  8
0
  6
Continuous
 62
     7
370
    25
100
AcDbPolyline
 90
       18
 70
   128
 43
0.0
 10
-1.968503937
 20
0.3062028045
 10
-1.9679417253
 20
0.2790450178
 10
-1.9634751663
 20
0.2250265832
 10
-1.9545618788
 20
0.1711919903
 10
-1.941222049
 20
0.1176631595
 10
-1.9234858879
 20
0.064561319
 10
-1.901393563
 20
0.0120067296
 10
-1.8749951073
 20
-0.039881587
 10
-1.8443503061
 20
-0.0909861182
 10
-1.8095285612
 20
-0.1411911262
 10
-1.7706087344
 20
-0.1903829107
 10
-1.7276789684
 20
-0.2384500658
 10
-1.680836487
 20
-0.2852837327
 10
-1.6301873757
 20
-0.3307778461
 10
-1.5758463407
 20
-0.3748293745
 10
-1.5179364493
 20
-0.4173385532
 10
-1.4565888515
 20
-0.4582091108
 10
-1.3919424827
 20
-0.4973484867
  0
LWPOLYLINE
  5
1EF
330
1DD
100
AcDbEntity
  8
0
  6
Continuous
 62
     7
370
    25
100
AcDbPolyline
 90
       52
 70
   128
 43
0.0
 10
-1.3919424827
 20
-0.8035512912
 10
-1.3251690934
 20
-0.8403323681
 10
-1.2554826949
 20
-0.8752662122
 10
-1.183036473
 20
-0.9082760311
 10
-1.1079896802
 20
-0.9392892622
 10
-1.0305072855
 20
-0.9682377317
 10
-0.9507596122
 20
-0.9950578045
 10
-0.868921963
 20
-1.0196905243
 10
-0.7851742346
 20
-1.042081743
 10
-0.6997005229
 20
-1.0621822398
 10
-0.6126887176
 20
-1.0799478296
 10
-0.5243300896
 20
-1.0953394597
 10
-0.4348188702
 20
-1.1083232959
 10
-0.3443518245
 20
-1.118870797
 10
-0.2531278188
 20
-1.1269587772
 10
-0.1613473833
 20
-1.1325694575
 10
-0.0692122711
 20
-1.1356905043
 10
0.0230749846
 20
-1.1363150569
 10
0.1153115165
 20
-1.1344417424
 10
0.2072945687
 20
-1.1300746787
 10
0.2988219424
 20
-1.1232234657
 10
0.3896924406
 20
-1.1139031636
 10
0.4797063103
 20
-1.1021342607
 10
0.5686656814
 20
-1.0879426275
 10
0.6563750019
 20
-1.0713594603
 10
0.7426414677
 20
-1.0524212124
 10
0.8272754464
 20
-1.0311695143
 10
0.9100908941
 20
-1.0076510819
 10
0.9909057645
 20
-0.9819176137
 10
1.069542409
 20
-0.9540256774
 10
1.1458279672
 20
-0.9240365857
 10
1.2195947468
 20
-0.892016261
 10
1.2906805924
 20
-0.858035091
 10
1.358929242
 20
-0.8221677736
 10
1.4241906702
 20
-0.784493153
 10
1.4863214183
 20
-0.7450940462
 10
1.5451849092
 20
-0.704057061
 10
1.6006517484
 20
-0.6614724056
 10
1.6526000077
 20
-0.6174336903
 10
1.7009154934
 20
-0.5720377217
 10
1.7454919978
 20
-0.5253842901
 10
1.786231532
 20
-0.4775759497
 10
1.8230445415
 20
-0.4287177938
 10
1.8558501036
 20
-0.3789172231
 10
1.8845761043
 20
-0.3282837102
 10
1.9091593977
 20
-0.2769285584
 10
1.9295459444
 20
-0.2249646575
 10
1.9456909304
 20
-0.1725062354
 10
1.9575588655
 20
-0.1196686073
 10
1.9651236613
 20
-0.0665679215
 10
1.9683686888
 20
-0.0133209051
 10
1.968503937
 20
0.0
  0
LWPOLYLINE
  5
1F0
330
1DD
100
AcDbEntity
  8
0
  6
Continuous
 62
     7
370
    25
100
AcDbPolyline
 90
       18
 70
   128
 43
0.0
 10
-1.968503937
 20
0.0
 10
-1.9679417253
 20
-0.0271577867
 10
-1.9634751663
 20
-0.0811762213
 10
-1.9545618788
 20
-0.1350108142
 10
-1.941222049
 20
-0.1885396449
 10
-1.9234858879
 20
-0.2416414855
 10
-1.901393563
 20
-0.2941960749
 10
-1.8749951073
 20
-0.3460843915
 10
-1.8443503061
 20
-0.3971889226
 10
-1.8095285612
 20
-0.4473939307
 10
-1.7706087344
 20
-0.4965857151
 10
-1.7276789684
 20
-0.5446528702
 10
-1.680836487
 20
-0.5914865372
 10
-1.6301873757
 20
-0.6369806506
 10
-1.5758463407
 20
-0.6810321789
 10
-1.5179364493
 20
-0.7235413577
 10
-1.4565888515
 20
-0.7644119153
 10
-1.3919424827
 20
-0.8035512912
  0
LWPOLYLINE
  5
1F1
330
1DD
100
AcDbEntity
  8
0
  6
Continuous
 62
     7
370
    25
100
AcDbPolyline
 90
       64
 70
   128
 43
0.0
 10
-1.2243633606
 20
3.1178556276
 10
-1.2838708566
 20
3.0817454406
 10
-1.3401864473
 20
3.0439677883
 10
-1.3931701233
 20
3.004616592
 10
-1.442690159
 20
2.963789685
 10
-1.4886234395
 20
2.9215885693
 10
-1.5308557677
 20
2.8781181637
 10
-1.5692821472
 20
2.8334865423
 10
-1.603807044
 20
2.7878046664
 10
-1.6343446238
 20
2.7411861084
 10
-1.6608189654
 20
2.6937467693
 10
-1.6831642493
 20
2.6456045908
 10
-1.7013249218
 20
2.596879262
 10
-1.7152558323
 20
2.5476919217
 10
-1.7249223467
 20
2.4981648574
 10
-1.7303004323
 20
2.4484212011
 10
-1.7313767184
 20
2.3985846234
 10
-1.7281485291
 20
2.348779026
 10
-1.7206238904
 20
2.2991282333
 10
-1.7088215095
 20
2.2497556851
 10
-1.6927707292
 20
2.2007841293
 10
-1.672511454
 20
2.1523353169
 10
-1.6480940519
 20
2.1045296992
 10
-1.6195792283
 20
2.0574861287
 10
-1.5870378755
 20
2.011321563
 10
-1.5505508966
 20
1.9661507745
 10
-1.5102090037
 20
1.9220860648
 10
-1.4661124934
 20
1.8792369859
 10
-1.4183709964
 20
1.8377100672
 10
-1.3671032056
 20
1.7976085513
 10
-1.3124365808
 20
1.7590321368
 10
-1.2545070319
 20
1.7220767307
 10
-1.1934585809
 20
1.6868342101
 10
-1.1294430038
 20
1.6533921934
 10
-1.0626194534
 20
1.6218338226
 10
-0.9931540636
 20
1.592237557
 10
-0.9212195364
 20
1.5646769774
 10
-0.8469947122
 20
1.5392206038
 10
-0.7706641257
 20
1.5159317248
 10
-0.6924175468
 20
1.4948682402
 10
-0.6124495088
 20
1.4760825171
 10
-0.5309588248
 20
1.4596212599
 10
-0.4481480934
 20
1.4455253937
 10
-0.3642231953
 20
1.4338299631
 10
-0.279392781
 20
1.4245640448
 10
-0.1938677522
 20
1.4177506753
 10
-0.1078607376
 20
1.4134067939
 10
-0.0215855642
 20
1.4115431999
 10
0.0647432743
 20
1.4121645266
 10
0.1509111508
 20
1.4152692293
 10
0.2367038384
 20
1.4208495893
 10
0.321908043
 20
1.4288917328
 10
0.4063119335
 20
1.4393756658
 10
0.4897056684
 20
1.4522753237
 10
0.571881918
 20
1.4675586357
 10
0.6526363789
 20
1.4851876053
 10
0.731768283
 20
1.505118404
 10
0.8090808959
 20
1.5273014807
 10
0.8843820062
 20
1.5516816848
 10
0.9574844034
 20
1.5781984033
 10
1.0282063436
 20
1.6067857113
 10
1.0963720008
 20
1.6373725365
 10
1.1618119044
 20
1.669882835
 10
1.2243633606
 20
1.7042357812
  0
LWPOLYLINE
  5
1F2
330
1DD
100
AcDbEntity
  8
0
  6
Continuous
 62
     7
370
    25
100
AcDbPolyline
 90
       64
 70
   128
 43
0.0
 10
1.2243633606
 20
1.7042357812
 10
1.2838708566
 20
1.7403459682
 10
1.3401864473
 20
1.7781236205
 10
1.3931701233
 20
1.8174748168
 10
1.442690159
 20
1.8583017238
 10
1.4886234395
 20
1.9005028394
 10
1.5308557677
 20
1.9439732451
 10
1.5692821472
 20
1.9886048665
 10
1.603807044
 20
2.0342867424
 10
1.6343446238
 20
2.0809053004
 10
1.6608189654
 20
2.1283446395
 10
1.6831642493
 20
2.1764868179
 10
1.7013249218
 20
2.2252121467
 10
1.7152558323
 20
2.2743994871
 10
1.7249223467
 20
2.3239265514
 10
1.7303004323
 20
2.3736702077
 10
1.7313767184
 20
2.4235067854
 10
1.7281485291
 20
2.4733123828
 10
1.7206238904
 20
2.5229631755
 10
1.7088215095
 20
2.5723357237
 10
1.6927707292
 20
2.6213072795
 10
1.672511454
 20
2.6697560919
 10
1.6480940519
 20
2.7175617095
 10
1.6195792283
 20
2.7646052801
 10
1.5870378755
 20
2.8107698458
 10
1.5505508966
 20
2.8559406343
 10
1.5102090037
 20
2.900005344
 10
1.4661124934
 20
2.9428544229
 10
1.4183709964
 20
2.9843813415
 10
1.3671032056
 20
3.0244828575
 10
1.3124365808
 20
3.063059272
 10
1.2545070319
 20
3.100014678
 10
1.1934585809
 20
3.1352571987
 10
1.1294430038
 20
3.1686992154
 10
1.0626194534
 20
3.2002575861
 10
0.9931540636
 20
3.2298538518
 10
0.9212195364
 20
3.2574144314
 10
0.8469947122
 20
3.2828708049
 10
0.7706641257
 20
3.3061596839
 10
0.6924175468
 20
3.3272231685
 10
0.6124495088
 20
3.3460088916
 10
0.5309588248
 20
3.3624701489
 10
0.4481480934
 20
3.3765660151
 10
0.3642231953
 20
3.3882614457
 10
0.279392781
 20
3.397527364
 10
0.1938677522
 20
3.4043407334
 10
0.1078607376
 20
3.4086846149
 10
0.0215855642
 20
3.4105482089
 10
-0.0647432743
 20
3.4099268822
 10
-0.1509111508
 20
3.4068221794
 10
-0.2367038384
 20
3.4012418195
 10
-0.321908043
 20
3.393199676
 10
-0.4063119335
 20
3.382715743
 10
-0.4897056684
 20
3.3698160851
 10
-0.571881918
 20
3.354532773
 10
-0.6526363789
 20
3.3369038034
 10
-0.731768283
 20
3.3169730047
 10
-0.8090808959
 20
3.294789928
 10
-0.8843820062
 20
3.2704097239
 10
-0.9574844034
 20
3.2438930055
 10
-1.0282063436
 20
3.2153056974
 10
-1.0963720008
 20
3.1847188723
 10
-1.1618119044
 20
3.1522085738
 10
-1.2243633606
 20
3.1178556276
  0
LWPOLYLINE
  5
1F3
330
1DD
100
AcDbEntity
  8
0
  6
Continuous
 62
     7
370
    25
100
AcDbPolyline
 90
       14
 70
   128
 43
0.0
 10
0.0584615843
 20
2.4447948586
 10
0.042772024
 20
2.4518908708
 10
0.0245967092
 20
2.4566131104
 10
0.004991923
 20
2.4586871379
 10
-0.0149029756
 20
2.4579924186
 10
-0.0339317674
 20
2.4545693268
 10
-0.0509885682
 20
2.4486168003
 10
-0.0650820988
 20
2.4404807783
 10
-0.0753932944
 20
2.4306340967
 10
-0.0813229057
 20
2.4196490091
 10
-0.0825263253
 20
2.4081639286
 10
-0.0789336149
 20
2.3968463264
 10
-0.0707535698
 20
2.3863539405
 10
-0.0584615843
 20
2.3772965502
  0
LWPOLYLINE
  5
1F4
330
1DD
100
AcDbEntity
  8
0
  6
Continuous
 62
     7
370
    25
100
AcDbPolyline
 90
       14
 70
   128
 43
0.0
 10
-0.0584615843
 20
2.3772965502
 10
-0.042772024
 20
2.370200538
 10
-0.0245967092
 20
2.3654782984
 10
-0.004991923
 20
2.3634042708
 10
0.0149029756
 20
2.3640989902
 10
0.0339317674
 20
2.367522082
 10
0.0509885682
 20
2.3734746085
 10
0.0650820988
 20
2.3816106305
 10
0.0753932944
 20
2.391457312
 10
0.0813229057
 20
2.4024423997
 10
0.0825263253
 20
2.4139274802
 10
0.0789336149
 20
2.4252450824
 10
0.0707535698
 20
2.4357374683
 10
0.0584615843
 20
2.4447948586
  0
LWPOLYLINE
  5
1F5
330
1DD
100
AcDbEntity
  8
0
  6
Continuous
 62
     7
370
    25
100
AcDbPolyline
 90
       14
 70
   128
 43
0.0
 10
0.9600227303
 20
1.9243346873
 10
0.94433317
 20
1.9314306995
 10
0.9261578552
 20
1.9361529391
 10
0.906553069
 20
1.9382269666
 10
0.8866581704
 20
1.9375322473
 10
0.8676293786
 20
1.9341091555
 10
0.8505725778
 20
1.928156629
 10
0.8364790472
 20
1.920020607
 10
0.8261678517
 20
1.9101739255
 10
0.8202382403
 20
1.8991888378
 10
0.8190348207
 20
1.8877037573
 10
0.8226275311
 20
1.8763861551
 10
0.8308075763
 20
1.8658937692
 10
0.8430995617
 20
1.8568363789
  0
LWPOLYLINE
  5
1F6
330
1DD
100
AcDbEntity
  8
0
  6
Continuous
 62
     7
370
    25
100
AcDbPolyline
 90
       14
 70
   128
 43
0.0
 10
0.8430995617
 20
1.8568363789
 10
0.858789122
 20
1.8497403667
 10
0.8769644368
 20
1.8450181271
 10
0.896569223
 20
1.8429440996
 10
0.9164641216
 20
1.8436388189
 10
0.9354929134
 20
1.8470619107
 10
0.9525497142
 20
1.8530144372
 10
0.9666432448
 20
1.8611504592
 10
0.9769544404
 20
1.8709971407
 10
0.9828840517
 20
1.8819822284
 10
0.9840874714
 20
1.8934673089
 10
0.980494761
 20
1.9047849111
 10
0.9723147158
 20
1.915277297
 10
0.9600227303
 20
1.9243346873
  0
LWPOLYLINE
  5
1F7
330
1DD
100
AcDbEntity
  8
0
  6
Continuous
 62
     7
370
    25
100
AcDbPolyline
 90
       14
 70
   128
 43
0.0
 10
0.9600227303
 20
2.9652550299
 10
0.94433317
 20
2.9723510421
 10
0.9261578552
 20
2.9770732817
 10
0.906553069
 20
2.9791473092
 10
0.8866581704
 20
2.9784525898
 10
0.8676293786
 20
2.9750294981
 10
0.8505725778
 20
2.9690769716
 10
0.8364790472
 20
2.9609409496
 10
0.8261678517
 20
2.951094268
 10
0.8202382403
 20
2.9401091803
 10
0.8190348207
 20
2.9286240999
 10
0.8226275311
 20
2.9173064977
 10
0.8308075763
 20
2.9068141118
 10
0.8430995617
 20
2.8977567214
  0
LWPOLYLINE
  5
1F8
330
1DD
100
AcDbEntity
  8
0
  6
Continuous
 62
     7
370
    25
100
AcDbPolyline
 90
       14
 70
   128
 43
0.0
 10
0.8430995617
 20
2.8977567214
 10
0.858789122
 20
2.8906607093
 10
0.8769644368
 20
2.8859384697
 10
0.896569223
 20
2.8838644421
 10
0.9164641216
 20
2.8845591615
 10
0.9354929134
 20
2.8879822533
 10
0.9525497142
 20
2.8939347798
 10
0.9666432448
 20
2.9020708018
 10
0.9769544404
 20
2.9119174833
 10
0.9828840517
 20
2.922902571
 10
0.9840874714
 20
2.9343876515
 10
0.980494761
 20
2.9457052536
 10
0.9723147158
 20
2.9561976396
 10
0.9600227303
 20
2.9652550299
  0
LWPOLYLINE
  5
1F9
330
1DD
100
AcDbEntity
  8
0
  6
Continuous
 62
     7
370
    25
100
AcDbPolyline
 90
       14
 70
   128
 43
0.0
 10
-0.8430995617
 20
2.9652550299
 10
-0.858789122
 20
2.9723510421
 10
-0.8769644368
 20
2.9770732817
 10
-0.896569223
 20
2.9791473092
 10
-0.9164641216
 20
2.9784525898
 10
-0.9354929134
 20
2.9750294981
 10
-0.9525497142
 20
2.9690769716
 10
-0.9666432448
 20
2.9609409496
 10
-0.9769544404
 20
2.951094268
 10
-0.9828840517
 20
2.9401091803
 10
-0.9840874714
 20
2.9286240999
 10
-0.980494761
 20
2.9173064977
 10
-0.9723147158
 20
2.9068141118
 10
-0.9600227303
 20
2.8977567214
  0
LWPOLYLINE
  5
1FA
330
1DD
100
AcDbEntity
  8
0
  6
Continuous
 62
     7
370
    25
100
AcDbPolyline
 90
       14
 70
   128
 43
0.0
 10
-0.9600227303
 20
2.8977567214
 10
-0.94433317
 20
2.8906607093
 10
-0.9261578552
 20
2.8859384697
 10
-0.906553069
 20
2.8838644421
 10
-0.8866581704
 20
2.8845591615
 10
-0.8676293786
 20
2.8879822533
 10
-0.8505725778
 20
2.8939347798
 10
-0.8364790472
 20
2.9020708018
 10
-0.8261678517
 20
2.9119174833
 10
-0.8202382403
 20
2.922902571
 10
-0.8190348207
 20
2.9343876515
 10
-0.8226275311
 20
2.9457052536
 10
-0.8308075763
 20
2.9561976396
 10
-0.8430995617
 20
2.9652550299
  0
LWPOLYLINE
  5
1FB
330
1DD
100
AcDbEntity
  8
0
  6
Continuous
 62
     7
370
    25
100
AcDbPolyline
 90
       14
 70
   128
 43
0.0
 10
-0.8430995617
 20
1.9243346873
 10
-0.858789122
 20
1.9314306995
 10
-0.8769644368
 20
1.9361529391
 10
-0.896569223
 20
1.9382269666
 10
-0.9164641216
 20
1.9375322473
 10
-0.9354929134
 20
1.9341091555
 10
-0.9525497142
 20
1.928156629
 10
-0.9666432448
 20
1.920020607
 10
-0.9769544404
 20
1.9101739255
 10
-0.9828840517
 20
1.8991888378
 10
-0.9840874714
 20
1.8877037573
 10
-0.980494761
 20
1.8763861551
 10
-0.9723147158
 20
1.8658937692
 10
-0.9600227303
 20
1.8568363789
  0
LWPOLYLINE
  5
1FC
330
1DD
100
AcDbEntity
  8
0
  6
Continuous
 62
     7
370
    25
100
AcDbPolyline
 90
       14
 70
   128
 43
0.0
 10
-0.9600227303
 20
1.8568363789
 10
-0.94433317
 20
1.8497403667
 10
-0.9261578552
 20
1.8450181271
 10
-0.906553069
 20
1.8429440996
 10
-0.8866581704
 20
1.8436388189
 10
-0.8676293786
 20
1.8470619107
 10
-0.8505725778
 20
1.8530144372
 10
-0.8364790472
 20
1.8611504592
 10
-0.8261678517
 20
1.8709971407
 10
-0.8202382403
 20
1.8819822284
 10
-0.8190348207
 20
1.8934673089
 10
-0.8226275311
 20
1.9047849111
 10
-0.8308075763
 20
1.915277297
 10
-0.8430995617
 20
1.9243346873
  0
LWPOLYLINE
  5
1FD
330
1DD
100
AcDbEntity
  8
0
  6
Continuous
 62
     7
370
    25
100
AcDbPolyline
 90
       61
 70
   128
 43
0.0
 10
1.7697752738
 20
2.0232845901
 10
1.8051341145
 20
1.9789811592
 10
1.839952969
 20
1.9296382358
 10
1.8707272076
 20
1.8794073898
 10
1.8973891818
 20
1.8283990395
 10
1.9198802828
 20
1.7767253125
 10
1.9381510702
 20
1.7244997987
 10
1.952161381
 20
1.6718373011
 10
1.9618804173
 20
1.6188535835
 10
1.9672868148
 20
1.5656651154
 10
1.9683686888
 20
1.5123888167
 10
1.9651236613
 20
1.4591418002
 10
1.9575588655
 20
1.4060411145
 10
1.9456909304
 20
1.3532034863
 10
1.9295459444
 20
1.3007450643
 10
1.9091593977
 20
1.2487811634
 10
1.8845761043
 20
1.1974260116
 10
1.8558501036
 20
1.1467924986
 10
1.8230445415
 20
1.0969919279
 10
1.786231532
 20
1.048133772
 10
1.7454919978
 20
1.0003254317
 10
1.7009154934
 20
0.953672
 10
1.6526000077
 20
0.9082760315
 10
1.6006517484
 20
0.8642373161
 10
1.5451849092
 20
0.8216526607
 10
1.4863214183
 20
0.7806156755
 10
1.4241906702
 20
0.7412165687
 10
1.358929242
 20
0.7035419481
 10
1.2906805924
 20
0.6676746308
 10
1.2195947468
 20
0.6336934607
 10
1.1458279672
 20
0.6016731361
 10
1.069542409
 20
0.5716840443
 10
0.9909057645
 20
0.5437921081
 10
0.9100908941
 20
0.5180586399
 10
0.8272754464
 20
0.4945402074
 10
0.7426414677
 20
0.4732885093
 10
0.6563750019
 20
0.4543502615
 10
0.5686656814
 20
0.4377670942
 10
0.4797063103
 20
0.423575461
 10
0.3896924406
 20
0.4118065581
 10
0.2988219424
 20
0.4024862561
 10
0.2072945687
 20
0.395635043
 10
0.1153115165
 20
0.3912679793
 10
0.0230749846
 20
0.3893946648
 10
-0.0692122711
 20
0.3900192174
 10
-0.1613473833
 20
0.3931402642
 10
-0.2531278188
 20
0.3987509445
 10
-0.3443518245
 20
0.4068389247
 10
-0.4348188702
 20
0.4173864258
 10
-0.5243300896
 20
0.430370262
 10
-0.6126887176
 20
0.4457618921
 10
-0.6997005229
 20
0.4635274819
 10
-0.7851742346
 20
0.4836279788
 10
-0.868921963
 20
0.5060191975
 10
-0.9507596122
 20
0.5306519173
 10
-1.0305072855
 20
0.5574719901
 10
-1.1079896802
 20
0.5864204595
 10
-1.183036473
 20
0.6174336906
 10
-1.2554826949
 20
0.6504435096
 10
-1.3251690934
 20
0.6853773536
 10
-1.3919424827
 20
0.7221584306
  0
LWPOLYLINE
  5
1FF
330
1DD
100
AcDbEntity
  8
0
  6
Continuous
 62
     7
370
    25
100
AcDbPolyline
 90
       57
 70
   128
 43
0.0
 10
-1.3212318045
 20
0.8446329174
 10
-1.2558557319
 20
0.8086735073
 10
-1.18754655
 20
0.7745794754
 10
-1.116463798
 20
0.7424304499
 10
-1.0427734932
 20
0.7123015163
 10
-0.9666477426
 20
0.6842630421
 10
-0.8882643413
 20
0.6583805126
 10
-0.8078063575
 20
0.6347143775
 10
-0.7254617046
 20
0.6133199102
 10
-0.6414227022
 20
0.5942470785
 10
-0.5558856274
 20
0.5775404278
 10
-0.4690502559
 20
0.5632389773
 10
-0.3811193959
 20
0.5513761288
 10
-0.2922984138
 20
0.5419795884
 10
-0.2027947553
 20
0.5350713021
 10
-0.1128174601
 20
0.5306674047
 10
-0.0225766746
 20
0.5287781817
 10
0.0677168398
 20
0.5294080453
 10
0.1578521983
 20
0.5325555246
 10
0.2476188858
 20
0.5382132683
 10
0.3368072478
 20
0.5463680627
 10
0.4252089809
 20
0.5570008619
 10
0.5126176188
 20
0.5700868323
 10
0.5988290144
 20
0.5855954111
 10
0.6836418172
 20
0.6034903774
 10
0.7668579428
 20
0.6237299366
 10
0.8482830361
 20
0.6462668182
 10
0.9277269251
 20
0.6710483864
 10
1.0050040649
 20
0.6980167627
 10
1.0799339711
 20
0.727108961
 10
1.1523416415
 20
0.7582570354
 10
1.2220579646
 20
0.7913882379
 10
1.2889201147
 20
0.8264251892
 10
1.3527719322
 20
0.8632860588
 10
1.4134642881
 20
0.9018847565
 10
1.4708554327
 20
0.9421311331
 10
1.5248113262
 20
0.9839311915
 10
1.5752059523
 20
1.0271873057
 10
1.6219216119
 20
1.0717984489
 10
1.6648491983
 20
1.1176604298
 10
1.7038884524
 20
1.1646661356
 10
1.738948196
 20
1.2127057824
 10
1.7699465455
 20
1.2616671712
 10
1.7968111029
 20
1.3114359506
 10
1.8194791247
 20
1.3618958832
 10
1.8378976687
 20
1.4129291174
 10
1.8520237175
 20
1.4644164629
 10
1.8618242791
 20
1.5162376685
 10
1.8672764638
 20
1.5682717034
 10
1.8683675378
 20
1.6203970398
 10
1.8650949529
 20
1.6724919364
 10
1.8574663523
 20
1.7244347232
 10
1.8454995529
 20
1.7761040855
 10
1.8292225039
 20
1.827379347
 10
1.8086732209
 20
1.878140752
 10
1.7838996978
 20
1.9282697449
 10
1.7657361153
 20
1.9601630861
  0
LWPOLYLINE
  5
200
330
1DD
100
AcDbEntity
  8
0
  6
Continuous
 62
     7
370
    25
100
AcDbPolyline
 90
       52
 70
   128
 43
0.0
 10
1.968503937
 20
0.3062028045
 10
1.9683686888
 20
0.2928818994
 10
1.9651236613
 20
0.2396348829
 10
1.9575588655
 20
0.1865341972
 10
1.9456909304
 20
0.133696569
 10
1.9295459444
 20
0.081238147
 10
1.9091593977
 20
0.0292742461
 10
1.8845761043
 20
-0.0220809057
 10
1.8558501036
 20
-0.0727144187
 10
1.8230445415
 20
-0.1225149893
 10
1.786231532
 20
-0.1713731453
 10
1.7454919978
 20
-0.2191814856
 10
1.7009154934
 20
-0.2658349172
 10
1.6526000077
 20
-0.3112308858
 10
1.6006517484
 20
-0.3552696012
 10
1.5451849092
 20
-0.3978542566
 10
1.4863214183
 20
-0.4388912418
 10
1.4241906702
 20
-0.4782903486
 10
1.358929242
 20
-0.5159649691
 10
1.2906805924
 20
-0.5518322865
 10
1.2195947468
 20
-0.5858134565
 10
1.1458279672
 20
-0.6178337812
 10
1.069542409
 20
-0.647822873
 10
0.9909057645
 20
-0.6757148092
 10
0.9100908941
 20
-0.7014482774
 10
0.8272754464
 20
-0.7249667099
 10
0.7426414677
 20
-0.746218408
 10
0.6563750019
 20
-0.7651566558
 10
0.5686656814
 20
-0.781739823
 10
0.4797063103
 20
-0.7959314563
 10
0.3896924406
 20
-0.8077003592
 10
0.2988219424
 20
-0.8170206612
 10
0.2072945687
 20
-0.8238718743
 10
0.1153115165
 20
-0.8282389379
 10
0.0230749846
 20
-0.8301122524
 10
-0.0692122711
 20
-0.8294876999
 10
-0.1613473833
 20
-0.8263666531
 10
-0.2531278188
 20
-0.8207559728
 10
-0.3443518245
 20
-0.8126679925
 10
-0.4348188702
 20
-0.8021204915
 10
-0.5243300896
 20
-0.7891366552
 10
-0.6126887176
 20
-0.7737450252
 10
-0.6997005229
 20
-0.7559794354
 10
-0.7851742346
 20
-0.7358789385
 10
-0.868921963
 20
-0.7134877198
 10
-0.9507596122
 20
-0.688855
 10
-1.0305072855
 20
-0.6620349272
 10
-1.1079896802
 20
-0.6330864578
 10
-1.183036473
 20
-0.6020732267
 10
-1.2554826949
 20
-0.5690634077
 10
-1.3251690934
 20
-0.5341295637
 10
-1.3919424827
 20
-0.4973484867
  0
LWPOLYLINE
  5
202
330
1DD
100
AcDbEntity
  8
0
  6
Continuous
 62
     7
370
    25
100
AcDbPolyline
 90
       25
 70
   128
 43
0.0
 10
-1.7657361153
 20
1.9601630861
 10
-1.7699465455
 20
1.9530604346
 10
-1.7968111029
 20
1.9032916553
 10
-1.8194791247
 20
1.8528317227
 10
-1.8378976687
 20
1.8017984884
 10
-1.8520237175
 20
1.750311143
 10
-1.8618242791
 20
1.6984899373
 10
-1.8672764638
 20
1.6464559024
 10
-1.8683675378
 20
1.5943305661
 10
-1.8650949529
 20
1.5422356695
 10
-1.8574663523
 20
1.4902928826
 10
-1.8454995529
 20
1.4386235204
 10
-1.8292225039
 20
1.3873482588
 10
-1.8086732209
 20
1.3365868538
 10
-1.7838996978
 20
1.2864578609
 10
-1.7549597943
 20
1.2370783587
 10
-1.7219211009
 20
1.1885636753
 10
-1.684860781
 20
1.141027119
 10
-1.6438653906
 20
1.0945797136
 10
-1.5990306765
 20
1.0493299392
 10
-1.5504613521
 20
1.0053834788
 10
-1.4982708534
 20
0.9628429713
 10
-1.4425810737
 20
0.9218077721
 10
-1.3835220791
 20
0.8823737208
 10
-1.3212318045
 20
0.8446329174
  0
LWPOLYLINE
  5
203
330
1DD
100
AcDbEntity
  8
0
  6
Continuous
 62
     7
370
    25
100
AcDbPolyline
 90
       21
 70
   128
 43
0.0
 10
-1.2590064078
 20
0.8805548743
 10
-1.3201976531
 20
0.9176867898
 10
-1.378106679
 20
0.956533351
 10
-1.4325895146
 20
0.9969979793
 10
-1.4835107069
 20
1.0389800732
 10
-1.5307436579
 20
1.0823752586
 10
-1.5741709389
 20
1.1270756482
 10
-1.613684583
 20
1.1729701099
 10
-1.6491863529
 20
1.2199445427
 10
-1.6805879857
 20
1.2678821609
 10
-1.707811412
 20
1.3166637839
 10
-1.73078895
 20
1.3661681329
 10
-1.749463474
 20
1.4162721324
 10
-1.7637885561
 20
1.4668512159
 10
-1.773728582
 20
1.5177796359
 10
-1.7792588391
 20
1.5689307762
 10
-1.7803655785
 20
1.620177467
 10
-1.7770460485
 20
1.671392301
 10
-1.769308502
 20
1.7224479502
 10
-1.7571721758
 20
1.773217482
 10
-1.7464911221
 20
1.8073113252
  0
LWPOLYLINE
  5
204
330
1DD
100
AcDbEntity
  8
0
  6
Continuous
 62
     7
370
    25
100
AcDbPolyline
 90
       53
 70
   128
 43
0.0
 10
1.7464911221
 20
1.8073113252
 10
1.749463474
 20
1.7984554734
 10
1.7637885561
 20
1.7478763899
 10
1.773728582
 20
1.69694797
 10
1.7792588391
 20
1.6457968297
 10
1.7803655785
 20
1.5945501389
 10
1.7770460485
 20
1.5433353048
 10
1.769308502
 20
1.4922796557
 10
1.7571721758
 20
1.4415101239
 10
1.7406672427
 20
1.3911529305
 10
1.7198347366
 20
1.3413332713
 10
1.6947264503
 20
1.292175006
 10
1.6654048071
 20
1.2438003497
 10
1.6319427051
 20
1.1963295695
 10
1.5944233364
 20
1.1498806851
 10
1.5529399801
 20
1.1045691758
 10
1.5075957703
 20
1.0605076932
 10
1.4585034399
 20
1.017805781
 10
1.4057850401
 20
0.976569603
 10
1.3495716372
 20
0.9369016787
 10
1.2900029866
 20
0.8989006289
 10
1.2272271853
 20
0.8626609302
 10
1.1614003038
 20
0.8282726802
 10
1.0926859982
 20
0.7958213734
 10
1.0212551031
 20
0.7653876891
 10
0.9472852069
 20
0.7370472899
 10
0.8709602103
 20
0.7108706348
 10
0.7924698695
 20
0.686922803
 10
0.7120093237
 20
0.6652633324
 10
0.6297786105
 20
0.6459460722
 10
0.5459821685
 20
0.6290190478
 10
0.4608283288
 20
0.6145243427
 10
0.3745287972
 20
0.6024979929
 10
0.2872981281
 20
0.5929698978
 10
0.1993531905
 20
0.5859637459
 10
0.1109126295
 20
0.5814969553
 10
0.0221963222
 20
0.5795806315
 10
-0.0665751686
 20
0.5802195385
 10
-0.1551811431
 20
0.583412088
 10
-0.2434013128
 20
0.5891503428
 10
-0.3310163485
 20
0.5974200367
 10
-0.4178084254
 20
0.6082006099
 10
-0.5035617647
 20
0.6214652602
 10
-0.5880631701
 20
0.6371810097
 10
-0.6711025579
 20
0.6553087865
 10
-0.7524734789
 20
0.675803522
 10
-0.8319736323
 20
0.6986142632
 10
-0.9094053681
 20
0.7236842989
 10
-0.984576179
 20
0.7509513011
 10
-1.0572991783
 20
0.7803474797
 10
-1.1273935653
 20
0.8117997512
 10
-1.1946850742
 20
0.8452299203
 10
-1.2590064078
 20
0.8805548743
  0
LWPOLYLINE
  5
205
330
1DD
100
AcDbEntity
  8
0
  6
Continuous
 62
     7
370
    25
100
AcDbPolyline
 90
       28
 70
   128
 43
0.0
 10
-1.3919424827
 20
0.7221584306
 10
-1.4556560802
 20
0.7607058877
 10
-1.5161698298
 20
0.8009349892
 10
-1.573350709
 20
0.8427573029
 10
-1.6270730219
 20
0.8860808943
 10
-1.6772186752
 20
0.9308105286
 10
-1.7236774379
 20
0.9768478805
 10
-1.7663471834
 20
1.0240917498
 10
-1.8051341145
 20
1.0724382842
 10
-1.839952969
 20
1.1217812077
 10
-1.8707272076
 20
1.1720120537
 10
-1.8973891818
 20
1.2230204039
 10
-1.9198802828
 20
1.274694131
 10
-1.9381510702
 20
1.3269196448
 10
-1.952161381
 20
1.3795821423
 10
-1.9618804173
 20
1.43256586
 10
-1.9672868148
 20
1.4857543281
 10
-1.9683686888
 20
1.5390306268
 10
-1.9651236613
 20
1.5922776433
 10
-1.9575588655
 20
1.645378329
 10
-1.9456909304
 20
1.6982159572
 10
-1.9295459444
 20
1.7506743792
 10
-1.9091593977
 20
1.8026382801
 10
-1.8845761043
 20
1.8539934319
 10
-1.8558501036
 20
1.9046269449
 10
-1.8230445415
 20
1.9544275155
 10
-1.786231532
 20
2.0032856715
 10
-1.7697752738
 20
2.0232845901
  0
LWPOLYLINE
  5
206
330
1DD
100
AcDbEntity
  8
0
  6
Continuous
 62
     7
370
    25
100
AcDbPolyline
 90
       18
 70
   128
 43
0.0
 10
-1.3919424827
 20
-0.4973484867
 10
-1.4556560802
 20
-0.4588010296
 10
-1.5161698298
 20
-0.4185719281
 10
-1.573350709
 20
-0.3767496144
 10
-1.6270730219
 20
-0.333426023
 10
-1.6772186752
 20
-0.2886963887
 10
-1.7236774379
 20
-0.2426590368
 10
-1.7663471834
 20
-0.1954151675
 10
-1.8051341145
 20
-0.147068633
 10
-1.839952969
 20
-0.0977257096
 10
-1.8707272076
 20
-0.0474948636
 10
-1.8973891818
 20
0.0035134867
 10
-1.9198802828
 20
0.0551872137
 10
-1.9381510702
 20
0.1074127275
 10
-1.952161381
 20
0.1600752251
 10
-1.9618804173
 20
0.2130589427
 10
-1.9672868148
 20
0.2662474108
 10
-1.968503937
 20
0.3062028045
  0
LINE
  5
20D
330
1DD
100
AcDbEntity
  8
0
  6
Continuous
 62
     7
370
    25
100
AcDbLine
 10
1.968503937
 20
0.0
 30
0.0
 11
1.968503937
 21
1.5257097217
 31
0.0
  0
LINE
  5
20E
330
1DD
100
AcDbEntity
  8
0
  6
Continuous
 62
     7
370
    25
100
AcDbLine
 10
-1.968503937
 20
1.5257097217
 30
0.0
 11
-1.968503937
 21
0.0
 31
0.0
  0
LINE
  5
20F
330
1DD
100
AcDbEntity
  8
0
  6
Continuous
 62
     7
370
    25
100
AcDbLine
 10
-1.3919424827
 20
0.7221584306
 30
0.0
 11
-1.3919424827
 21
-0.8035512912
 31
0.0
  0
LINE
  5
210
330
1DD
100
AcDbEntity
  8
0
  6
Continuous
 62
     7
370
    25
100
AcDbLine
 10
-1.3212318045
 20
0.8446329174
 30
0.0
 11
-1.3919424827
 21
0.7221584306
 31
0.0
  0
LINE
  5
211
330
1DD
100
AcDbEntity
  8
0
  6
Continuous
 62
     8
370
    25
100
AcDbLine
 10
0.9600227303
 20
1.8568363789
 30
0.0
 11
0.9600227303
 21
1.9243346873
 31
0.0
  0
LINE
  5
212
330
1DD
100
AcDbEntity
  8
0
  6
Continuous
 62
     8
370
    25
100
AcDbLine
 10
-0.8430995617
 20
1.8568363789
 30
0.0
 11
-0.8430995617
 21
1.9243346873
 31
0.0
  0
LINE
  5
213
330
1DD
100
AcDbEntity
  8
0
  6
Continuous
 62
     8
370
    25
100
AcDbLine
 10
0.0584615843
 20
2.3772965502
 30
0.0
 11
0.0584615843
 21
2.4447948586
 31
0.0
  0
LINE
  5
214
330
1DD
100
AcDbEntity
  8
0
  6
Continuous
 62
     8
370
    25
100
AcDbLine
 10
0.9600227303
 20
2.8977567214
 30
0.0
 11
0.9600227303
 21
2.9652550299
 31
0.0
  0
LINE
  5
215
330
1DD
100
AcDbEntity
  8
0
  6
Continuous
 62
     8
370
    25
100
AcDbLine
 10
-0.8430995617
 20
2.8977567214
 30
0.0
 11
-0.8430995617
 21
2.9652550299
 31
0.0
  0
ARC
  5
216
330
1DD
100
AcDbEntity
  8
0
  6
Continuous
 62
     7
370
    25
100
AcDbCircle
 10
0.0
 20
2.1048428999
 30
0.0
 40
1.7716535433071
100
AcDbArc
 50
164.9760003899
 51
204.9074239975
  0
ARC
  5
217
330
1DD
100
AcDbEntity
  8
0
  6
Continuous
 62
     7
370
    25
100
AcDbCircle
 10
0.0
 20
2.1048428999
 30
0.0
 40
1.771653543307173
100
AcDbArc
 50
335.0925760025
 51
15.0239996101
  0
ARC
  5
218
330
1DD
100
AcDbEntity
  8
0
  6
Continuous
 62
     7
370
    25
100
AcDbCircle
 10
0.7213383107
 20
1.8139110191
 30
0.0
 40
0.9956810287503169
100
AcDbArc
 50
297.1923340572
 51
332.7946823194
  0
ARC
  5
219
330
1DD
100
AcDbEntity
  8
0
  6
Continuous
 62
     8
370
    25
100
AcDbCircle
 10
-0.2234273689
 20
1.4043651763
 30
0.0
 40
1.478519656993493
100
AcDbArc
 50
341.2158052022
 51
11.7018046982
  0
VIEWPORT
  5
2A3
330
1DD
100
AcDbEntity
  8
0
100
AcDbViewport
 10
0.0
 20
0.0
 30
0.0
 40
8.4
 41
6.4
 68
     1
 69
     1
 12
0.0
 22
1.2045119576
 13
0.0
 23
0.0
 14
0.5
 24
0.5
 15
0.5
 25
0.5
 16
0.0
 26
0.0
 36
1.0
 17
0.0
 27
0.0
 37
0.0
 42
50.0
 43
0.0
 44
0.0
 45
4.5251806385
 50
0.0
 51
0.0
 72
   100
 90
   557152
  1

281
     0
 71
     1
 74
     0
110
0.0
120
0.0
130
0.0
111
1.0
121
0.0
131
0.0
112
0.0
122
1.0
132
0.0
 79
     0
146
0.0
  0
ENDBLK
  5
1E0
330
1DD
100
AcDbEntity
  8
0
100
AcDbBlockEnd
  0
BLOCK
  5
21C
330
21A
100
AcDbEntity
  8
0
100
AcDbBlockBegin
  2
*Paper_Space6
 70
     0
 10
0.0
 20
0.0
 30
0.0
  3
*Paper_Space6
  1

  0
LWPOLYLINE
  5
224
330
21A
100
AcDbEntity
  8
0
  6
Continuous
 62
     7
370
    25
100
AcDbPolyline
 90
       28
 70
   128
 43
0.0
 10
-1.7407409224
 20
1.8800573452
 10
-1.7409096709
 20
1.8796525802
 10
-1.7573580519
 20
1.834719963
 10
-1.7694373639
 20
1.7894209291
 10
-1.7771175758
 20
1.743868099
 10
-1.7803795935
 20
1.6981747242
 10
-1.7792153069
 20
1.6524544055
 10
-1.7736276108
 20
1.6068208111
 10
-1.7636303969
 20
1.561387393
 10
-1.74924852
 20
1.5162671061
 10
-1.7305177357
 20
1.4715721263
 10
-1.7074846116
 20
1.4274135726
 10
-1.6802064117
 20
1.3839012299
 10
-1.648750954
 20
1.3411432769
 10
-1.6131964416
 20
1.2992460166
 10
-1.5736312687
 20
1.2583136121
 10
-1.5301538005
 20
1.2184478279
 10
-1.4828721288
 20
1.1797477765
 10
-1.4319038034
 20
1.1423096724
 10
-1.3773755395
 20
1.1062265927
 10
-1.319422903
 20
1.0715882455
 10
-1.2581899733
 20
1.0384807472
 10
-1.1938289851
 20
1.0069864083
 10
-1.1264999499
 20
0.9771835287
 10
-1.0563702583
 20
0.9491462031
 10
-0.9836142639
 20
0.9229441366
 10
-0.9084128494
 20
0.8986424717
 10
-0.8309529774
 20
0.8763016261
  0
LWPOLYLINE
  5
225
330
21A
100
AcDbEntity
  8
0
  6
Continuous
 62
     7
370
    25
100
AcDbPolyline
 90
       47
 70
   128
 43
0.0
 10
-0.8309529774
 20
0.8763016261
 10
-0.7514272254
 20
0.8559771429
 10
-0.6700333069
 20
0.8377195517
 10
-0.58697358
 20
0.8215742439
 10
-0.5024545443
 20
0.8075813592
 10
-0.4166863275
 20
0.7957756862
 10
-0.3298821628
 20
0.7861865755
 10
-0.2422578591
 20
0.7788378674
 10
-0.1540312641
 20
0.7737478317
 10
-0.0654217232
 20
0.7709291232
 10
0.0233504664
 20
0.7703887495
 10
0.1120646031
 20
0.7721280542
 10
0.2005001296
 20
0.7761427131
 10
0.2884371811
 20
0.782422745
 10
0.3756571324
 20
0.7909525369
 10
0.4619431408
 20
0.8017108823
 10
0.5470806858
 20
0.8146710342
 10
0.630858102
 20
0.8298007718
 10
0.7130671056
 20
0.8470624801
 10
0.793503312
 20
0.8664132437
 10
0.8719667441
 20
0.8878049536
 10
0.9482623295
 20
0.9111844267
 10
1.0222003854
 20
0.9364935379
 10
1.09359709
 20
0.9636693648
 10
1.16227494
 20
0.9926443439
 10
1.2280631913
 20
1.023346439
 10
1.2907982841
 20
1.0556993197
 10
1.3503242489
 20
1.0896225517
 10
1.4064930949
 20
1.1250317966
 10
1.4591651774
 20
1.1618390212
 10
1.5082095454
 20
1.1999527172
 10
1.5535042669
 20
1.2392781278
 10
1.5949367319
 20
1.2797174839
 10
1.632403933
 20
1.3211702468
 10
1.6658127206
 20
1.3635333585
 10
1.6950800354
 20
1.4067014975
 10
1.7201331141
 20
1.4505673412
 10
1.7409096709
 20
1.495021832
 10
1.7573580519
 20
1.5399544492
 10
1.7694373639
 20
1.5852534831
 10
1.7771175758
 20
1.6308063132
 10
1.7803795935
 20
1.6764996881
 10
1.7792153069
 20
1.7222200067
 10
1.7736276108
 20
1.7678536012
 10
1.7636303969
 20
1.8132870192
 10
1.74924852
 20
1.8584073062
 10
1.7407409224
 20
1.8800573452
  0
LWPOLYLINE
  5
227
330
21A
100
AcDbEntity
  8
0
  6
Continuous
 62
     7
370
    25
100
AcDbPolyline
 90
       49
 70
   128
 43
0.0
 10
-1.6228237839
 20
1.4987943776
 10
-1.6176933436
 20
1.487441008
 10
-1.5955685313
 20
1.4448153095
 10
-1.569212558
 20
1.4028327356
 10
-1.5386953152
 20
1.3616046164
 10
-1.5040977289
 20
1.3212402814
 10
-1.4655115459
 20
1.2818467697
 10
-1.4230390898
 20
1.2435285457
 10
-1.3767929897
 20
1.2063872225
 10
-1.3268958822
 20
1.1705212922
 10
-1.2734800854
 20
1.1360258648
 10
-1.2166872482
 20
1.1029924159
 10
-1.1566679753
 20
1.0715085444
 10
-1.0935814267
 20
1.0416577398
 10
-1.0275948969
 20
1.0135191611
 10
-0.9588833701
 20
0.9871674267
 10
-0.887629057
 20
0.9626724166
 10
-0.8140209111
 20
0.9400990874
 10
-0.7382541282
 20
0.9195072993
 10
-0.660529628
 20
0.900951658
 10
-0.5810535221
 20
0.8844813699
 10
-0.5000365666
 20
0.8701401111
 10
-0.417693604
 20
0.8579659121
 10
-0.3342429931
 20
0.8479910567
 10
-0.2499060299
 20
0.8402419964
 10
-0.1649063608
 20
0.8347392803
 10
-0.0794693896
 20
0.8314975006
 10
0.00617832
 20
0.830525254
 10
0.0918096459
 20
0.8318251186
 10
0.1771975091
 20
0.8353936475
 10
0.2621154764
 20
0.8412213776
 10
0.3463383605
 20
0.8492928547
 10
0.4296428176
 20
0.8595866748
 10
0.5118079391
 20
0.8720755405
 10
0.592615838
 20
0.8867263336
 10
0.6718522262
 20
0.9035002028
 10
0.7493069832
 20
0.9223526668
 10
0.8247747126
 20
0.9432337323
 10
0.8980552879
 20
0.9660880264
 10
0.9689543819
 20
0.9908549437
 10
1.0372839831
 20
1.0174688068
 10
1.1028628937
 20
1.0458590404
 10
1.1655172101
 20
1.0759503588
 10
1.2250807844
 20
1.1076629652
 10
1.2813956647
 20
1.1409127635
 10
1.3343125141
 20
1.1756115812
 10
1.3836910065
 20
1.2116674033
 10
1.4294001991
 20
1.2489846161
 10
1.4713188794
 20
1.2874642612
  0
LWPOLYLINE
  5
229
330
21A
100
AcDbEntity
  8
0
  6
Continuous
 62
     7
370
    25
100
AcDbPolyline
 90
       45
 70
   128
 43
0.0
 10
-0.9186917105
 20
-0.5752335355
 10
-0.8360782711
 20
-0.5964261329
 10
-0.7516269502
 20
-0.6156010663
 10
-0.6655233902
 20
-0.632716185
 10
-0.5779568653
 20
-0.6477338664
 10
-0.4891198658
 20
-0.6606210982
 10
-0.3992076747
 20
-0.6713495516
 10
-0.3084179384
 20
-0.679895643
 10
-0.2169502326
 20
-0.6862405864
 10
-0.1250056231
 20
-0.6903704341
 10
-0.0327862241
 20
-0.6922761078
 10
0.0595052461
 20
-0.6919534185
 10
0.1516659109
 20
-0.6894030755
 10
0.2434931811
 20
-0.6846306851
 10
0.3347852004
 20
-0.6776467379
 10
0.4253412892
 20
-0.6684665861
 10
0.5149623855
 20
-0.6571104099
 10
0.6034514828
 20
-0.6436031724
 10
0.6906140627
 20
-0.6279745656
 10
0.7762585231
 20
-0.6102589445
 10
0.8601965987
 20
-0.5904952518
 10
0.9422437755
 20
-0.5687269326
 10
1.022219696
 20
-0.5450018382
 10
1.0999485558
 20
-0.5193721216
 10
1.1752594899
 20
-0.4918941224
 10
1.2479869486
 20
-0.4626282433
 10
1.3179710611
 20
-0.431638817
 10
1.3850579873
 20
-0.398993965
 10
1.4491002553
 20
-0.3647654477
 10
1.5099570865
 20
-0.3290285069
 10
1.5674947043
 20
-0.2918617002
 10
1.6215866286
 20
-0.2533467282
 10
1.6721139535
 20
-0.2135682551
 10
1.7189656091
 20
-0.1726137228
 10
1.7620386051
 20
-0.1305731582
 10
1.801238258
 20
-0.0875389755
 10
1.8364783982
 20
-0.0436057732
 10
1.8676815603
 20
0.0011298739
 10
1.894779153
 20
0.0465696272
 10
1.9177116099
 20
0.0926136003
 10
1.9364285205
 20
0.1391605785
 10
1.9508887409
 20
0.1861082415
 10
1.9610604845
 20
0.2333533881
 10
1.9669213916
 20
0.2807921631
 10
1.968503937
 20
0.3214377378
  0
LWPOLYLINE
  5
22A
330
21A
100
AcDbEntity
  8
0
  6
Continuous
 62
     7
370
    25
100
AcDbPolyline
 90
       45
 70
   128
 43
0.0
 10
-0.9186917105
 20
-0.8966712732
 10
-0.8360782711
 20
-0.9178638706
 10
-0.7516269502
 20
-0.937038804
 10
-0.6655233902
 20
-0.9541539228
 10
-0.5779568653
 20
-0.9691716041
 10
-0.4891198658
 20
-0.982058836
 10
-0.3992076747
 20
-0.9927872893
 10
-0.3084179384
 20
-1.0013333808
 10
-0.2169502326
 20
-1.0076783241
 10
-0.1250056231
 20
-1.0118081718
 10
-0.0327862241
 20
-1.0137138456
 10
0.0595052461
 20
-1.0133911563
 10
0.1516659109
 20
-1.0108408133
 10
0.2434931811
 20
-1.0060684228
 10
0.3347852004
 20
-0.9990844756
 10
0.4253412892
 20
-0.9899043239
 10
0.5149623855
 20
-0.9785481476
 10
0.6034514828
 20
-0.9650409102
 10
0.6906140627
 20
-0.9494123034
 10
0.7762585231
 20
-0.9316966822
 10
0.8601965987
 20
-0.9119329896
 10
0.9422437755
 20
-0.8901646704
 10
1.022219696
 20
-0.866439576
 10
1.0999485558
 20
-0.8408098593
 10
1.1752594899
 20
-0.8133318602
 10
1.2479869486
 20
-0.784065981
 10
1.3179710611
 20
-0.7530765547
 10
1.3850579873
 20
-0.7204317027
 10
1.4491002553
 20
-0.6862031855
 10
1.5099570865
 20
-0.6504662447
 10
1.5674947043
 20
-0.6132994379
 10
1.6215866286
 20
-0.5747844659
 10
1.6721139535
 20
-0.5350059929
 10
1.7189656091
 20
-0.4940514606
 10
1.7620386051
 20
-0.4520108959
 10
1.801238258
 20
-0.4089767133
 10
1.8364783982
 20
-0.365043511
 10
1.8676815603
 20
-0.3203078639
 10
1.894779153
 20
-0.2748681105
 10
1.9177116099
 20
-0.2288241374
 10
1.9364285205
 20
-0.1822771592
 10
1.9508887409
 20
-0.1353294963
 10
1.9610604845
 20
-0.0880843497
 10
1.9669213916
 20
-0.0406455746
 10
1.968503937
 20
0.0
  0
LWPOLYLINE
  5
22B
330
21A
100
AcDbEntity
  8
0
  6
Continuous
 62
     7
370
    25
100
AcDbPolyline
 90
       24
 70
   128
 43
0.0
 10
-1.968503937
 20
0.3214377378
 10
-1.9670688702
 20
0.2827316411
 10
-1.9612660364
 20
0.2345758609
 10
-1.9510214772
 20
0.1866167987
 10
-1.9363583937
 20
0.1389630688
 10
-1.9173099938
 20
0.0917225935
 10
-1.8939194168
 20
0.0450023595
 10
-1.8662396359
 20
-0.0010918248
 10
-1.8343333381
 20
-0.0464555688
 10
-1.7982727824
 20
-0.0909861361
 10
-1.758139636
 20
-0.1345826774
 10
-1.7140247893
 20
-0.1771464585
 10
-1.6660281504
 20
-0.2185810843
 10
-1.6142584182
 20
-0.2587927167
 10
-1.558832837
 20
-0.2976902875
 10
-1.4998769304
 20
-0.3351857045
 10
-1.4375242171
 20
-0.3711940509
 10
-1.3719159089
 20
-0.4056337778
 10
-1.3032005905
 20
-0.4384268887
 10
-1.2315338829
 20
-0.4694991164
 10
-1.1570780916
 20
-0.4987800906
 10
-1.0800018382
 20
-0.5262034983
 10
-1.0004796793
 20
-0.5517072329
 10
-0.9186917105
 20
-0.5752335355
  0
LWPOLYLINE
  5
22C
330
21A
100
AcDbEntity
  8
0
  6
Continuous
 62
     7
370
    25
100
AcDbPolyline
 90
       24
 70
   128
 43
0.0
 10
-1.968503937
 20
0.0
 10
-1.9670688702
 20
-0.0387060966
 10
-1.9612660364
 20
-0.0868618769
 10
-1.9510214772
 20
-0.134820939
 10
-1.9363583937
 20
-0.182474669
 10
-1.9173099938
 20
-0.2297151443
 10
-1.8939194168
 20
-0.2764353783
 10
-1.8662396359
 20
-0.3225295626
 10
-1.8343333381
 20
-0.3678933065
 10
-1.7982727824
 20
-0.4124238739
 10
-1.758139636
 20
-0.4560204152
 10
-1.7140247893
 20
-0.4985841963
 10
-1.6660281504
 20
-0.540018822
 10
-1.6142584182
 20
-0.5802304544
 10
-1.558832837
 20
-0.6191280253
 10
-1.4998769304
 20
-0.6566234423
 10
-1.4375242171
 20
-0.6926317887
 10
-1.3719159089
 20
-0.7270715156
 10
-1.3032005905
 20
-0.7598646265
 10
-1.2315338829
 20
-0.7909368541
 10
-1.1570780916
 20
-0.8202178284
 10
-1.0800018382
 20
-0.8476412361
 10
-1.0004796793
 20
-0.8731449706
 10
-0.9186917105
 20
-0.8966712732
  0
LWPOLYLINE
  5
22D
330
21A
100
AcDbEntity
  8
0
  6
Continuous
 62
     7
370
    25
100
AcDbPolyline
 90
       64
 70
   128
 43
0.0
 10
-1.5313799449
 20
2.9472020647
 10
-1.5697561973
 20
2.9073703039
 10
-1.6042297884
 20
2.8666028417
 10
-1.6347150115
 20
2.8250010324
 10
-1.6611360755
 20
2.7826683047
 10
-1.6834272935
 20
2.7397099043
 10
-1.701533246
 20
2.6962326327
 10
-1.7154089188
 20
2.6523445811
 10
-1.7250198147
 20
2.6081548623
 10
-1.7303420395
 20
2.5637733387
 10
-1.7313623614
 20
2.5193103499
 10
-1.7280782437
 20
2.4748764379
 10
-1.7204978511
 20
2.4305820723
 10
-1.7086400299
 20
2.3865373759
 10
-1.6925342603
 20
2.3428518509
 10
-1.6722205838
 20
2.2996341062
 10
-1.6477495035
 20
2.256991588
 10
-1.6191818583
 20
2.2150303124
 10
-1.5865886719
 20
2.1738546016
 10
-1.5500509761
 20
2.133566825
 10
-1.5096596093
 20
2.0942671444
 10
-1.4655149908
 20
2.0560532648
 10
-1.4177268712
 20
2.0190201922
 10
-1.3664140592
 20
1.9832599964
 10
-1.3117041266
 20
1.9488615831
 10
-1.2537330908
 20
1.915910472
 10
-1.192645077
 20
1.8844885848
 10
-1.1285919596
 20
1.8546740414
 10
-1.0617329848
 20
1.8265409652
 10
-0.9922343745
 20
1.8001592997
 10
-0.9202689133
 20
1.7755946337
 10
-0.8460155184
 20
1.752908039
 10
-0.7696587958
 20
1.7321559179
 10
-0.6913885801
 20
1.7133898635
 10
-0.6113994634
 20
1.6966565311
 10
-0.5298903113
 20
1.6819975226
 10
-0.4470637685
 20
1.6694492824
 10
-0.3631257546
 20
1.6590430075
 10
-0.2782849529
 20
1.6508045695
 10
-0.192752291
 20
1.6447544504
 10
-0.1067404165
 20
1.6409076919
 10
-0.0204631686
 20
1.6392738575
 10
0.0658649541
 20
1.6398570093
 10
0.1520293261
 20
1.6426556974
 10
0.2378157292
 20
1.6476629639
 10
0.3230108849
 20
1.6548663598
 10
0.4074029847
 20
1.6642479765
 10
0.4907822165
 20
1.6757844897
 10
0.5729412864
 20
1.6894472179
 10
0.6536759339
 20
1.7052021933
 10
0.7327854401
 20
1.7230102466
 10
0.8100731263
 20
1.7428271042
 10
0.885346843
 20
1.7646034982
 10
0.9584194479
 20
1.7882852892
 10
1.0291092711
 20
1.8138136004
 10
1.0972405665
 20
1.8411249644
 10
1.1626439489
 20
1.8701514809
 10
1.2251568154
 20
1.9008209854
 10
1.2846237489
 20
1.9330572286
 10
1.3408969054
 20
1.9667800662
 10
1.3938363809
 20
2.001905658
 10
1.4433105595
 20
2.038346676
 10
1.4891964407
 20
2.0760125223
 10
1.5313799449
 20
2.1148095536
  0
LWPOLYLINE
  5
22E
330
21A
100
AcDbEntity
  8
0
  6
Continuous
 62
     7
370
    25
100
AcDbPolyline
 90
       64
 70
   128
 43
0.0
 10
1.5313799449
 20
2.1148095536
 10
1.5697561973
 20
2.1546413144
 10
1.6042297884
 20
2.1954087766
 10
1.6347150115
 20
2.2370105859
 10
1.6611360755
 20
2.2793433137
 10
1.6834272935
 20
2.322301714
 10
1.701533246
 20
2.3657789857
 10
1.7154089188
 20
2.4096670372
 10
1.7250198147
 20
2.4538567561
 10
1.7303420395
 20
2.4982382796
 10
1.7313623614
 20
2.5427012684
 10
1.7280782437
 20
2.5871351805
 10
1.7204978511
 20
2.631429546
 10
1.7086400299
 20
2.6754742424
 10
1.6925342603
 20
2.7191597675
 10
1.6722205838
 20
2.7623775121
 10
1.6477495035
 20
2.8050200303
 10
1.6191818583
 20
2.8469813059
 10
1.5865886719
 20
2.8881570167
 10
1.5500509761
 20
2.9284447933
 10
1.5096596093
 20
2.967744474
 10
1.4655149908
 20
3.0059583535
 10
1.4177268712
 20
3.0429914261
 10
1.3664140592
 20
3.0787516219
 10
1.3117041266
 20
3.1131500352
 10
1.2537330908
 20
3.1461011463
 10
1.192645077
 20
3.1775230335
 10
1.1285919596
 20
3.207337577
 10
1.0617329848
 20
3.2354706531
 10
0.9922343745
 20
3.2618523186
 10
0.9202689133
 20
3.2864169846
 10
0.8460155184
 20
3.3091035793
 10
0.7696587958
 20
3.3298557004
 10
0.6913885801
 20
3.3486217548
 10
0.6113994634
 20
3.3653550872
 10
0.5298903113
 20
3.3800140957
 10
0.4470637685
 20
3.3925623359
 10
0.3631257546
 20
3.4029686109
 10
0.2782849529
 20
3.4112070489
 10
0.192752291
 20
3.4172571679
 10
0.1067404165
 20
3.4211039264
 10
0.0204631686
 20
3.4227377608
 10
-0.0658649541
 20
3.422154609
 10
-0.1520293261
 20
3.4193559209
 10
-0.2378157292
 20
3.4143486544
 10
-0.3230108849
 20
3.4071452585
 10
-0.4074029847
 20
3.3977636418
 10
-0.4907822165
 20
3.3862271286
 10
-0.5729412864
 20
3.3725644005
 10
-0.6536759339
 20
3.356809425
 10
-0.7327854401
 20
3.3390013717
 10
-0.8100731263
 20
3.3191845141
 10
-0.885346843
 20
3.2974081201
 10
-0.9584194479
 20
3.2737263291
 10
-1.0291092711
 20
3.248198018
 10
-1.0972405665
 20
3.2208866539
 10
-1.1626439489
 20
3.1918601374
 10
-1.2251568154
 20
3.161190633
 10
-1.2846237489
 20
3.1289543897
 10
-1.3408969054
 20
3.0952315521
 10
-1.3938363809
 20
3.0601059604
 10
-1.4433105595
 20
3.0236649423
 10
-1.4891964407
 20
2.985999096
 10
-1.5313799449
 20
2.9472020647
  0
LWPOLYLINE
  5
22F
330
21A
100
AcDbEntity
  8
0
  6
Continuous
 62
     7
370
    25
100
AcDbPolyline
 90
       14
 70
   128
 43
0.0
 10
0.0385850518
 20
2.5686660026
 10
0.0199647958
 20
2.5723275312
 10
0.0001842584
 20
2.5735875915
 10
-0.0196069874
 20
2.5723729534
 10
-0.0382587464
 20
2.5687542072
 10
-0.0546870461
 20
2.5629416613
 10
-0.0679371335
 20
2.5552731198
 10
-0.0772389616
 20
2.5461942504
 10
-0.082051942
 20
2.536232684
 10
-0.0820963618
 20
2.5259673506
 10
-0.0773696395
 20
2.5159948342
 10
-0.0681464749
 20
2.506894701
 10
-0.0549628849
 20
2.4991958178
 10
-0.0385850518
 20
2.4933456157
  0
LWPOLYLINE
  5
230
330
21A
100
AcDbEntity
  8
0
  6
Continuous
 62
     7
370
    25
100
AcDbPolyline
 90
       14
 70
   128
 43
0.0
 10
-0.0385850518
 20
2.4933456157
 10
-0.0199647958
 20
2.4896840871
 10
-0.0001842584
 20
2.4884240268
 10
0.0196069874
 20
2.489638665
 10
0.0382587464
 20
2.4932574111
 10
0.0546870461
 20
2.499069957
 10
0.0679371335
 20
2.5067384985
 10
0.0772389616
 20
2.5158173679
 10
0.082051942
 20
2.5257789343
 10
0.0820963618
 20
2.5360442677
 10
0.0773696395
 20
2.5460167841
 10
0.0681464749
 20
2.5551169173
 10
0.0549628849
 20
2.5628158005
 10
0.0385850518
 20
2.5686660026
  0
LWPOLYLINE
  5
231
330
21A
100
AcDbEntity
  8
0
  6
Continuous
 62
     7
370
    25
100
AcDbPolyline
 90
       14
 70
   128
 43
0.0
 10
1.166218157
 20
2.2621994869
 10
1.1475979009
 20
2.2658610155
 10
1.1278173635
 20
2.2671210758
 10
1.1080261177
 20
2.2659064376
 10
1.0893743587
 20
2.2622876915
 10
1.072946059
 20
2.2564751456
 10
1.0596959717
 20
2.2488066041
 10
1.0503941435
 20
2.2397277347
 10
1.0455811631
 20
2.2297661683
 10
1.0455367433
 20
2.2195008349
 10
1.0502634657
 20
2.2095283185
 10
1.0594866302
 20
2.2004281853
 10
1.0726702202
 20
2.1927293021
 10
1.0890480533
 20
2.1868791
  0
LWPOLYLINE
  5
232
330
21A
100
AcDbEntity
  8
0
  6
Continuous
 62
     7
370
    25
100
AcDbPolyline
 90
       14
 70
   128
 43
0.0
 10
1.0890480533
 20
2.1868791
 10
1.1076683093
 20
2.1832175714
 10
1.1274488467
 20
2.1819575111
 10
1.1472400926
 20
2.1831721492
 10
1.1658918515
 20
2.1867908954
 10
1.1823201512
 20
2.1926034413
 10
1.1955702386
 20
2.2002719828
 10
1.2048720667
 20
2.2093508522
 10
1.2096850471
 20
2.2193124186
 10
1.2097294669
 20
2.229577752
 10
1.2050027446
 20
2.2395502684
 10
1.19577958
 20
2.2486504016
 10
1.1825959901
 20
2.2563492848
 10
1.166218157
 20
2.2621994869
  0
LWPOLYLINE
  5
233
330
21A
100
AcDbEntity
  8
0
  6
Continuous
 62
     7
370
    25
100
AcDbPolyline
 90
       14
 70
   128
 43
0.0
 10
0.6336216727
 20
3.1494399863
 10
0.6150014167
 20
3.1531015149
 10
0.5952208793
 20
3.1543615752
 10
0.5754296335
 20
3.153146937
 10
0.5567778745
 20
3.1495281909
 10
0.5403495748
 20
3.143715645
 10
0.5270994874
 20
3.1360471035
 10
0.5177976593
 20
3.1269682341
 10
0.5129846789
 20
3.1170066677
 10
0.5129402591
 20
3.1067413343
 10
0.5176669814
 20
3.0967688179
 10
0.526890146
 20
3.0876686847
 10
0.540073736
 20
3.0799698015
 10
0.556451569
 20
3.0741195994
  0
LWPOLYLINE
  5
234
330
21A
100
AcDbEntity
  8
0
  6
Continuous
 62
     7
370
    25
100
AcDbPolyline
 90
       14
 70
   128
 43
0.0
 10
0.556451569
 20
3.0741195994
 10
0.5750718251
 20
3.0704580708
 10
0.5948523625
 20
3.0691980105
 10
0.6146436083
 20
3.0704126486
 10
0.6332953673
 20
3.0740313948
 10
0.649723667
 20
3.0798439407
 10
0.6629737544
 20
3.0875124822
 10
0.6722755825
 20
3.0965913516
 10
0.6770885629
 20
3.106552918
 10
0.6771329827
 20
3.1168182513
 10
0.6724062603
 20
3.1267907678
 10
0.6631830958
 20
3.135890901
 10
0.6499995058
 20
3.1435897842
 10
0.6336216727
 20
3.1494399863
  0
LWPOLYLINE
  5
235
330
21A
100
AcDbEntity
  8
0
  6
Continuous
 62
     7
370
    25
100
AcDbPolyline
 90
       14
 70
   128
 43
0.0
 10
-1.0890480533
 20
2.8751325184
 10
-1.1076683093
 20
2.8787940469
 10
-1.1274488467
 20
2.8800541072
 10
-1.1472400926
 20
2.8788394691
 10
-1.1658918515
 20
2.8752207229
 10
-1.1823201512
 20
2.869408177
 10
-1.1955702386
 20
2.8617396355
 10
-1.2048720667
 20
2.8526607661
 10
-1.2096850471
 20
2.8426991997
 10
-1.2097294669
 20
2.8324338664
 10
-1.2050027446
 20
2.8224613499
 10
-1.19577958
 20
2.8133612167
 10
-1.1825959901
 20
2.8056623335
 10
-1.166218157
 20
2.7998121314
  0
LWPOLYLINE
  5
236
330
21A
100
AcDbEntity
  8
0
  6
Continuous
 62
     7
370
    25
100
AcDbPolyline
 90
       14
 70
   128
 43
0.0
 10
-1.166218157
 20
2.7998121314
 10
-1.1475979009
 20
2.7961506028
 10
-1.1278173635
 20
2.7948905425
 10
-1.1080261177
 20
2.7961051807
 10
-1.0893743587
 20
2.7997239269
 10
-1.072946059
 20
2.8055364727
 10
-1.0596959717
 20
2.8132050142
 10
-1.0503941435
 20
2.8222838836
 10
-1.0455811631
 20
2.83224545
 10
-1.0455367433
 20
2.8425107834
 10
-1.0502634657
 20
2.8524832999
 10
-1.0594866302
 20
2.861583433
 10
-1.0726702202
 20
2.8692823162
 10
-1.0890480533
 20
2.8751325184
  0
LWPOLYLINE
  5
237
330
21A
100
AcDbEntity
  8
0
  6
Continuous
 62
     7
370
    25
100
AcDbPolyline
 90
       14
 70
   128
 43
0.0
 10
-0.556451569
 20
1.987892019
 10
-0.5750718251
 20
1.9915535475
 10
-0.5948523625
 20
1.9928136078
 10
-0.6146436083
 20
1.9915989697
 10
-0.6332953673
 20
1.9879802235
 10
-0.649723667
 20
1.9821676776
 10
-0.6629737544
 20
1.9744991361
 10
-0.6722755825
 20
1.9654202667
 10
-0.6770885629
 20
1.9554587003
 10
-0.6771329827
 20
1.945193367
 10
-0.6724062603
 20
1.9352208505
 10
-0.6631830958
 20
1.9261207173
 10
-0.6499995058
 20
1.9184218341
 10
-0.6336216727
 20
1.912571632
  0
LWPOLYLINE
  5
238
330
21A
100
AcDbEntity
  8
0
  6
Continuous
 62
     7
370
    25
100
AcDbPolyline
 90
       14
 70
   128
 43
0.0
 10
-0.6336216727
 20
1.912571632
 10
-0.6150014167
 20
1.9089101034
 10
-0.5952208793
 20
1.9076500432
 10
-0.5754296335
 20
1.9088646813
 10
-0.5567778745
 20
1.9124834275
 10
-0.5403495748
 20
1.9182959733
 10
-0.5270994874
 20
1.9259645148
 10
-0.5177976593
 20
1.9350433842
 10
-0.5129846789
 20
1.9450049506
 10
-0.5129402591
 20
1.955270284
 10
-0.5176669814
 20
1.9652428005
 10
-0.526890146
 20
1.9743429336
 10
-0.540073736
 20
1.9820418168
 10
-0.556451569
 20
1.987892019
  0
LWPOLYLINE
  5
239
330
21A
100
AcDbEntity
  8
0
  6
Continuous
 62
     7
370
    25
100
AcDbPolyline
 90
       55
 70
   128
 43
0.0
 10
1.764545775
 20
2.0510294782
 10
1.7902913958
 20
2.0231546677
 10
1.8266863909
 20
1.9794719316
 10
1.8590659329
 20
1.934958596
 10
1.8873588445
 20
1.8897125109
 10
1.9115029317
 20
1.8438331369
 10
1.9314451207
 20
1.797421327
 10
1.9471415741
 20
1.7505791043
 10
1.9585577877
 20
1.7034094382
 10
1.9656686663
 20
1.6560160178
 10
1.9684585785
 20
1.6085030243
 10
1.9669213916
 20
1.5609749014
 10
1.9610604845
 20
1.5135361263
 10
1.9508887409
 20
1.4662909798
 10
1.9364285205
 20
1.4193433168
 10
1.9177116099
 20
1.3727963386
 10
1.894779153
 20
1.3267523655
 10
1.8676815603
 20
1.2813126122
 10
1.8364783982
 20
1.2365769651
 10
1.801238258
 20
1.1926437628
 10
1.7620386051
 20
1.1496095801
 10
1.7189656091
 20
1.1075690155
 10
1.6721139535
 20
1.0666144831
 10
1.6215866286
 20
1.0268360101
 10
1.5674947043
 20
0.9883210381
 10
1.5099570865
 20
0.9511542313
 10
1.4491002553
 20
0.9154172906
 10
1.3850579873
 20
0.8811887733
 10
1.3179710611
 20
0.8485439213
 10
1.2479869486
 20
0.817554495
 10
1.1752594899
 20
0.7882886159
 10
1.0999485558
 20
0.7608106167
 10
1.022219696
 20
0.7351809001
 10
0.9422437755
 20
0.7114558057
 10
0.8601965987
 20
0.6896874864
 10
0.7762585231
 20
0.6699237938
 10
0.6906140627
 20
0.6522081727
 10
0.6034514828
 20
0.6365795659
 10
0.5149623855
 20
0.6230723284
 10
0.4253412892
 20
0.6117161521
 10
0.3347852004
 20
0.6025360004
 10
0.2434931811
 20
0.5955520532
 10
0.1516659109
 20
0.5907796627
 10
0.0595052461
 20
0.5882293197
 10
-0.0327862241
 20
0.5879066305
 10
-0.1250056231
 20
0.5898123042
 10
-0.2169502326
 20
0.5939421519
 10
-0.3084179384
 20
0.6002870953
 10
-0.3992076747
 20
0.6088331867
 10
-0.4891198658
 20
0.6195616401
 10
-0.5779568653
 20
0.6324488719
 10
-0.6655233902
 20
0.6474665533
 10
-0.7516269502
 20
0.664581672
 10
-0.8360782711
 20
0.6837566054
 10
-0.9186917105
 20
0.7049492028
  0
LWPOLYLINE
  5
23B
330
21A
100
AcDbEntity
  8
0
  6
Continuous
 62
     7
370
    25
100
AcDbPolyline
 90
       51
 70
   128
 43
0.0
 10
-0.8720221716
 20
0.8362168336
 10
-0.7911641161
 20
0.8155120208
 10
-0.7084582601
 20
0.7968433962
 10
-0.624097767
 20
0.7802545612
 10
-0.5382796647
 20
0.7657842597
 10
-0.4512043853
 20
0.7534662878
 10
-0.3630752971
 20
0.7433294147
 10
-0.2740982297
 20
0.7353973156
 10
-0.1844809932
 20
0.7296885162
 10
-0.0944328929
 20
0.7262163496
 10
-0.0041642401
 20
0.7249889254
 10
0.0861141385
 20
0.7260091101
 10
0.1761913935
 20
0.7292745212
 10
0.2658571453
 20
0.7347775321
 10
0.3549019754
 20
0.7425052902
 10
0.4431179156
 20
0.752439747
 10
0.5302989333
 20
0.7645577002
 10
0.6162414133
 20
0.7788308476
 10
0.7007446329
 20
0.7952258538
 10
0.7836112309
 20
0.8137044274
 10
0.8646476686
 20
0.8342234108
 10
0.9436646817
 20
0.8567348809
 10
1.0204777221
 20
0.8811862614
 10
1.0949073895
 20
0.9075204446
 10
1.16677985
 20
0.9356759261
 10
1.2359272421
 20
0.9655869473
 10
1.3021880688
 20
0.9971836497
 10
1.365407575
 20
1.0303922377
 10
1.4254381085
 20
1.0651351512
 10
1.4821394653
 20
1.1013312463
 10
1.5353792166
 20
1.1388959855
 10
1.5850330187
 20
1.1777416346
 10
1.6309849027
 20
1.2177774678
 10
1.6731275459
 20
1.2589099795
 10
1.7113625221
 20
1.3010431028
 10
1.745600532
 20
1.3440784339
 10
1.7757616108
 20
1.3879154618
 10
1.8017753162
 20
1.432451803
 10
1.8235808918
 20
1.4775834409
 10
1.8411274098
 20
1.5232049685
 10
1.8543738894
 20
1.5692098345
 10
1.8632893928
 20
1.6154905924
 10
1.8678530976
 20
1.6619391515
 10
1.8680543448
 20
1.7084470288
 10
1.8638926646
 20
1.7549056032
 10
1.8553777767
 20
1.8012063685
 10
1.8425295681
 20
1.8472411871
 10
1.8253780463
 20
1.8929025425
 10
1.8039632694
 20
1.9380837905
 10
1.7783352528
 20
1.9826794083
 10
1.7603733404
 20
2.0099635126
  0
LWPOLYLINE
  5
23C
330
21A
100
AcDbEntity
  8
0
  6
Continuous
 62
     7
370
    25
100
AcDbPolyline
 90
       45
 70
   128
 43
0.0
 10
1.968503937
 20
0.3214377378
 10
1.9669213916
 20
0.2807921631
 10
1.9610604845
 20
0.2333533881
 10
1.9508887409
 20
0.1861082415
 10
1.9364285205
 20
0.1391605785
 10
1.9177116099
 20
0.0926136003
 10
1.894779153
 20
0.0465696272
 10
1.8676815603
 20
0.0011298739
 10
1.8364783982
 20
-0.0436057732
 10
1.801238258
 20
-0.0875389755
 10
1.7620386051
 20
-0.1305731582
 10
1.7189656091
 20
-0.1726137228
 10
1.6721139535
 20
-0.2135682551
 10
1.6215866286
 20
-0.2533467282
 10
1.5674947043
 20
-0.2918617002
 10
1.5099570865
 20
-0.3290285069
 10
1.4491002553
 20
-0.3647654477
 10
1.3850579873
 20
-0.398993965
 10
1.3179710611
 20
-0.431638817
 10
1.2479869486
 20
-0.4626282433
 10
1.1752594899
 20
-0.4918941224
 10
1.0999485558
 20
-0.5193721216
 10
1.022219696
 20
-0.5450018382
 10
0.9422437755
 20
-0.5687269326
 10
0.8601965987
 20
-0.5904952518
 10
0.7762585231
 20
-0.6102589445
 10
0.6906140627
 20
-0.6279745656
 10
0.6034514828
 20
-0.6436031724
 10
0.5149623855
 20
-0.6571104099
 10
0.4253412892
 20
-0.6684665861
 10
0.3347852004
 20
-0.6776467379
 10
0.2434931811
 20
-0.6846306851
 10
0.1516659109
 20
-0.6894030755
 10
0.0595052461
 20
-0.6919534185
 10
-0.0327862241
 20
-0.6922761078
 10
-0.1250056231
 20
-0.6903704341
 10
-0.2169502326
 20
-0.6862405864
 10
-0.3084179384
 20
-0.679895643
 10
-0.3992076747
 20
-0.6713495516
 10
-0.4891198658
 20
-0.6606210982
 10
-0.5779568653
 20
-0.6477338664
 10
-0.6655233902
 20
-0.632716185
 10
-0.7516269502
 20
-0.6156010663
 10
-0.8360782711
 20
-0.5964261329
 10
-0.9186917105
 20
-0.5752335355
  0
LWPOLYLINE
  5
23E
330
21A
100
AcDbEntity
  8
0
  6
Continuous
 62
     7
370
    25
100
AcDbPolyline
 90
       31
 70
   128
 43
0.0
 10
-1.7603733404
 20
2.0099635126
 10
-1.7757616108
 20
1.9867589504
 10
-1.8017753162
 20
1.9422226092
 10
-1.8235808918
 20
1.8970909713
 10
-1.8411274098
 20
1.8514694437
 10
-1.8543738894
 20
1.8054645777
 10
-1.8632893928
 20
1.7591838198
 10
-1.8678530976
 20
1.7127352608
 10
-1.8680543448
 20
1.6662273834
 10
-1.8638926646
 20
1.619768809
 10
-1.8553777767
 20
1.5734680437
 10
-1.8425295681
 20
1.5274332251
 10
-1.8253780463
 20
1.4817718697
 10
-1.8039632694
 20
1.4365906217
 10
-1.7783352528
 20
1.3919950039
 10
-1.7485538517
 20
1.3480891715
 10
-1.7146886222
 20
1.3049756686
 10
-1.6768186579
 20
1.2627551888
 10
-1.6350324059
 20
1.22152634
 10
-1.58942746
 20
1.1813854141
 10
-1.5401103326
 20
1.142426162
 10
-1.4871962062
 20
1.1047395749
 10
-1.4308086641
 20
1.0684136715
 10
-1.3710794021
 20
1.0335332928
 10
-1.3081479206
 20
1.0001799033
 10
-1.242161199
 20
0.9684314016
 10
-1.1732733524
 20
0.9383619378
 10
-1.1016452715
 20
0.9100417403
 10
-1.0274442471
 20
0.8835369525
 10
-0.9508435789
 20
0.8589094773
 10
-0.8720221716
 20
0.8362168336
  0
LWPOLYLINE
  5
23F
330
21A
100
AcDbEntity
  8
0
  6
Continuous
 62
     7
370
    25
100
AcDbPolyline
 90
       28
 70
   128
 43
0.0
 10
-0.8309529774
 20
0.8763016261
 10
-0.9084128494
 20
0.8986424717
 10
-0.9836142639
 20
0.9229441366
 10
-1.0563702583
 20
0.9491462031
 10
-1.1264999499
 20
0.9771835287
 10
-1.1938289851
 20
1.0069864083
 10
-1.2581899733
 20
1.0384807472
 10
-1.319422903
 20
1.0715882455
 10
-1.3773755395
 20
1.1062265927
 10
-1.4319038034
 20
1.1423096724
 10
-1.4828721288
 20
1.1797477765
 10
-1.5301538005
 20
1.2184478279
 10
-1.5736312687
 20
1.2583136121
 10
-1.6131964416
 20
1.2992460166
 10
-1.648750954
 20
1.3411432769
 10
-1.6802064117
 20
1.3839012299
 10
-1.7074846116
 20
1.4274135726
 10
-1.7305177357
 20
1.4715721263
 10
-1.74924852
 20
1.5162671061
 10
-1.7636303969
 20
1.561387393
 10
-1.7736276108
 20
1.6068208111
 10
-1.7792153069
 20
1.6524544055
 10
-1.7803795935
 20
1.6981747242
 10
-1.7771175758
 20
1.743868099
 10
-1.7694373639
 20
1.7894209291
 10
-1.7573580519
 20
1.834719963
 10
-1.7409096709
 20
1.8796525802
 10
-1.7407409224
 20
1.8800573452
  0
LWPOLYLINE
  5
240
330
21A
100
AcDbEntity
  8
0
  6
Continuous
 62
     7
370
    25
100
AcDbPolyline
 90
       47
 70
   128
 43
0.0
 10
1.7407409224
 20
1.8800573452
 10
1.74924852
 20
1.8584073062
 10
1.7636303969
 20
1.8132870192
 10
1.7736276108
 20
1.7678536012
 10
1.7792153069
 20
1.7222200067
 10
1.7803795935
 20
1.6764996881
 10
1.7771175758
 20
1.6308063132
 10
1.7694373639
 20
1.5852534831
 10
1.7573580519
 20
1.5399544492
 10
1.7409096709
 20
1.495021832
 10
1.7201331141
 20
1.4505673412
 10
1.6950800354
 20
1.4067014975
 10
1.6658127206
 20
1.3635333585
 10
1.632403933
 20
1.3211702468
 10
1.5949367319
 20
1.2797174839
 10
1.5535042669
 20
1.2392781278
 10
1.5082095454
 20
1.1999527172
 10
1.4591651774
 20
1.1618390212
 10
1.4064930949
 20
1.1250317966
 10
1.3503242489
 20
1.0896225517
 10
1.2907982841
 20
1.0556993197
 10
1.2280631913
 20
1.023346439
 10
1.16227494
 20
0.9926443439
 10
1.09359709
 20
0.9636693648
 10
1.0222003854
 20
0.9364935379
 10
0.9482623295
 20
0.9111844267
 10
0.8719667441
 20
0.8878049536
 10
0.793503312
 20
0.8664132437
 10
0.7130671056
 20
0.8470624801
 10
0.630858102
 20
0.8298007718
 10
0.5470806858
 20
0.8146710342
 10
0.4619431408
 20
0.8017108823
 10
0.3756571324
 20
0.7909525369
 10
0.2884371811
 20
0.782422745
 10
0.2005001296
 20
0.7761427131
 10
0.1120646031
 20
0.7721280542
 10
0.0233504664
 20
0.7703887495
 10
-0.0654217232
 20
0.7709291232
 10
-0.1540312641
 20
0.7737478317
 10
-0.2422578591
 20
0.7788378674
 10
-0.3298821628
 20
0.7861865755
 10
-0.4166863275
 20
0.7957756862
 10
-0.5024545443
 20
0.8075813592
 10
-0.58697358
 20
0.8215742439
 10
-0.6700333069
 20
0.8377195517
 10
-0.7514272254
 20
0.8559771429
 10
-0.8309529774
 20
0.8763016261
  0
LWPOLYLINE
  5
241
330
21A
100
AcDbEntity
  8
0
  6
Continuous
 62
     7
370
    25
100
AcDbPolyline
 90
       34
 70
   128
 43
0.0
 10
-0.9186917105
 20
0.7049492028
 10
-0.9992856661
 20
0.7281128783
 10
-1.077682975
 20
0.753196713
 10
-1.1537113028
 20
0.7801455673
 10
-1.2272035227
 20
0.8089002017
 10
-1.297998083
 20
0.8393974074
 10
-1.3659393618
 20
0.8715701447
 10
-1.4308780094
 20
0.9053476911
 10
-1.4926712766
 20
0.9406557963
 10
-1.5511833284
 20
0.9774168452
 10
-1.6062855426
 20
1.0155500292
 10
-1.6578567926
 20
1.0549715232
 10
-1.7057837135
 20
1.0955946703
 10
-1.7499609516
 20
1.1373301719
 10
-1.7902913958
 20
1.1800862844
 10
-1.8266863909
 20
1.2237690205
 10
-1.8590659329
 20
1.2682823561
 10
-1.8873588445
 20
1.3135284412
 10
-1.9115029317
 20
1.3594078152
 10
-1.9314451207
 20
1.4058196251
 10
-1.9471415741
 20
1.4526618478
 10
-1.9585577877
 20
1.4998315139
 10
-1.9656686663
 20
1.5472249343
 10
-1.9684585785
 20
1.5947379278
 10
-1.9669213916
 20
1.6422660507
 10
-1.9610604845
 20
1.6897048257
 10
-1.9508887409
 20
1.7369499723
 10
-1.9364285205
 20
1.7838976353
 10
-1.9177116099
 20
1.8304446135
 10
-1.894779153
 20
1.8764885866
 10
-1.8676815603
 20
1.9219283399
 10
-1.8364783982
 20
1.966663987
 10
-1.801238258
 20
2.0105971893
 10
-1.764545775
 20
2.0510294782
  0
LWPOLYLINE
  5
242
330
21A
100
AcDbEntity
  8
0
  6
Continuous
 62
     7
370
    25
100
AcDbPolyline
 90
       25
 70
   128
 43
0.0
 10
-0.9186917105
 20
-0.5752335355
 10
-0.9992856661
 20
-0.55206986
 10
-1.077682975
 20
-0.5269860253
 10
-1.1537113028
 20
-0.500037171
 10
-1.2272035227
 20
-0.4712825366
 10
-1.297998083
 20
-0.4407853309
 10
-1.3659393618
 20
-0.4086125936
 10
-1.4308780094
 20
-0.3748350471
 10
-1.4926712766
 20
-0.339526942
 10
-1.5511833284
 20
-0.3027658931
 10
-1.6062855426
 20
-0.2646327091
 10
-1.6578567926
 20
-0.225211215
 10
-1.7057837135
 20
-0.184588068
 10
-1.7499609516
 20
-0.1428525664
 10
-1.7902913958
 20
-0.1000964539
 10
-1.8266863909
 20
-0.0564137178
 10
-1.8590659329
 20
-0.0119003822
 10
-1.8873588445
 20
0.0333457029
 10
-1.9115029317
 20
0.0792250769
 10
-1.9314451207
 20
0.1256368868
 10
-1.9471415741
 20
0.1724791095
 10
-1.9585577877
 20
0.2196487756
 10
-1.9656686663
 20
0.267042196
 10
-1.9684585785
 20
0.3145551895
 10
-1.968503937
 20
0.3214377378
  0
LINE
  5
249
330
21A
100
AcDbEntity
  8
0
  6
Continuous
 62
     7
370
    25
100
AcDbLine
 10
1.968503937
 20
0.0
 30
0.0
 11
1.968503937
 21
1.601620476
 31
0.0
  0
LINE
  5
24A
330
21A
100
AcDbEntity
  8
0
  6
Continuous
 62
     7
370
    25
100
AcDbLine
 10
-1.968503937
 20
1.601620476
 30
0.0
 11
-1.968503937
 21
0.0
 31
0.0
  0
LINE
  5
24B
330
21A
100
AcDbEntity
  8
0
  6
Continuous
 62
     7
370
    25
100
AcDbLine
 10
-0.9186917105
 20
0.7049492028
 30
0.0
 11
-0.9186917105
 21
-0.8966712732
 31
0.0
  0
LINE
  5
24C
330
21A
100
AcDbEntity
  8
0
  6
Continuous
 62
     7
370
    25
100
AcDbLine
 10
-0.8720221716
 20
0.8362168336
 30
0.0
 11
-0.9186917105
 21
0.7049492028
 31
0.0
  0
LINE
  5
24D
330
21A
100
AcDbEntity
  8
0
  6
Continuous
 62
     8
370
    25
100
AcDbLine
 10
-0.556451569
 20
1.912571632
 30
0.0
 11
-0.556451569
 21
1.987892019
 31
0.0
  0
LINE
  5
24E
330
21A
100
AcDbEntity
  8
0
  6
Continuous
 62
     8
370
    25
100
AcDbLine
 10
1.166218157
 20
2.1868791
 30
0.0
 11
1.166218157
 21
2.2621994869
 31
0.0
  0
LINE
  5
24F
330
21A
100
AcDbEntity
  8
0
  6
Continuous
 62
     8
370
    25
100
AcDbLine
 10
0.0385850518
 20
2.4933456157
 30
0.0
 11
0.0385850518
 21
2.5686660026
 31
0.0
  0
LINE
  5
250
330
21A
100
AcDbEntity
  8
0
  6
Continuous
 62
     8
370
    25
100
AcDbLine
 10
-1.0890480533
 20
2.7998121314
 30
0.0
 11
-1.0890480533
 21
2.8751325184
 31
0.0
  0
LINE
  5
251
330
21A
100
AcDbEntity
  8
0
  6
Continuous
 62
     8
370
    25
100
AcDbLine
 10
0.6336216727
 20
3.0741195994
 30
0.0
 11
0.6336216727
 21
3.1494399863
 31
0.0
  0
ARC
  5
252
330
21A
100
AcDbEntity
  8
0
  6
Continuous
 62
     7
370
    25
100
AcDbCircle
 10
0.0
 20
2.2095680714
 30
0.0
 40
1.771653543307071
100
AcDbArc
 50
165.7036428534
 51
203.6527337588
  0
ARC
  5
253
330
21A
100
AcDbEntity
  8
0
  6
Continuous
 62
     7
370
    25
100
AcDbCircle
 10
0.0
 20
2.2095680714
 30
0.0
 40
1.771653543307081
100
AcDbArc
 50
336.3472662412
 51
14.2963571466
  0
ARC
  5
254
330
21A
100
AcDbEntity
  8
0
  6
Continuous
 62
     7
370
    25
100
AcDbCircle
 10
1.0108542448
 20
1.7775492968
 30
0.0
 40
0.6724663722663521
100
AcDbArc
 50
313.2151643217
 51
335.5105184166
  0
ARC
  5
255
330
21A
100
AcDbEntity
  8
0
  6
Continuous
 62
     8
370
    25
100
AcDbCircle
 10
0.1815708733
 20
1.7969461252
 30
0.0
 40
1.386730575462164
100
AcDbArc
 50
338.4447733825
 51
13.2510288542
  0
VIEWPORT
  5
2A5
330
21A
100
AcDbEntity
  8
0
100
AcDbViewport
 10
0.0
 20
0.0
 30
0.0
 40
8.4
 41
6.4
 68
     1
 69
     1
 12
0.0
 22
1.2045119576
 13
0.0
 23
0.0
 14
0.5
 24
0.5
 15
0.5
 25
0.5
 16
0.0
 26
0.0
 36
1.0
 17
0.0
 27
0.0
 37
0.0
 42
50.0
 43
0.0
 44
0.0
 45
4.5251806385
 50
0.0
 51
0.0
 72
   100
 90
   557152
  1

281
     0
 71
     1
 74
     0
110
0.0
120
0.0
130
0.0
111
1.0
121
0.0
131
0.0
112
0.0
122
1.0
132
0.0
 79
     0
146
0.0
  0
ENDBLK
  5
21D
330
21A
100
AcDbEntity
  8
0
100
AcDbBlockEnd
  0
BLOCK
  5
258
330
256
100
AcDbEntity
  8
0
100
AcDbBlockBegin
  2
*Paper_Space7
 70
     0
 10
0.0
 20
0.0
 30
0.0
  3
*Paper_Space7
  1

  0
LWPOLYLINE
  5
263
330
256
100
AcDbEntity
  8
0
  6
Continuous
 62
     7
370
    25
100
AcDbPolyline
 90
       31
 70
   128
 43
0.0
 10
-1.7206923645
 20
2.0084618505
 10
-1.7308580168
 20
1.99509738
 10
-1.7495181883
 20
1.9661656587
 10
-1.7638287818
 20
1.9369598576
 10
-1.7737542191
 20
1.9075525869
 10
-1.7792698239
 20
1.8780169576
 10
-1.7803618836
 20
1.8484264001
 10
-1.7770276832
 20
1.8188544811
 10
-1.7692755119
 20
1.789374721
 10
-1.757124643
 20
1.7600604112
 10
-1.7406052853
 20
1.7309844316
 10
-1.7197585086
 20
1.7022190698
 10
-1.6946361413
 20
1.673835841
 10
-1.6653006415
 20
1.6459053103
 10
-1.631824942
 20
1.6184969174
 10
-1.5942922685
 20
1.591678804
 10
-1.5527959333
 20
1.565517644
 10
-1.5074391027
 20
1.5400784783
 10
-1.458334541
 20
1.5154245526
 10
-1.4056043298
 20
1.4916171605
 10
-1.3493795648
 20
1.4687154908
 10
-1.2898000296
 20
1.4467764808
 10
-1.2270138483
 20
1.4258546743
 10
-1.1611771173
 20
1.4060020861
 10
-1.0924535169
 20
1.3872680731
 10
-1.021013905
 20
1.3696992108
 10
-0.9470358917
 20
1.3533391782
 10
-0.8707033979
 20
1.3382286489
 10
-0.7922061983
 20
1.3244051902
 10
-0.7117394492
 20
1.3119031692
 10
-0.6295032037
 20
1.300753668
  0
LWPOLYLINE
  5
264
330
256
100
AcDbEntity
  8
0
  6
Continuous
 62
     7
370
    25
100
AcDbPolyline
 90
       45
 70
   128
 43
0.0
 10
-0.6295032037
 20
1.300753668
 10
-0.5457019141
 20
1.2909844061
 10
-0.4605439236
 20
1.2826196712
 10
-0.3742409482
 20
1.2756802596
 10
-0.287007551
 20
1.2701834235
 10
-0.1990606077
 20
1.2661428292
 10
-0.1106187684
 20
1.263568522
 10
-0.0219019134
 20
1.2624669022
 10
0.0668693932
 20
1.2628407085
 10
0.155474452
 20
1.2646890116
 10
0.2436929768
 20
1.2680072163
 10
0.3313056424
 20
1.2727870731
 10
0.41809463
 20
1.2790166985
 10
0.5038441685
 20
1.2866806045
 10
0.588341071
 20
1.2957597377
 10
0.6713752649
 20
1.3062315257
 10
0.7527403141
 20
1.3180699341
 10
0.8322339323
 20
1.3312455308
 10
0.9096584857
 20
1.3457255591
 10
0.9848214849
 20
1.3614740193
 10
1.0575360627
 20
1.3784517585
 10
1.1276214392
 20
1.3966165671
 10
1.1949033711
 20
1.4159232847
 10
1.259214585
 20
1.4363239116
 10
1.320395193
 20
1.4577677288
 10
1.3782930906
 20
1.4802014235
 10
1.4327643343
 20
1.503569222
 10
1.4836735002
 20
1.5278130283
 10
1.5308940199
 20
1.5528725684
 10
1.5743084959
 20
1.5786855405
 10
1.613808993
 20
1.6051877693
 10
1.6492973066
 20
1.6323133662
 10
1.6806852072
 20
1.6599948926
 10
1.7078946596
 20
1.6881635279
 10
1.7308580168
 20
1.7167492405
 10
1.7495181883
 20
1.7456809618
 10
1.7638287818
 20
1.7748867629
 10
1.7737542191
 20
1.8042940336
 10
1.7792698239
 20
1.8338296629
 10
1.7803618836
 20
1.8634202204
 10
1.7770276832
 20
1.8929921394
 10
1.7692755119
 20
1.9224718995
 10
1.757124643
 20
1.9517862093
 10
1.7406052853
 20
1.9808621889
 10
1.7206923645
 20
2.0084618505
  0
LWPOLYLINE
  5
266
330
256
100
AcDbEntity
  8
0
  6
Continuous
 62
     7
370
    25
100
AcDbPolyline
 90
       53
 70
   128
 43
0.0
 10
-1.6495968663
 20
1.7841222772
 10
-1.6440026903
 20
1.771055131
 10
-1.6287161659
 20
1.7429572548
 10
-1.6091105791
 20
1.7151589442
 10
-1.5852379202
 20
1.6877339155
 10
-1.5571614954
 20
1.6607548948
 10
-1.5249557582
 20
1.6342934257
 10
-1.4887061125
 20
1.6084196792
 10
-1.4485086858
 20
1.5832022678
 10
-1.4044700745
 20
1.5587080636
 10
-1.356707061
 20
1.5350020207
 10
-1.3053463043
 20
1.5121470035
 10
-1.2505240038
 20
1.4902036192
 10
-1.1923855385
 20
1.4692300578
 10
-1.1310850811
 20
1.4492819374
 10
-1.0667851894
 20
1.4304121568
 10
-0.9996563752
 20
1.4126707553
 10
-0.9298766519
 20
1.3961047799
 10
-0.857631063
 20
1.3807581606
 10
-0.7831111906
 20
1.3666715938
 10
-0.7065146481
 20
1.3538824346
 10
-0.6280445558
 20
1.3424245976
 10
-0.5479090023
 20
1.3323284668
 10
-0.4663204925
 20
1.3236208155
 10
-0.3834953847
 20
1.3163247347
 10
-0.299653316
 20
1.3104595723
 10
-0.2150166206
 20
1.3060408816
 10
-0.1298097398
 20
1.3030803803
 10
-0.0442586269
 20
1.3015859191
 10
0.041409852
 20
1.301561461
 10
0.1269685193
 20
1.3030070709
 10
0.212190489
 20
1.3059189152
 10
0.2968497676
 20
1.3102892723
 10
0.380721854
 20
1.3161065528
 10
0.4635843345
 20
1.3233553303
 10
0.5452174727
 20
1.3320163823
 10
0.6254047922
 20
1.3420667413
 10
0.7039336506
 20
1.3534797556
 10
0.7805958034
 20
1.3662251598
 10
0.8551879566
 20
1.3802691555
 10
0.927512305
 20
1.3955745005
 10
0.9973770575
 20
1.4121006078
 10
1.0645969454
 20
1.4298036532
 10
1.1289937135
 20
1.4486366912
 10
1.1903965933
 20
1.4685497802
 10
1.2486427553
 20
1.4894901141
 10
1.3035777412
 20
1.511402163
 10
1.3550558733
 20
1.53422782
 10
1.4029406408
 20
1.5579065556
 10
1.4471050619
 20
1.5823755781
 10
1.4874320205
 20
1.60757
 10
1.5238145768
 20
1.6334230102
 10
1.5561562508
 20
1.6598660513
  0
LWPOLYLINE
  5
268
330
256
100
AcDbEntity
  8
0
  6
Continuous
 62
     7
370
    25
100
AcDbPolyline
 90
       43
 70
   128
 43
0.0
 10
-0.6959712412
 20
-0.2602355507
 10
-0.6088972642
 20
-0.2704348456
 10
-0.5204847988
 20
-0.2792624789
 10
-0.4309281949
 20
-0.2866990456
 10
-0.3404243173
 20
-0.2927281986
 10
-0.2491721132
 20
-0.2973366843
 10
-0.1573721747
 20
-0.3005143723
 10
-0.065226298
 20
-0.3022542775
 10
0.0270629602
 20
-0.3025525751
 10
0.1192927282
 20
-0.3014086094
 10
0.2112602649
 20
-0.2988248951
 10
0.3027634057
 20
-0.2948071117
 10
0.3936010068
 20
-0.2893640912
 10
0.4835733874
 20
-0.2825077986
 10
0.5724827689
 20
-0.2742533054
 10
0.6601337089
 20
-0.2646187568
 10
0.7463335318
 20
-0.2536253317
 10
0.8308927516
 20
-0.241297196
 10
0.9136254888
 20
-0.2276614497
 10
0.9943498789
 20
-0.2127480669
 10
1.0728884721
 20
-0.1965898307
 10
1.1490686237
 20
-0.1792222602
 10
1.222722873
 20
-0.1606835332
 10
1.2936893121
 20
-0.1410144019
 10
1.3618119413
 20
-0.1202581033
 10
1.4269410124
 20
-0.0984602641
 10
1.4889333574
 20
-0.0756688008
 10
1.5476527037
 20
-0.051933814
 10
1.6029699735
 20
-0.0273074784
 10
1.6547635674
 20
-0.0018439278
 10
1.7029196318
 20
0.0244008631
 10
1.7473323094
 20
0.0513692028
 10
1.7879039713
 20
0.0790018089
 10
1.8245454322
 20
0.1072379389
 10
1.8571761463
 20
0.1360155238
 10
1.8857243841
 20
0.1652713041
 10
1.9101273906
 20
0.1949409693
 10
1.9303315224
 20
0.224959299
 10
1.9462923666
 20
0.2552603065
 10
1.9579748379
 20
0.2857773834
 10
1.9653532554
 20
0.3164434468
 10
1.9684114
 20
0.3471910858
 10
1.968503937
 20
0.3535533906
  0
LWPOLYLINE
  5
269
330
256
100
AcDbEntity
  8
0
  6
Continuous
 62
     7
370
    25
100
AcDbPolyline
 90
       43
 70
   128
 43
0.0
 10
-0.6959712412
 20
-0.6137889413
 10
-0.6088972642
 20
-0.6239882362
 10
-0.5204847988
 20
-0.6328158695
 10
-0.4309281949
 20
-0.6402524362
 10
-0.3404243173
 20
-0.6462815892
 10
-0.2491721132
 20
-0.6508900749
 10
-0.1573721747
 20
-0.654067763
 10
-0.065226298
 20
-0.6558076681
 10
0.0270629602
 20
-0.6561059657
 10
0.1192927282
 20
-0.654962
 10
0.2112602649
 20
-0.6523782857
 10
0.3027634057
 20
-0.6483605023
 10
0.3936010068
 20
-0.6429174818
 10
0.4835733874
 20
-0.6360611892
 10
0.5724827689
 20
-0.627806696
 10
0.6601337089
 20
-0.6181721474
 10
0.7463335318
 20
-0.6071787223
 10
0.8308927516
 20
-0.5948505866
 10
0.9136254888
 20
-0.5812148403
 10
0.9943498789
 20
-0.5663014575
 10
1.0728884721
 20
-0.5501432213
 10
1.1490686237
 20
-0.5327756508
 10
1.222722873
 20
-0.5142369239
 10
1.2936893121
 20
-0.4945677925
 10
1.3618119413
 20
-0.4738114939
 10
1.4269410124
 20
-0.4520136547
 10
1.4889333574
 20
-0.4292221914
 10
1.5476527037
 20
-0.4054872046
 10
1.6029699735
 20
-0.380860869
 10
1.6547635674
 20
-0.3553973184
 10
1.7029196318
 20
-0.3291525275
 10
1.7473323094
 20
-0.3021841878
 10
1.7879039713
 20
-0.2745515817
 10
1.8245454322
 20
-0.2463154517
 10
1.8571761463
 20
-0.2175378668
 10
1.8857243841
 20
-0.1882820865
 10
1.9101273906
 20
-0.1586124213
 10
1.9303315224
 20
-0.1285940916
 10
1.9462923666
 20
-0.0982930841
 10
1.9579748379
 20
-0.0677760072
 10
1.9653532554
 20
-0.0371099438
 10
1.9684114
 20
-0.0063623048
 10
1.968503937
 20
0.0
  0
LWPOLYLINE
  5
26A
330
256
100
AcDbEntity
  8
0
  6
Continuous
 62
     7
370
    25
100
AcDbPolyline
 90
       27
 70
   128
 43
0.0
 10
-1.968503937
 20
0.3535533906
 10
-1.9681262587
 20
0.3407004624
 10
-1.964063169
 20
0.309503396
 10
-1.9555520192
 20
0.2784060905
 10
-1.9426120846
 20
0.247478973
 10
-1.9252726707
 20
0.2167920847
 10
-1.9035730465
 20
0.1864149229
 10
-1.8775623556
 20
0.1564162835
 10
-1.8472995049
 20
0.1268641052
 10
-1.8128530316
 20
0.0978253155
 10
-1.7743009473
 20
0.0693656792
 10
-1.7317305619
 20
0.0415496494
 10
-1.6852382855
 20
0.0144402219
 10
-1.6349294102
 20
-0.011901208
 10
-1.5809178719
 20
-0.0374149843
 10
-1.5233259915
 20
-0.0620433253
 10
-1.462284199
 20
-0.0857304547
 10
-1.3979307369
 20
-0.1084227276
 10
-1.3304113482
 20
-0.1300687522
 10
-1.2598789456
 20
-0.1506195065
 10
-1.1864932655
 20
-0.1700284485
 10
-1.1104205061
 20
-0.1882516223
 10
-1.0318329513
 20
-0.2052477576
 10
-0.9509085801
 20
-0.2209783628
 10
-0.8678306638
 20
-0.2354078124
 10
-0.7827873509
 20
-0.2485034277
 10
-0.6959712412
 20
-0.2602355507
  0
LWPOLYLINE
  5
26B
330
256
100
AcDbEntity
  8
0
  6
Continuous
 62
     7
370
    25
100
AcDbPolyline
 90
       27
 70
   128
 43
0.0
 10
-1.968503937
 20
0.0
 10
-1.9681262587
 20
-0.0128529282
 10
-1.964063169
 20
-0.0440499946
 10
-1.9555520192
 20
-0.0751473001
 10
-1.9426120846
 20
-0.1060744176
 10
-1.9252726707
 20
-0.1367613059
 10
-1.9035730465
 20
-0.1671384677
 10
-1.8775623556
 20
-0.1971371071
 10
-1.8472995049
 20
-0.2266892854
 10
-1.8128530316
 20
-0.2557280751
 10
-1.7743009473
 20
-0.2841877114
 10
-1.7317305619
 20
-0.3120037412
 10
-1.6852382855
 20
-0.3391131687
 10
-1.6349294102
 20
-0.3654545986
 10
-1.5809178719
 20
-0.3909683749
 10
-1.5233259915
 20
-0.4155967159
 10
-1.462284199
 20
-0.4392838453
 10
-1.3979307369
 20
-0.4619761182
 10
-1.3304113482
 20
-0.4836221428
 10
-1.2598789456
 20
-0.5041728971
 10
-1.1864932655
 20
-0.5235818391
 10
-1.1104205061
 20
-0.5418050129
 10
-1.0318329513
 20
-0.5588011482
 10
-0.9509085801
 20
-0.5745317534
 10
-0.8678306638
 20
-0.588961203
 10
-0.7827873509
 20
-0.6020568183
 10
-0.6959712412
 20
-0.6137889413
  0
LWPOLYLINE
  5
26C
330
256
100
AcDbEntity
  8
0
  6
Continuous
 62
     7
370
    25
100
AcDbPolyline
 90
       64
 70
   128
 43
0.0
 10
-1.6196804833
 20
2.9879455254
 10
-1.6481818309
 20
2.9607803926
 10
-1.6725855388
 20
2.93317547
 10
-1.6928309354
 20
2.9051993876
 10
-1.7088676877
 20
2.8769216985
 10
-1.7206559256
 20
2.8484127054
 10
-1.7281663418
 20
2.8197432862
 10
-1.7313802642
 20
2.7909847175
 10
-1.7302897024
 20
2.7622084977
 10
-1.7248973678
 20
2.7334861691
 10
-1.7152166666
 20
2.7048891398
 10
-1.7012716665
 20
2.6764885065
 10
-1.6830970369
 20
2.6483548778
 10
-1.660737963
 20
2.6205581982
 10
-1.6342500327
 20
2.5931675747
 10
-1.6036990995
 20
2.5662511047
 10
-1.5691611175
 20
2.5398757068
 10
-1.5307219538
 20
2.5141069543
 10
-1.4884771741
 20
2.4890089125
 10
-1.4425318057
 20
2.464643979
 10
-1.3930000759
 20
2.4410727289
 10
-1.3400051284
 20
2.418353764
 10
-1.283678717
 20
2.3965435673
 10
-1.2241608781
 20
2.3756963623
 10
-1.1615995824
 20
2.3558639785
 10
-1.096150367
 20
2.3370957223
 10
-1.0279759492
 20
2.3194382546
 10
-0.9572458212
 20
2.3029354746
 10
-0.8841358292
 20
2.2876284108
 10
-0.8088277363
 20
2.2735551189
 10
-0.7315087701
 20
2.2607505875
 10
-0.6523711579
 20
2.2492466506
 10
-0.5716116482
 20
2.2390719088
 10
-0.4894310219
 20
2.230251658
 10
-0.406033593
 20
2.2228078269
 10
-0.3216267005
 20
2.216758922
 10
-0.2364201935
 20
2.2121199818
 10
-0.1506259085
 20
2.2089025394
 10
-0.0644571438
 20
2.2071145939
 10
0.0218718715
 20
2.2067605904
 10
0.1081465098
 20
2.2078414091
 10
0.1941522789
 20
2.2103543628
 10
0.2796753549
 20
2.214293204
 10
0.3645031139
 20
2.21964814
 10
0.4484246607
 20
2.2264058577
 10
0.5312313531
 20
2.2345495562
 10
0.6127173207
 20
2.2440589892
 10
0.6926799764
 20
2.2549105146
 10
0.7709205206
 20
2.2670771538
 10
0.847244435
 20
2.2805286586
 10
0.9214619662
 20
2.2952315866
 10
0.9933885977
 20
2.3111493838
 10
1.0628455087
 20
2.3282424762
 10
1.1296600182
 20
2.3464683676
 10
1.193666015
 20
2.3657817456
 10
1.25470437
 20
2.3861345941
 10
1.3126233322
 20
2.4074763127
 10
1.367278906
 20
2.4297538424
 10
1.418535209
 20
2.452911798
 10
1.46626481
 20
2.476892605
 10
1.5103490456
 20
2.5016366434
 10
1.5506783155
 20
2.5270823955
 10
1.5871523548
 20
2.5531665993
 10
1.6196804833
 20
2.5798244054
  0
LWPOLYLINE
  5
26D
330
256
100
AcDbEntity
  8
0
  6
Continuous
 62
     7
370
    25
100
AcDbPolyline
 90
       64
 70
   128
 43
0.0
 10
1.6196804833
 20
2.5798244054
 10
1.6481818309
 20
2.6069895381
 10
1.6725855388
 20
2.6345944608
 10
1.6928309354
 20
2.6625705431
 10
1.7088676877
 20
2.6908482322
 10
1.7206559256
 20
2.7193572254
 10
1.7281663418
 20
2.7480266446
 10
1.7313802642
 20
2.7767852133
 10
1.7302897024
 20
2.805561433
 10
1.7248973678
 20
2.8342837617
 10
1.7152166666
 20
2.862880791
 10
1.7012716665
 20
2.8912814242
 10
1.6830970369
 20
2.919415053
 10
1.660737963
 20
2.9472117325
 10
1.6342500327
 20
2.974602356
 10
1.6036990995
 20
3.001518826
 10
1.5691611175
 20
3.027894224
 10
1.5307219538
 20
3.0536629765
 10
1.4884771741
 20
3.0787610183
 10
1.4425318057
 20
3.1031259518
 10
1.3930000759
 20
3.1266972019
 10
1.3400051284
 20
3.1494161668
 10
1.283678717
 20
3.1712263635
 10
1.2241608781
 20
3.1920735685
 10
1.1615995824
 20
3.2119059523
 10
1.096150367
 20
3.2306742085
 10
1.0279759492
 20
3.2483316762
 10
0.9572458212
 20
3.2648344562
 10
0.8841358292
 20
3.28014152
 10
0.8088277363
 20
3.2942148118
 10
0.7315087701
 20
3.3070193432
 10
0.6523711579
 20
3.3185232802
 10
0.5716116482
 20
3.328698022
 10
0.4894310219
 20
3.3375182727
 10
0.406033593
 20
3.3449621038
 10
0.3216267005
 20
3.3510110088
 10
0.2364201935
 20
3.355649949
 10
0.1506259085
 20
3.3588673914
 10
0.0644571438
 20
3.3606553369
 10
-0.0218718715
 20
3.3610093403
 10
-0.1081465098
 20
3.3599285217
 10
-0.1941522789
 20
3.3574155679
 10
-0.2796753549
 20
3.3534767268
 10
-0.3645031139
 20
3.3481217908
 10
-0.4484246607
 20
3.3413640731
 10
-0.5312313531
 20
3.3332203745
 10
-0.6127173207
 20
3.3237109416
 10
-0.6926799764
 20
3.3128594162
 10
-0.7709205206
 20
3.300692777
 10
-0.847244435
 20
3.2872412721
 10
-0.9214619662
 20
3.2725383442
 10
-0.9933885977
 20
3.2566205469
 10
-1.0628455087
 20
3.2395274545
 10
-1.1296600182
 20
3.2213015631
 10
-1.193666015
 20
3.2019881851
 10
-1.25470437
 20
3.1816353367
 10
-1.3126233322
 20
3.1602936181
 10
-1.367278906
 20
3.1380160883
 10
-1.418535209
 20
3.1148581328
 10
-1.46626481
 20
3.0908773258
 10
-1.5103490456
 20
3.0661332874
 10
-1.5506783155
 20
3.0406875352
 10
-1.5871523548
 20
3.0146033314
 10
-1.6196804833
 20
2.9879455254
  0
LWPOLYLINE
  5
26E
330
256
100
AcDbEntity
  8
0
  6
Continuous
 62
     7
370
    25
100
AcDbPolyline
 90
       14
 70
   128
 43
0.0
 10
0.0292307921
 20
2.8096641009
 10
0.0098733456
 20
2.8112468016
 10
-0.0100579039
 20
2.8112393318
 10
-0.0294046246
 20
2.8096421256
 10
-0.0470424553
 20
2.8065480069
 10
-0.0619463496
 20
2.8021367946
 10
-0.0732501472
 20
2.7966648524
 10
-0.0802969125
 20
2.7904501895
 10
-0.0826771131
 20
2.7838539797
 10
-0.0802524204
 20
2.7772595707
 10
-0.0731637487
 20
2.7710502056
 10
-0.0618230659
 20
2.76558675
 10
-0.0468894513
 20
2.7611867202
 10
-0.0292307921
 20
2.7581058299
  0
LWPOLYLINE
  5
26F
330
256
100
AcDbEntity
  8
0
  6
Continuous
 62
     7
370
    25
100
AcDbPolyline
 90
       14
 70
   128
 43
0.0
 10
-0.0292307921
 20
2.7581058299
 10
-0.0098733456
 20
2.7565231292
 10
0.0100579039
 20
2.756530599
 10
0.0294046246
 20
2.7581278052
 10
0.0470424553
 20
2.7612219239
 10
0.0619463496
 20
2.7656331361
 10
0.0732501472
 20
2.7711050784
 10
0.0802969125
 20
2.7773197412
 10
0.0826771131
 20
2.783915951
 10
0.0802524204
 20
2.79051036
 10
0.0731637487
 20
2.7967197252
 10
0.0618230659
 20
2.8021831808
 10
0.0468894513
 20
2.8065832106
 10
0.0292307921
 20
2.8096641009
  0
LWPOLYLINE
  5
270
330
256
100
AcDbEntity
  8
0
  6
Continuous
 62
     7
370
    25
100
AcDbPolyline
 90
       14
 70
   128
 43
0.0
 10
1.2218840842
 20
2.65940391
 10
1.2025266377
 20
2.6609866106
 10
1.1825953882
 20
2.6609791408
 10
1.1632486675
 20
2.6593819347
 10
1.1456108367
 20
2.656287816
 10
1.1307069425
 20
2.6518766037
 10
1.1194031449
 20
2.6464046614
 10
1.1123563796
 20
2.6401899986
 10
1.109976179
 20
2.6335937888
 10
1.1124008717
 20
2.6269993798
 10
1.1194895433
 20
2.6207900146
 10
1.1308302261
 20
2.615326559
 10
1.1457638408
 20
2.6109265292
 10
1.1634224999
 20
2.6078456389
  0
LWPOLYLINE
  5
271
330
256
100
AcDbEntity
  8
0
  6
Continuous
 62
     7
370
    25
100
AcDbPolyline
 90
       14
 70
   128
 43
0.0
 10
1.1634224999
 20
2.6078456389
 10
1.1827799465
 20
2.6062629383
 10
1.202711196
 20
2.6062704081
 10
1.2220579166
 20
2.6078676142
 10
1.2396957474
 20
2.6109617329
 10
1.2545996417
 20
2.6153729452
 10
1.2659034393
 20
2.6208448875
 10
1.2729502046
 20
2.6270595503
 10
1.2753304052
 20
2.6336557601
 10
1.2729057125
 20
2.6402501691
 10
1.2658170408
 20
2.6464595343
 10
1.254476358
 20
2.6519229899
 10
1.2395427433
 20
2.6563230197
 10
1.2218840842
 20
2.65940391
  0
LWPOLYLINE
  5
272
330
256
100
AcDbEntity
  8
0
  6
Continuous
 62
     7
370
    25
100
AcDbPolyline
 90
       14
 70
   128
 43
0.0
 10
0.480011365
 20
3.2072151982
 10
0.4606539185
 20
3.2087978988
 10
0.440722669
 20
3.208790429
 10
0.4213759483
 20
3.2071932229
 10
0.4037381176
 20
3.2040991042
 10
0.3888342233
 20
3.1996878919
 10
0.3775304257
 20
3.1942159496
 10
0.3704836604
 20
3.1880012868
 10
0.3681034598
 20
3.181405077
 10
0.3705281525
 20
3.174810668
 10
0.3776168242
 20
3.1686013028
 10
0.388957507
 20
3.1631378472
 10
0.4038911216
 20
3.1587378174
 10
0.4215497808
 20
3.1556569271
  0
LWPOLYLINE
  5
273
330
256
100
AcDbEntity
  8
0
  6
Continuous
 62
     7
370
    25
100
AcDbPolyline
 90
       14
 70
   128
 43
0.0
 10
0.4215497808
 20
3.1556569271
 10
0.4409072273
 20
3.1540742265
 10
0.4608384768
 20
3.1540816963
 10
0.4801851975
 20
3.1556789024
 10
0.4978230283
 20
3.1587730211
 10
0.5127269225
 20
3.1631842334
 10
0.5240307201
 20
3.1686561757
 10
0.5310774854
 20
3.1748708385
 10
0.533457686
 20
3.1814670483
 10
0.5310329933
 20
3.1880614573
 10
0.5239443216
 20
3.1942708225
 10
0.5126036388
 20
3.1997342781
 10
0.4976700242
 20
3.2041343079
 10
0.480011365
 20
3.2072151982
  0
LWPOLYLINE
  5
274
330
256
100
AcDbEntity
  8
0
  6
Continuous
 62
     7
370
    25
100
AcDbPolyline
 90
       14
 70
   128
 43
0.0
 10
-1.1634224999
 20
2.9599242918
 10
-1.1827799465
 20
2.9615069925
 10
-1.202711196
 20
2.9614995227
 10
-1.2220579166
 20
2.9599023165
 10
-1.2396957474
 20
2.9568081978
 10
-1.2545996417
 20
2.9523969856
 10
-1.2659034393
 20
2.9469250433
 10
-1.2729502046
 20
2.9407103805
 10
-1.2753304052
 20
2.9341141707
 10
-1.2729057125
 20
2.9275197617
 10
-1.2658170408
 20
2.9213103965
 10
-1.254476358
 20
2.9158469409
 10
-1.2395427433
 20
2.9114469111
 10
-1.2218840842
 20
2.9083660208
  0
LWPOLYLINE
  5
275
330
256
100
AcDbEntity
  8
0
  6
Continuous
 62
     7
370
    25
100
AcDbPolyline
 90
       14
 70
   128
 43
0.0
 10
-1.2218840842
 20
2.9083660208
 10
-1.2025266377
 20
2.9067833201
 10
-1.1825953882
 20
2.9067907899
 10
-1.1632486675
 20
2.9083879961
 10
-1.1456108367
 20
2.9114821148
 10
-1.1307069425
 20
2.9158933271
 10
-1.1194031449
 20
2.9213652693
 10
-1.1123563796
 20
2.9275799322
 10
-1.109976179
 20
2.934176142
 10
-1.1124008717
 20
2.940770551
 10
-1.1194895433
 20
2.9469799161
 10
-1.1308302261
 20
2.9524433717
 10
-1.1457638408
 20
2.9568434015
 10
-1.1634224999
 20
2.9599242918
  0
LWPOLYLINE
  5
276
330
256
100
AcDbEntity
  8
0
  6
Continuous
 62
     7
370
    25
100
AcDbPolyline
 90
       14
 70
   128
 43
0.0
 10
-0.4215497808
 20
2.4121130037
 10
-0.4409072273
 20
2.4136957043
 10
-0.4608384768
 20
2.4136882345
 10
-0.4801851975
 20
2.4120910283
 10
-0.4978230283
 20
2.4089969097
 10
-0.5127269225
 20
2.4045856974
 10
-0.5240307201
 20
2.3991137551
 10
-0.5310774854
 20
2.3928990923
 10
-0.533457686
 20
2.3863028825
 10
-0.5310329933
 20
2.3797084735
 10
-0.5239443216
 20
2.3734991083
 10
-0.5126036388
 20
2.3680356527
 10
-0.4976700242
 20
2.3636356229
 10
-0.480011365
 20
2.3605547326
  0
LWPOLYLINE
  5
277
330
256
100
AcDbEntity
  8
0
  6
Continuous
 62
     7
370
    25
100
AcDbPolyline
 90
       14
 70
   128
 43
0.0
 10
-0.480011365
 20
2.3605547326
 10
-0.4606539185
 20
2.3589720319
 10
-0.440722669
 20
2.3589795017
 10
-0.4213759483
 20
2.3605767079
 10
-0.4037381176
 20
2.3636708266
 10
-0.3888342233
 20
2.3680820389
 10
-0.3775304257
 20
2.3735539811
 10
-0.3704836604
 20
2.379768644
 10
-0.3681034598
 20
2.3863648538
 10
-0.3705281525
 20
2.3929592628
 10
-0.3776168242
 20
2.399168628
 10
-0.388957507
 20
2.4046320835
 10
-0.4038911216
 20
2.4090321133
 10
-0.4215497808
 20
2.4121130037
  0
LWPOLYLINE
  5
278
330
256
100
AcDbEntity
  8
0
  6
Continuous
 62
     7
370
    25
100
AcDbPolyline
 90
       50
 70
   128
 43
0.0
 10
1.8413668243
 20
1.9936328198
 10
1.8694820271
 20
1.9671349581
 10
1.896322966
 20
1.9377001487
 10
1.9189953754
 20
1.9078783262
 10
1.9374494166
 20
1.8777350455
 10
1.9516445234
 20
1.8473365679
 10
1.961549492
 20
1.8167497159
 10
1.9671425491
 20
1.7860417261
 10
1.9684114
 20
1.7552801013
 10
1.9653532554
 20
1.7245324623
 10
1.9579748379
 20
1.6938663989
 10
1.9462923666
 20
1.663349322
 10
1.9303315224
 20
1.6330483145
 10
1.9101273906
 20
1.6030299848
 10
1.8857243841
 20
1.5733603196
 10
1.8571761463
 20
1.5441045393
 10
1.8245454322
 20
1.5153269544
 10
1.7879039713
 20
1.4870908244
 10
1.7473323094
 20
1.4594582183
 10
1.7029196318
 20
1.4324898786
 10
1.6547635674
 20
1.4062450877
 10
1.6029699735
 20
1.3807815371
 10
1.5476527037
 20
1.3561552015
 10
1.4889333574
 20
1.3324202147
 10
1.4269410124
 20
1.3096287514
 10
1.3618119413
 20
1.2878309122
 10
1.2936893121
 20
1.2670746136
 10
1.222722873
 20
1.2474054822
 10
1.1490686237
 20
1.2288667553
 10
1.0728884721
 20
1.2114991848
 10
0.9943498789
 20
1.1953409486
 10
0.9136254888
 20
1.1804275658
 10
0.8308927516
 20
1.1667918194
 10
0.7463335318
 20
1.1544636838
 10
0.6601337089
 20
1.1434702587
 10
0.5724827689
 20
1.1338357101
 10
0.4835733874
 20
1.1255812169
 10
0.3936010068
 20
1.1187249243
 10
0.3027634057
 20
1.1132819038
 10
0.2112602649
 20
1.1092641204
 10
0.1192927282
 20
1.1066804061
 10
0.0270629602
 20
1.1055364404
 10
-0.065226298
 20
1.105834738
 10
-0.1573721747
 20
1.1075746431
 10
-0.2491721132
 20
1.1107523312
 10
-0.3404243173
 20
1.1153608169
 10
-0.4309281949
 20
1.1213899698
 10
-0.5204847988
 20
1.1288265366
 10
-0.6088972642
 20
1.1376541699
 10
-0.6959712412
 20
1.1478534648
  0
LWPOLYLINE
  5
27A
330
256
100
AcDbEntity
  8
0
  6
Continuous
 62
     7
370
    25
100
AcDbPolyline
 90
       49
 70
   128
 43
0.0
 10
-0.6606159021
 20
1.2733148472
 10
-0.5754011012
 20
1.2633563395
 10
-0.4888424243
 20
1.2547817993
 10
-0.4011420334
 20
1.2476112531
 10
-0.3125047566
 20
1.2418614478
 10
-0.2231376105
 20
1.2375458125
 10
-0.1332493161
 20
1.2346744264
 10
-0.0430498118
 20
1.233253996
 10
0.0472502373
 20
1.2332878385
 10
0.1374399314
 20
1.2347758751
 10
0.2273086281
 20
1.2377146302
 10
0.3166464349
 20
1.2420972404
 10
0.4052446994
 20
1.2479134698
 10
0.492896496
 20
1.2551497344
 10
0.5793971101
 20
1.2637891335
 10
0.6645445153
 20
1.2738114894
 10
0.7481398461
 20
1.2851933944
 10
0.8299878616
 20
1.2979082656
 10
0.9098974019
 20
1.3119264067
 10
0.9876818348
 20
1.3272150779
 10
1.0631594909
 20
1.3437385716
 10
1.1361540888
 20
1.3614582965
 10
1.2064951462
 20
1.3803328674
 10
1.2740183782
 20
1.4003182018
 10
1.3385660813
 20
1.421367623
 10
1.3999875013
 20
1.4434319692
 10
1.4581391856
 20
1.466459708
 10
1.5128853183
 20
1.4903970571
 10
1.5640980372
 20
1.5151881097
 10
1.6116577327
 20
1.5407749651
 10
1.6554533269
 20
1.5670978641
 10
1.6953825331
 20
1.5940953284
 10
1.7313520948
 20
1.621704304
 10
1.7632780035
 20
1.6498603089
 10
1.7910856948
 20
1.6784975836
 10
1.8147102224
 20
1.7075492442
 10
1.8340964102
 20
1.7369474393
 10
1.8491989808
 20
1.7666235082
 10
1.8599826616
 20
1.7965081408
 10
1.8664222666
 20
1.8265315403
 10
1.868502756
 20
1.8566235857
 10
1.8662192706
 20
1.8867139955
 10
1.8595771436
 20
1.9167324922
 10
1.8485918881
 20
1.9466089663
 10
1.8332891605
 20
1.9762736399
 10
1.8137047012
 20
2.0056572296
 10
1.7898842504
 20
2.0346911089
 10
1.7618834421
 20
2.0633074677
 10
1.7376516943
 20
2.0849001533
  0
LWPOLYLINE
  5
27B
330
256
100
AcDbEntity
  8
0
  6
Continuous
 62
     7
370
    25
100
AcDbPolyline
 90
       43
 70
   128
 43
0.0
 10
1.968503937
 20
0.3535533906
 10
1.9684114
 20
0.3471910858
 10
1.9653532554
 20
0.3164434468
 10
1.9579748379
 20
0.2857773834
 10
1.9462923666
 20
0.2552603065
 10
1.9303315224
 20
0.224959299
 10
1.9101273906
 20
0.1949409693
 10
1.8857243841
 20
0.1652713041
 10
1.8571761463
 20
0.1360155238
 10
1.8245454322
 20
0.1072379389
 10
1.7879039713
 20
0.0790018089
 10
1.7473323094
 20
0.0513692028
 10
1.7029196318
 20
0.0244008631
 10
1.6547635674
 20
-0.0018439278
 10
1.6029699735
 20
-0.0273074784
 10
1.5476527037
 20
-0.051933814
 10
1.4889333574
 20
-0.0756688008
 10
1.4269410124
 20
-0.0984602641
 10
1.3618119413
 20
-0.1202581033
 10
1.2936893121
 20
-0.1410144019
 10
1.222722873
 20
-0.1606835332
 10
1.1490686237
 20
-0.1792222602
 10
1.0728884721
 20
-0.1965898307
 10
0.9943498789
 20
-0.2127480669
 10
0.9136254888
 20
-0.2276614497
 10
0.8308927516
 20
-0.241297196
 10
0.7463335318
 20
-0.2536253317
 10
0.6601337089
 20
-0.2646187568
 10
0.5724827689
 20
-0.2742533054
 10
0.4835733874
 20
-0.2825077986
 10
0.3936010068
 20
-0.2893640912
 10
0.3027634057
 20
-0.2948071117
 10
0.2112602649
 20
-0.2988248951
 10
0.1192927282
 20
-0.3014086094
 10
0.0270629602
 20
-0.3025525751
 10
-0.065226298
 20
-0.3022542775
 10
-0.1573721747
 20
-0.3005143723
 10
-0.2491721132
 20
-0.2973366843
 10
-0.3404243173
 20
-0.2927281986
 10
-0.4309281949
 20
-0.2866990456
 10
-0.5204847988
 20
-0.2792624789
 10
-0.6088972642
 20
-0.2704348456
 10
-0.6959712412
 20
-0.2602355507
  0
LWPOLYLINE
  5
27D
330
256
100
AcDbEntity
  8
0
  6
Continuous
 62
     7
370
    25
100
AcDbPolyline
 90
       34
 70
   128
 43
0.0
 10
-1.7376516943
 20
2.0849001533
 10
-1.7632780035
 20
2.0619863116
 10
-1.7910856948
 20
2.033349037
 10
-1.8147102224
 20
2.0042973763
 10
-1.8340964102
 20
1.9748991812
 10
-1.8491989808
 20
1.9452231124
 10
-1.8599826616
 20
1.9153384797
 10
-1.8664222666
 20
1.8853150802
 10
-1.868502756
 20
1.8552230349
 10
-1.8662192706
 20
1.825132625
 10
-1.8595771436
 20
1.7951141283
 10
-1.8485918881
 20
1.7652376542
 10
-1.8332891605
 20
1.7355729806
 10
-1.8137047012
 20
1.7061893909
 10
-1.7898842504
 20
1.6771555116
 10
-1.7618834421
 20
1.6485391528
 10
-1.7297676734
 20
1.6204071493
 10
-1.6936119521
 20
1.5928252048
 10
-1.6535007216
 20
1.565857738
 10
-1.6095276636
 20
1.5395677328
 10
-1.5617954791
 20
1.5140165908
 10
-1.510415649
 20
1.4892639877
 10
-1.4555081731
 20
1.4653677345
 10
-1.3972012904
 20
1.4423836419
 10
-1.3356311794
 20
1.4203653903
 10
-1.2709416398
 20
1.3993644045
 10
-1.2032837572
 20
1.3794297331
 10
-1.1328155496
 20
1.3606079346
 10
-1.0597015988
 20
1.3429429681
 10
-0.9841126658
 20
1.3264760909
 10
-0.9062252921
 20
1.3112457623
 10
-0.8262213872
 20
1.2972875533
 10
-0.744287804
 20
1.284634064
 10
-0.6606159021
 20
1.2733148472
  0
LWPOLYLINE
  5
27E
330
256
100
AcDbEntity
  8
0
  6
Continuous
 62
     7
370
    25
100
AcDbPolyline
 90
       31
 70
   128
 43
0.0
 10
-0.6295032037
 20
1.300753668
 10
-0.7117394492
 20
1.3119031692
 10
-0.7922061983
 20
1.3244051902
 10
-0.8707033979
 20
1.3382286489
 10
-0.9470358917
 20
1.3533391782
 10
-1.021013905
 20
1.3696992108
 10
-1.0924535169
 20
1.3872680731
 10
-1.1611771173
 20
1.4060020861
 10
-1.2270138483
 20
1.4258546743
 10
-1.2898000296
 20
1.4467764808
 10
-1.3493795648
 20
1.4687154908
 10
-1.4056043298
 20
1.4916171605
 10
-1.458334541
 20
1.5154245526
 10
-1.5074391027
 20
1.5400784783
 10
-1.5527959333
 20
1.565517644
 10
-1.5942922685
 20
1.591678804
 10
-1.631824942
 20
1.6184969174
 10
-1.6653006415
 20
1.6459053103
 10
-1.6946361413
 20
1.673835841
 10
-1.7197585086
 20
1.7022190698
 10
-1.7406052853
 20
1.7309844316
 10
-1.757124643
 20
1.7600604112
 10
-1.7692755119
 20
1.789374721
 10
-1.7770276832
 20
1.8188544811
 10
-1.7803618836
 20
1.8484264001
 10
-1.7792698239
 20
1.8780169576
 10
-1.7737542191
 20
1.9075525869
 10
-1.7638287818
 20
1.9369598576
 10
-1.7495181883
 20
1.9661656587
 10
-1.7308580168
 20
1.99509738
 10
-1.7206923645
 20
2.0084618505
  0
LWPOLYLINE
  5
27F
330
256
100
AcDbEntity
  8
0
  6
Continuous
 62
     7
370
    25
100
AcDbPolyline
 90
       45
 70
   128
 43
0.0
 10
1.7206923645
 20
2.0084618505
 10
1.7406052853
 20
1.9808621889
 10
1.757124643
 20
1.9517862093
 10
1.7692755119
 20
1.9224718995
 10
1.7770276832
 20
1.8929921394
 10
1.7803618836
 20
1.8634202204
 10
1.7792698239
 20
1.8338296629
 10
1.7737542191
 20
1.8042940336
 10
1.7638287818
 20
1.7748867629
 10
1.7495181883
 20
1.7456809618
 10
1.7308580168
 20
1.7167492405
 10
1.7078946596
 20
1.6881635279
 10
1.6806852072
 20
1.6599948926
 10
1.6492973066
 20
1.6323133662
 10
1.613808993
 20
1.6051877693
 10
1.5743084959
 20
1.5786855405
 10
1.5308940199
 20
1.5528725684
 10
1.4836735002
 20
1.5278130283
 10
1.4327643343
 20
1.503569222
 10
1.3782930906
 20
1.4802014235
 10
1.320395193
 20
1.4577677288
 10
1.259214585
 20
1.4363239116
 10
1.1949033711
 20
1.4159232847
 10
1.1276214392
 20
1.3966165671
 10
1.0575360627
 20
1.3784517585
 10
0.9848214849
 20
1.3614740193
 10
0.9096584857
 20
1.3457255591
 10
0.8322339323
 20
1.3312455308
 10
0.7527403141
 20
1.3180699341
 10
0.6713752649
 20
1.3062315257
 10
0.588341071
 20
1.2957597377
 10
0.5038441685
 20
1.2866806045
 10
0.41809463
 20
1.2790166985
 10
0.3313056424
 20
1.2727870731
 10
0.2436929768
 20
1.2680072163
 10
0.155474452
 20
1.2646890116
 10
0.0668693932
 20
1.2628407085
 10
-0.0219019134
 20
1.2624669022
 10
-0.1106187684
 20
1.263568522
 10
-0.1990606077
 20
1.2661428292
 10
-0.287007551
 20
1.2701834235
 10
-0.3742409482
 20
1.2756802596
 10
-0.4605439236
 20
1.2826196712
 10
-0.5457019141
 20
1.2909844061
 10
-0.6295032037
 20
1.300753668
  0
LWPOLYLINE
  5
280
330
256
100
AcDbEntity
  8
0
  6
Continuous
 62
     7
370
    25
100
AcDbPolyline
 90
       35
 70
   128
 43
0.0
 10
-0.6959712412
 20
1.1478534648
 10
-0.7815153223
 20
1.159402001
 10
-0.8653414632
 20
1.1722743924
 10
-0.9472653958
 20
1.1864423425
 10
-1.0271070334
 20
1.2018747072
 10
-1.1046908668
 20
1.2185375628
 10
-1.17984635
 20
1.2363942807
 10
-1.2524082748
 20
1.255405608
 10
-1.3222171345
 20
1.2755297536
 10
-1.3891194739
 20
1.2967224803
 10
-1.4529682272
 20
1.318937202
 10
-1.5136230411
 20
1.3421250857
 10
-1.570950583
 20
1.3662351596
 10
-1.6248248345
 20
1.3912144244
 10
-1.6751273685
 20
1.4170079703
 10
-1.7217476089
 20
1.4435590975
 10
-1.7645830745
 20
1.4708094409
 10
-1.8035396034
 20
1.4986990982
 10
-1.838531561
 20
1.527166762
 10
-1.8694820271
 20
1.5561498541
 10
-1.896322966
 20
1.5855846635
 10
-1.9189953754
 20
1.615406486
 10
-1.9374494166
 20
1.6455497667
 10
-1.9516445234
 20
1.6759482443
 10
-1.961549492
 20
1.7065350963
 10
-1.9671425491
 20
1.7372430861
 10
-1.9684114
 20
1.7680047109
 10
-1.9653532554
 20
1.7987523499
 10
-1.9579748379
 20
1.8294184133
 10
-1.9462923666
 20
1.8599354902
 10
-1.9303315224
 20
1.8902364977
 10
-1.9101273906
 20
1.9202548274
 10
-1.8857243841
 20
1.9499244926
 10
-1.8571761463
 20
1.9791802729
 10
-1.8413668243
 20
1.9936328198
  0
LWPOLYLINE
  5
281
330
256
100
AcDbEntity
  8
0
  6
Continuous
 62
     7
370
    25
100
AcDbPolyline
 90
       27
 70
   128
 43
0.0
 10
-0.6959712412
 20
-0.2602355507
 10
-0.7815153223
 20
-0.2486870145
 10
-0.8653414632
 20
-0.2358146231
 10
-0.9472653958
 20
-0.221646673
 10
-1.0271070334
 20
-0.2062143083
 10
-1.1046908668
 20
-0.1895514527
 10
-1.17984635
 20
-0.1716947348
 10
-1.2524082748
 20
-0.1526834075
 10
-1.3222171345
 20
-0.1325592619
 10
-1.3891194739
 20
-0.1113665352
 10
-1.4529682272
 20
-0.0891518135
 10
-1.5136230411
 20
-0.0659639298
 10
-1.570950583
 20
-0.0418538559
 10
-1.6248248345
 20
-0.0168745911
 10
-1.6751273685
 20
0.0089189548
 10
-1.7217476089
 20
0.035470082
 10
-1.7645830745
 20
0.0627204254
 10
-1.8035396034
 20
0.0906100827
 10
-1.838531561
 20
0.1190777465
 10
-1.8694820271
 20
0.1480608386
 10
-1.896322966
 20
0.177495648
 10
-1.9189953754
 20
0.2073174705
 10
-1.9374494166
 20
0.2374607512
 10
-1.9516445234
 20
0.2678592288
 10
-1.961549492
 20
0.2984460808
 10
-1.9671425491
 20
0.3291540706
 10
-1.968503937
 20
0.3535533906
  0
LINE
  5
288
330
256
100
AcDbEntity
  8
0
  6
Continuous
 62
     7
370
    25
100
AcDbLine
 10
1.968503937
 20
0.0
 30
0.0
 11
1.968503937
 21
1.7616424061
 31
0.0
  0
LINE
  5
289
330
256
100
AcDbEntity
  8
0
  6
Continuous
 62
     7
370
    25
100
AcDbLine
 10
-1.968503937
 20
1.7616424061
 30
0.0
 11
-1.968503937
 21
0.0
 31
0.0
  0
LINE
  5
28A
330
256
100
AcDbEntity
  8
0
  6
Continuous
 62
     7
370
    25
100
AcDbLine
 10
1.8413668243
 20
1.9936328198
 30
0.0
 11
1.7478253896
 21
2.0761286109
 31
0.0
  0
LINE
  5
28B
330
256
100
AcDbEntity
  8
0
  6
Continuous
 62
     7
370
    25
100
AcDbLine
 10
-1.7478253896
 20
2.0761286109
 30
0.0
 11
-1.8413668243
 21
1.9936328198
 31
0.0
  0
LINE
  5
28C
330
256
100
AcDbEntity
  8
0
  6
Continuous
 62
     7
370
    25
100
AcDbLine
 10
-0.6959712412
 20
1.1478534648
 30
0.0
 11
-0.6959712412
 21
-0.6137889413
 31
0.0
  0
LINE
  5
28D
330
256
100
AcDbEntity
  8
0
  6
Continuous
 62
     7
370
    25
100
AcDbLine
 10
-0.6606159021
 20
1.2733148472
 30
0.0
 11
-0.6959712412
 21
1.1478534648
 31
0.0
  0
LINE
  5
28E
330
256
100
AcDbEntity
  8
0
  6
Continuous
 62
     8
370
    25
100
AcDbLine
 10
-0.4215497808
 20
2.3605547326
 30
0.0
 11
-0.4215497808
 21
2.4121130037
 31
0.0
  0
LINE
  5
28F
330
256
100
AcDbEntity
  8
0
  6
Continuous
 62
     8
370
    25
100
AcDbLine
 10
1.2218840842
 20
2.6078456389
 30
0.0
 11
1.2218840842
 21
2.65940391
 31
0.0
  0
LINE
  5
290
330
256
100
AcDbEntity
  8
0
  6
Continuous
 62
     8
370
    25
100
AcDbLine
 10
0.0292307921
 20
2.7581058299
 30
0.0
 11
0.0292307921
 21
2.8096641009
 31
0.0
  0
LINE
  5
291
330
256
100
AcDbEntity
  8
0
  6
Continuous
 62
     8
370
    25
100
AcDbLine
 10
-1.1634224999
 20
2.9083660208
 30
0.0
 11
-1.1634224999
 21
2.9599242918
 31
0.0
  0
LINE
  5
292
330
256
100
AcDbEntity
  8
0
  6
Continuous
 62
     8
370
    25
100
AcDbLine
 10
0.480011365
 20
3.1556569271
 30
0.0
 11
0.480011365
 21
3.2072151982
 31
0.0
  0
ARC
  5
293
330
256
100
AcDbEntity
  8
0
  6
Continuous
 62
     7
370
    25
100
AcDbCircle
 10
0.0
 20
2.4303315748
 30
0.0
 40
1.771653543307064
100
AcDbArc
 50
167.0261454083
 51
201.3921518125
  0
ARC
  5
294
330
256
100
AcDbEntity
  8
0
  6
Continuous
 62
     7
370
    25
100
AcDbCircle
 10
0.0
 20
2.4303315748
 30
0.0
 40
1.771653543307225
100
AcDbArc
 50
338.6078481875
 51
12.9738545917
  0
ARC
  5
295
330
256
100
AcDbEntity
  8
0
  6
Continuous
 62
     7
370
    25
100
AcDbCircle
 10
1.3506182199
 20
1.9116923
 30
0.0
 40
0.3250574436426147
100
AcDbArc
 50
309.2209746411
 51
336.8927327804
  0
ARC
  5
296
330
256
100
AcDbEntity
  8
0
  6
Continuous
 62
     8
370
    25
100
AcDbCircle
 10
0.0201848903
 20
2.2280991133
 30
0.0
 40
1.637710851549004
100
AcDbArc
 50
339.6980311551
 51
12.4018238844
  0
VIEWPORT
  5
2A7
330
256
100
AcDbEntity
  8
0
100
AcDbViewport
 10
0.0
 20
0.0
 30
0.0
 40
8.4
 41
6.4
 68
     1
 69
     1
 12
0.0
 22
1.2045119576
 13
0.0
 23
0.0
 14
0.5
 24
0.5
 15
0.5
 25
0.5
 16
0.0
 26
0.0
 36
1.0
 17
0.0
 27
0.0
 37
0.0
 42
50.0
 43
0.0
 44
0.0
 45
4.5251806385
 50
0.0
 51
0.0
 72
   100
 90
   557152
  1

281
     0
 71
     1
 74
     0
110
0.0
120
0.0
130
0.0
111
1.0
121
0.0
131
0.0
112
0.0
122
1.0
132
0.0
 79
     0
146
0.0
  0
ENDBLK
  5
259
330
256
100
AcDbEntity
  8
0
100
AcDbBlockEnd
  0
ENDSEC
  0
SECTION
  2
ENTITIES
  0
LWPOLYLINE
  5
79
330
1F
100
AcDbEntity
  8
0
  6
Continuous
 62
     7
370
    25
100
AcDbPolyline
 90
       28
 70
   128
 43
0.0
 10
-1.7407409224
 20
1.8800573452
 10
-1.7409096709
 20
1.8796525802
 10
-1.7573580519
 20
1.834719963
 10
-1.7694373639
 20
1.7894209291
 10
-1.7771175758
 20
1.743868099
 10
-1.7803795935
 20
1.6981747242
 10
-1.7792153069
 20
1.6524544055
 10
-1.7736276108
 20
1.6068208111
 10
-1.7636303969
 20
1.561387393
 10
-1.74924852
 20
1.5162671061
 10
-1.7305177357
 20
1.4715721263
 10
-1.7074846116
 20
1.4274135726
 10
-1.6802064117
 20
1.3839012299
 10
-1.648750954
 20
1.3411432769
 10
-1.6131964416
 20
1.2992460166
 10
-1.5736312687
 20
1.2583136121
 10
-1.5301538005
 20
1.2184478279
 10
-1.4828721288
 20
1.1797477765
 10
-1.4319038034
 20
1.1423096724
 10
-1.3773755395
 20
1.1062265927
 10
-1.319422903
 20
1.0715882455
 10
-1.2581899733
 20
1.0384807472
 10
-1.1938289851
 20
1.0069864083
 10
-1.1264999499
 20
0.9771835287
 10
-1.0563702583
 20
0.9491462031
 10
-0.9836142639
 20
0.9229441366
 10
-0.9084128494
 20
0.8986424717
 10
-0.8309529774
 20
0.8763016261
  0
LWPOLYLINE
  5
7A
330
1F
100
AcDbEntity
  8
0
  6
Continuous
 62
     7
370
    25
100
AcDbPolyline
 90
       47
 70
   128
 43
0.0
 10
-0.8309529774
 20
0.8763016261
 10
-0.7514272254
 20
0.8559771429
 10
-0.6700333069
 20
0.8377195517
 10
-0.58697358
 20
0.8215742439
 10
-0.5024545443
 20
0.8075813592
 10
-0.4166863275
 20
0.7957756862
 10
-0.3298821628
 20
0.7861865755
 10
-0.2422578591
 20
0.7788378674
 10
-0.1540312641
 20
0.7737478317
 10
-0.0654217232
 20
0.7709291232
 10
0.0233504664
 20
0.7703887495
 10
0.1120646031
 20
0.7721280542
 10
0.2005001296
 20
0.7761427131
 10
0.2884371811
 20
0.782422745
 10
0.3756571324
 20
0.7909525369
 10
0.4619431408
 20
0.8017108823
 10
0.5470806858
 20
0.8146710342
 10
0.630858102
 20
0.8298007718
 10
0.7130671056
 20
0.8470624801
 10
0.793503312
 20
0.8664132437
 10
0.8719667441
 20
0.8878049536
 10
0.9482623295
 20
0.9111844267
 10
1.0222003854
 20
0.9364935379
 10
1.09359709
 20
0.9636693648
 10
1.16227494
 20
0.9926443439
 10
1.2280631913
 20
1.023346439
 10
1.2907982841
 20
1.0556993197
 10
1.3503242489
 20
1.0896225517
 10
1.4064930949
 20
1.1250317966
 10
1.4591651774
 20
1.1618390212
 10
1.5082095454
 20
1.1999527172
 10
1.5535042669
 20
1.2392781278
 10
1.5949367319
 20
1.2797174839
 10
1.632403933
 20
1.3211702468
 10
1.6658127206
 20
1.3635333585
 10
1.6950800354
 20
1.4067014975
 10
1.7201331141
 20
1.4505673412
 10
1.7409096709
 20
1.495021832
 10
1.7573580519
 20
1.5399544492
 10
1.7694373639
 20
1.5852534831
 10
1.7771175758
 20
1.6308063132
 10
1.7803795935
 20
1.6764996881
 10
1.7792153069
 20
1.7222200067
 10
1.7736276108
 20
1.7678536012
 10
1.7636303969
 20
1.8132870192
 10
1.74924852
 20
1.8584073062
 10
1.7407409224
 20
1.8800573452
  0
LWPOLYLINE
  5
7C
330
1F
100
AcDbEntity
  8
0
  6
Continuous
 62
     7
370
    25
100
AcDbPolyline
 90
       49
 70
   128
 43
0.0
 10
-1.6228237839
 20
1.4987943776
 10
-1.6176933436
 20
1.487441008
 10
-1.5955685313
 20
1.4448153095
 10
-1.569212558
 20
1.4028327356
 10
-1.5386953152
 20
1.3616046164
 10
-1.5040977289
 20
1.3212402814
 10
-1.4655115459
 20
1.2818467697
 10
-1.4230390898
 20
1.2435285457
 10
-1.3767929897
 20
1.2063872225
 10
-1.3268958822
 20
1.1705212922
 10
-1.2734800854
 20
1.1360258648
 10
-1.2166872482
 20
1.1029924159
 10
-1.1566679753
 20
1.0715085444
 10
-1.0935814267
 20
1.0416577398
 10
-1.0275948969
 20
1.0135191611
 10
-0.9588833701
 20
0.9871674267
 10
-0.887629057
 20
0.9626724166
 10
-0.8140209111
 20
0.9400990874
 10
-0.7382541282
 20
0.9195072993
 10
-0.660529628
 20
0.900951658
 10
-0.5810535221
 20
0.8844813699
 10
-0.5000365666
 20
0.8701401111
 10
-0.417693604
 20
0.8579659121
 10
-0.3342429931
 20
0.8479910567
 10
-0.2499060299
 20
0.8402419964
 10
-0.1649063608
 20
0.8347392803
 10
-0.0794693896
 20
0.8314975006
 10
0.00617832
 20
0.830525254
 10
0.0918096459
 20
0.8318251186
 10
0.1771975091
 20
0.8353936475
 10
0.2621154764
 20
0.8412213776
 10
0.3463383605
 20
0.8492928547
 10
0.4296428176
 20
0.8595866748
 10
0.5118079391
 20
0.8720755405
 10
0.592615838
 20
0.8867263336
 10
0.6718522262
 20
0.9035002028
 10
0.7493069832
 20
0.9223526668
 10
0.8247747126
 20
0.9432337323
 10
0.8980552879
 20
0.9660880264
 10
0.9689543819
 20
0.9908549437
 10
1.0372839831
 20
1.0174688068
 10
1.1028628937
 20
1.0458590404
 10
1.1655172101
 20
1.0759503588
 10
1.2250807844
 20
1.1076629652
 10
1.2813956647
 20
1.1409127635
 10
1.3343125141
 20
1.1756115812
 10
1.3836910065
 20
1.2116674033
 10
1.4294001991
 20
1.2489846161
 10
1.4713188794
 20
1.2874642612
  0
LWPOLYLINE
  5
7E
330
1F
100
AcDbEntity
  8
0
  6
Continuous
 62
     7
370
    25
100
AcDbPolyline
 90
       45
 70
   128
 43
0.0
 10
-0.9186917105
 20
-0.5752335355
 10
-0.8360782711
 20
-0.5964261329
 10
-0.7516269502
 20
-0.6156010663
 10
-0.6655233902
 20
-0.632716185
 10
-0.5779568653
 20
-0.6477338664
 10
-0.4891198658
 20
-0.6606210982
 10
-0.3992076747
 20
-0.6713495516
 10
-0.3084179384
 20
-0.679895643
 10
-0.2169502326
 20
-0.6862405864
 10
-0.1250056231
 20
-0.6903704341
 10
-0.0327862241
 20
-0.6922761078
 10
0.0595052461
 20
-0.6919534185
 10
0.1516659109
 20
-0.6894030755
 10
0.2434931811
 20
-0.6846306851
 10
0.3347852004
 20
-0.6776467379
 10
0.4253412892
 20
-0.6684665861
 10
0.5149623855
 20
-0.6571104099
 10
0.6034514828
 20
-0.6436031724
 10
0.6906140627
 20
-0.6279745656
 10
0.7762585231
 20
-0.6102589445
 10
0.8601965987
 20
-0.5904952518
 10
0.9422437755
 20
-0.5687269326
 10
1.022219696
 20
-0.5450018382
 10
1.0999485558
 20
-0.5193721216
 10
1.1752594899
 20
-0.4918941224
 10
1.2479869486
 20
-0.4626282433
 10
1.3179710611
 20
-0.431638817
 10
1.3850579873
 20
-0.398993965
 10
1.4491002553
 20
-0.3647654477
 10
1.5099570865
 20
-0.3290285069
 10
1.5674947043
 20
-0.2918617002
 10
1.6215866286
 20
-0.2533467282
 10
1.6721139535
 20
-0.2135682551
 10
1.7189656091
 20
-0.1726137228
 10
1.7620386051
 20
-0.1305731582
 10
1.801238258
 20
-0.0875389755
 10
1.8364783982
 20
-0.0436057732
 10
1.8676815603
 20
0.0011298739
 10
1.894779153
 20
0.0465696272
 10
1.9177116099
 20
0.0926136003
 10
1.9364285205
 20
0.1391605785
 10
1.9508887409
 20
0.1861082415
 10
1.9610604845
 20
0.2333533881
 10
1.9669213916
 20
0.2807921631
 10
1.968503937
 20
0.3214377378
  0
LWPOLYLINE
  5
7F
330
1F
100
AcDbEntity
  8
0
  6
Continuous
 62
     7
370
    25
100
AcDbPolyline
 90
       45
 70
   128
 43
0.0
 10
-0.9186917105
 20
-0.8966712732
 10
-0.8360782711
 20
-0.9178638706
 10
-0.7516269502
 20
-0.937038804
 10
-0.6655233902
 20
-0.9541539228
 10
-0.5779568653
 20
-0.9691716041
 10
-0.4891198658
 20
-0.982058836
 10
-0.3992076747
 20
-0.9927872893
 10
-0.3084179384
 20
-1.0013333808
 10
-0.2169502326
 20
-1.0076783241
 10
-0.1250056231
 20
-1.0118081718
 10
-0.0327862241
 20
-1.0137138456
 10
0.0595052461
 20
-1.0133911563
 10
0.1516659109
 20
-1.0108408133
 10
0.2434931811
 20
-1.0060684228
 10
0.3347852004
 20
-0.9990844756
 10
0.4253412892
 20
-0.9899043239
 10
0.5149623855
 20
-0.9785481476
 10
0.6034514828
 20
-0.9650409102
 10
0.6906140627
 20
-0.9494123034
 10
0.7762585231
 20
-0.9316966822
 10
0.8601965987
 20
-0.9119329896
 10
0.9422437755
 20
-0.8901646704
 10
1.022219696
 20
-0.866439576
 10
1.0999485558
 20
-0.8408098593
 10
1.1752594899
 20
-0.8133318602
 10
1.2479869486
 20
-0.784065981
 10
1.3179710611
 20
-0.7530765547
 10
1.3850579873
 20
-0.7204317027
 10
1.4491002553
 20
-0.6862031855
 10
1.5099570865
 20
-0.6504662447
 10
1.5674947043
 20
-0.6132994379
 10
1.6215866286
 20
-0.5747844659
 10
1.6721139535
 20
-0.5350059929
 10
1.7189656091
 20
-0.4940514606
 10
1.7620386051
 20
-0.4520108959
 10
1.801238258
 20
-0.4089767133
 10
1.8364783982
 20
-0.365043511
 10
1.8676815603
 20
-0.3203078639
 10
1.894779153
 20
-0.2748681105
 10
1.9177116099
 20
-0.2288241374
 10
1.9364285205
 20
-0.1822771592
 10
1.9508887409
 20
-0.1353294963
 10
1.9610604845
 20
-0.0880843497
 10
1.9669213916
 20
-0.0406455746
 10
1.968503937
 20
0.0
  0
LWPOLYLINE
  5
80
330
1F
100
AcDbEntity
  8
0
  6
Continuous
 62
     7
370
    25
100
AcDbPolyline
 90
       24
 70
   128
 43
0.0
 10
-1.968503937
 20
0.3214377378
 10
-1.9670688702
 20
0.2827316411
 10
-1.9612660364
 20
0.2345758609
 10
-1.9510214772
 20
0.1866167987
 10
-1.9363583937
 20
0.1389630688
 10
-1.9173099938
 20
0.0917225935
 10
-1.8939194168
 20
0.0450023595
 10
-1.8662396359
 20
-0.0010918248
 10
-1.8343333381
 20
-0.0464555688
 10
-1.7982727824
 20
-0.0909861361
 10
-1.758139636
 20
-0.1345826774
 10
-1.7140247893
 20
-0.1771464585
 10
-1.6660281504
 20
-0.2185810843
 10
-1.6142584182
 20
-0.2587927167
 10
-1.558832837
 20
-0.2976902875
 10
-1.4998769304
 20
-0.3351857045
 10
-1.4375242171
 20
-0.3711940509
 10
-1.3719159089
 20
-0.4056337778
 10
-1.3032005905
 20
-0.4384268887
 10
-1.2315338829
 20
-0.4694991164
 10
-1.1570780916
 20
-0.4987800906
 10
-1.0800018382
 20
-0.5262034983
 10
-1.0004796793
 20
-0.5517072329
 10
-0.9186917105
 20
-0.5752335355
  0
LWPOLYLINE
  5
81
330
1F
100
AcDbEntity
  8
0
  6
Continuous
 62
     7
370
    25
100
AcDbPolyline
 90
       24
 70
   128
 43
0.0
 10
-1.968503937
 20
0.0
 10
-1.9670688702
 20
-0.0387060966
 10
-1.9612660364
 20
-0.0868618769
 10
-1.9510214772
 20
-0.134820939
 10
-1.9363583937
 20
-0.182474669
 10
-1.9173099938
 20
-0.2297151443
 10
-1.8939194168
 20
-0.2764353783
 10
-1.8662396359
 20
-0.3225295626
 10
-1.8343333381
 20
-0.3678933065
 10
-1.7982727824
 20
-0.4124238739
 10
-1.758139636
 20
-0.4560204152
 10
-1.7140247893
 20
-0.4985841963
 10
-1.6660281504
 20
-0.540018822
 10
-1.6142584182
 20
-0.5802304544
 10
-1.558832837
 20
-0.6191280253
 10
-1.4998769304
 20
-0.6566234423
 10
-1.4375242171
 20
-0.6926317887
 10
-1.3719159089
 20
-0.7270715156
 10
-1.3032005905
 20
-0.7598646265
 10
-1.2315338829
 20
-0.7909368541
 10
-1.1570780916
 20
-0.8202178284
 10
-1.0800018382
 20
-0.8476412361
 10
-1.0004796793
 20
-0.8731449706
 10
-0.9186917105
 20
-0.8966712732
  0
LWPOLYLINE
  5
82
330
1F
100
AcDbEntity
  8
0
  6
Continuous
 62
     7
370
    25
100
AcDbPolyline
 90
       64
 70
   128
 43
0.0
 10
-1.5313799449
 20
2.9472020647
 10
-1.5697561973
 20
2.9073703039
 10
-1.6042297884
 20
2.8666028417
 10
-1.6347150115
 20
2.8250010324
 10
-1.6611360755
 20
2.7826683047
 10
-1.6834272935
 20
2.7397099043
 10
-1.701533246
 20
2.6962326327
 10
-1.7154089188
 20
2.6523445811
 10
-1.7250198147
 20
2.6081548623
 10
-1.7303420395
 20
2.5637733387
 10
-1.7313623614
 20
2.5193103499
 10
-1.7280782437
 20
2.4748764379
 10
-1.7204978511
 20
2.4305820723
 10
-1.7086400299
 20
2.3865373759
 10
-1.6925342603
 20
2.3428518509
 10
-1.6722205838
 20
2.2996341062
 10
-1.6477495035
 20
2.256991588
 10
-1.6191818583
 20
2.2150303124
 10
-1.5865886719
 20
2.1738546016
 10
-1.5500509761
 20
2.133566825
 10
-1.5096596093
 20
2.0942671444
 10
-1.4655149908
 20
2.0560532648
 10
-1.4177268712
 20
2.0190201922
 10
-1.3664140592
 20
1.9832599964
 10
-1.3117041266
 20
1.9488615831
 10
-1.2537330908
 20
1.915910472
 10
-1.192645077
 20
1.8844885848
 10
-1.1285919596
 20
1.8546740414
 10
-1.0617329848
 20
1.8265409652
 10
-0.9922343745
 20
1.8001592997
 10
-0.9202689133
 20
1.7755946337
 10
-0.8460155184
 20
1.752908039
 10
-0.7696587958
 20
1.7321559179
 10
-0.6913885801
 20
1.7133898635
 10
-0.6113994634
 20
1.6966565311
 10
-0.5298903113
 20
1.6819975226
 10
-0.4470637685
 20
1.6694492824
 10
-0.3631257546
 20
1.6590430075
 10
-0.2782849529
 20
1.6508045695
 10
-0.192752291
 20
1.6447544504
 10
-0.1067404165
 20
1.6409076919
 10
-0.0204631686
 20
1.6392738575
 10
0.0658649541
 20
1.6398570093
 10
0.1520293261
 20
1.6426556974
 10
0.2378157292
 20
1.6476629639
 10
0.3230108849
 20
1.6548663598
 10
0.4074029847
 20
1.6642479765
 10
0.4907822165
 20
1.6757844897
 10
0.5729412864
 20
1.6894472179
 10
0.6536759339
 20
1.7052021933
 10
0.7327854401
 20
1.7230102466
 10
0.8100731263
 20
1.7428271042
 10
0.885346843
 20
1.7646034982
 10
0.9584194479
 20
1.7882852892
 10
1.0291092711
 20
1.8138136004
 10
1.0972405665
 20
1.8411249644
 10
1.1626439489
 20
1.8701514809
 10
1.2251568154
 20
1.9008209854
 10
1.2846237489
 20
1.9330572286
 10
1.3408969054
 20
1.9667800662
 10
1.3938363809
 20
2.001905658
 10
1.4433105595
 20
2.038346676
 10
1.4891964407
 20
2.0760125223
 10
1.5313799449
 20
2.1148095536
  0
LWPOLYLINE
  5
83
330
1F
100
AcDbEntity
  8
0
  6
Continuous
 62
     7
370
    25
100
AcDbPolyline
 90
       64
 70
   128
 43
0.0
 10
1.5313799449
 20
2.1148095536
 10
1.5697561973
 20
2.1546413144
 10
1.6042297884
 20
2.1954087766
 10
1.6347150115
 20
2.2370105859
 10
1.6611360755
 20
2.2793433137
 10
1.6834272935
 20
2.322301714
 10
1.701533246
 20
2.3657789857
 10
1.7154089188
 20
2.4096670372
 10
1.7250198147
 20
2.4538567561
 10
1.7303420395
 20
2.4982382796
 10
1.7313623614
 20
2.5427012684
 10
1.7280782437
 20
2.5871351805
 10
1.7204978511
 20
2.631429546
 10
1.7086400299
 20
2.6754742424
 10
1.6925342603
 20
2.7191597675
 10
1.6722205838
 20
2.7623775121
 10
1.6477495035
 20
2.8050200303
 10
1.6191818583
 20
2.8469813059
 10
1.5865886719
 20
2.8881570167
 10
1.5500509761
 20
2.9284447933
 10
1.5096596093
 20
2.967744474
 10
1.4655149908
 20
3.0059583535
 10
1.4177268712
 20
3.0429914261
 10
1.3664140592
 20
3.0787516219
 10
1.3117041266
 20
3.1131500352
 10
1.2537330908
 20
3.1461011463
 10
1.192645077
 20
3.1775230335
 10
1.1285919596
 20
3.207337577
 10
1.0617329848
 20
3.2354706531
 10
0.9922343745
 20
3.2618523186
 10
0.9202689133
 20
3.2864169846
 10
0.8460155184
 20
3.3091035793
 10
0.7696587958
 20
3.3298557004
 10
0.6913885801
 20
3.3486217548
 10
0.6113994634
 20
3.3653550872
 10
0.5298903113
 20
3.3800140957
 10
0.4470637685
 20
3.3925623359
 10
0.3631257546
 20
3.4029686109
 10
0.2782849529
 20
3.4112070489
 10
0.192752291
 20
3.4172571679
 10
0.1067404165
 20
3.4211039264
 10
0.0204631686
 20
3.4227377608
 10
-0.0658649541
 20
3.422154609
 10
-0.1520293261
 20
3.4193559209
 10
-0.2378157292
 20
3.4143486544
 10
-0.3230108849
 20
3.4071452585
 10
-0.4074029847
 20
3.3977636418
 10
-0.4907822165
 20
3.3862271286
 10
-0.5729412864
 20
3.3725644005
 10
-0.6536759339
 20
3.356809425
 10
-0.7327854401
 20
3.3390013717
 10
-0.8100731263
 20
3.3191845141
 10
-0.885346843
 20
3.2974081201
 10
-0.9584194479
 20
3.2737263291
 10
-1.0291092711
 20
3.248198018
 10
-1.0972405665
 20
3.2208866539
 10
-1.1626439489
 20
3.1918601374
 10
-1.2251568154
 20
3.161190633
 10
-1.2846237489
 20
3.1289543897
 10
-1.3408969054
 20
3.0952315521
 10
-1.3938363809
 20
3.0601059604
 10
-1.4433105595
 20
3.0236649423
 10
-1.4891964407
 20
2.985999096
 10
-1.5313799449
 20
2.9472020647
  0
LWPOLYLINE
  5
84
330
1F
100
AcDbEntity
  8
0
  6
Continuous
 62
     7
370
    25
100
AcDbPolyline
 90
       14
 70
   128
 43
0.0
 10
0.0385850518
 20
2.5686660026
 10
0.0199647958
 20
2.5723275312
 10
0.0001842584
 20
2.5735875915
 10
-0.0196069874
 20
2.5723729534
 10
-0.0382587464
 20
2.5687542072
 10
-0.0546870461
 20
2.5629416613
 10
-0.0679371335
 20
2.5552731198
 10
-0.0772389616
 20
2.5461942504
 10
-0.082051942
 20
2.536232684
 10
-0.0820963618
 20
2.5259673506
 10
-0.0773696395
 20
2.5159948342
 10
-0.0681464749
 20
2.506894701
 10
-0.0549628849
 20
2.4991958178
 10
-0.0385850518
 20
2.4933456157
  0
LWPOLYLINE
  5
85
330
1F
100
AcDbEntity
  8
0
  6
Continuous
 62
     7
370
    25
100
AcDbPolyline
 90
       14
 70
   128
 43
0.0
 10
-0.0385850518
 20
2.4933456157
 10
-0.0199647958
 20
2.4896840871
 10
-0.0001842584
 20
2.4884240268
 10
0.0196069874
 20
2.489638665
 10
0.0382587464
 20
2.4932574111
 10
0.0546870461
 20
2.499069957
 10
0.0679371335
 20
2.5067384985
 10
0.0772389616
 20
2.5158173679
 10
0.082051942
 20
2.5257789343
 10
0.0820963618
 20
2.5360442677
 10
0.0773696395
 20
2.5460167841
 10
0.0681464749
 20
2.5551169173
 10
0.0549628849
 20
2.5628158005
 10
0.0385850518
 20
2.5686660026
  0
LWPOLYLINE
  5
86
330
1F
100
AcDbEntity
  8
0
  6
Continuous
 62
     7
370
    25
100
AcDbPolyline
 90
       14
 70
   128
 43
0.0
 10
1.166218157
 20
2.2621994869
 10
1.1475979009
 20
2.2658610155
 10
1.1278173635
 20
2.2671210758
 10
1.1080261177
 20
2.2659064376
 10
1.0893743587
 20
2.2622876915
 10
1.072946059
 20
2.2564751456
 10
1.0596959717
 20
2.2488066041
 10
1.0503941435
 20
2.2397277347
 10
1.0455811631
 20
2.2297661683
 10
1.0455367433
 20
2.2195008349
 10
1.0502634657
 20
2.2095283185
 10
1.0594866302
 20
2.2004281853
 10
1.0726702202
 20
2.1927293021
 10
1.0890480533
 20
2.1868791
  0
LWPOLYLINE
  5
87
330
1F
100
AcDbEntity
  8
0
  6
Continuous
 62
     7
370
    25
100
AcDbPolyline
 90
       14
 70
   128
 43
0.0
 10
1.0890480533
 20
2.1868791
 10
1.1076683093
 20
2.1832175714
 10
1.1274488467
 20
2.1819575111
 10
1.1472400926
 20
2.1831721492
 10
1.1658918515
 20
2.1867908954
 10
1.1823201512
 20
2.1926034413
 10
1.1955702386
 20
2.2002719828
 10
1.2048720667
 20
2.2093508522
 10
1.2096850471
 20
2.2193124186
 10
1.2097294669
 20
2.229577752
 10
1.2050027446
 20
2.2395502684
 10
1.19577958
 20
2.2486504016
 10
1.1825959901
 20
2.2563492848
 10
1.166218157
 20
2.2621994869
  0
LWPOLYLINE
  5
88
330
1F
100
AcDbEntity
  8
0
  6
Continuous
 62
     7
370
    25
100
AcDbPolyline
 90
       14
 70
   128
 43
0.0
 10
0.6336216727
 20
3.1494399863
 10
0.6150014167
 20
3.1531015149
 10
0.5952208793
 20
3.1543615752
 10
0.5754296335
 20
3.153146937
 10
0.5567778745
 20
3.1495281909
 10
0.5403495748
 20
3.143715645
 10
0.5270994874
 20
3.1360471035
 10
0.5177976593
 20
3.1269682341
 10
0.5129846789
 20
3.1170066677
 10
0.5129402591
 20
3.1067413343
 10
0.5176669814
 20
3.0967688179
 10
0.526890146
 20
3.0876686847
 10
0.540073736
 20
3.0799698015
 10
0.556451569
 20
3.0741195994
  0
LWPOLYLINE
  5
89
330
1F
100
AcDbEntity
  8
0
  6
Continuous
 62
     7
370
    25
100
AcDbPolyline
 90
       14
 70
   128
 43
0.0
 10
0.556451569
 20
3.0741195994
 10
0.5750718251
 20
3.0704580708
 10
0.5948523625
 20
3.0691980105
 10
0.6146436083
 20
3.0704126486
 10
0.6332953673
 20
3.0740313948
 10
0.649723667
 20
3.0798439407
 10
0.6629737544
 20
3.0875124822
 10
0.6722755825
 20
3.0965913516
 10
0.6770885629
 20
3.106552918
 10
0.6771329827
 20
3.1168182513
 10
0.6724062603
 20
3.1267907678
 10
0.6631830958
 20
3.135890901
 10
0.6499995058
 20
3.1435897842
 10
0.6336216727
 20
3.1494399863
  0
LWPOLYLINE
  5
8A
330
1F
100
AcDbEntity
  8
0
  6
Continuous
 62
     7
370
    25
100
AcDbPolyline
 90
       14
 70
   128
 43
0.0
 10
-1.0890480533
 20
2.8751325184
 10
-1.1076683093
 20
2.8787940469
 10
-1.1274488467
 20
2.8800541072
 10
-1.1472400926
 20
2.8788394691
 10
-1.1658918515
 20
2.8752207229
 10
-1.1823201512
 20
2.869408177
 10
-1.1955702386
 20
2.8617396355
 10
-1.2048720667
 20
2.8526607661
 10
-1.2096850471
 20
2.8426991997
 10
-1.2097294669
 20
2.8324338664
 10
-1.2050027446
 20
2.8224613499
 10
-1.19577958
 20
2.8133612167
 10
-1.1825959901
 20
2.8056623335
 10
-1.166218157
 20
2.7998121314
  0
LWPOLYLINE
  5
8B
330
1F
100
AcDbEntity
  8
0
  6
Continuous
 62
     7
370
    25
100
AcDbPolyline
 90
       14
 70
   128
 43
0.0
 10
-1.166218157
 20
2.7998121314
 10
-1.1475979009
 20
2.7961506028
 10
-1.1278173635
 20
2.7948905425
 10
-1.1080261177
 20
2.7961051807
 10
-1.0893743587
 20
2.7997239269
 10
-1.072946059
 20
2.8055364727
 10
-1.0596959717
 20
2.8132050142
 10
-1.0503941435
 20
2.8222838836
 10
-1.0455811631
 20
2.83224545
 10
-1.0455367433
 20
2.8425107834
 10
-1.0502634657
 20
2.8524832999
 10
-1.0594866302
 20
2.861583433
 10
-1.0726702202
 20
2.8692823162
 10
-1.0890480533
 20
2.8751325184
  0
LWPOLYLINE
  5
8C
330
1F
100
AcDbEntity
  8
0
  6
Continuous
 62
     7
370
    25
100
AcDbPolyline
 90
       14
 70
   128
 43
0.0
 10
-0.556451569
 20
1.987892019
 10
-0.5750718251
 20
1.9915535475
 10
-0.5948523625
 20
1.9928136078
 10
-0.6146436083
 20
1.9915989697
 10
-0.6332953673
 20
1.9879802235
 10
-0.649723667
 20
1.9821676776
 10
-0.6629737544
 20
1.9744991361
 10
-0.6722755825
 20
1.9654202667
 10
-0.6770885629
 20
1.9554587003
 10
-0.6771329827
 20
1.945193367
 10
-0.6724062603
 20
1.9352208505
 10
-0.6631830958
 20
1.9261207173
 10
-0.6499995058
 20
1.9184218341
 10
-0.6336216727
 20
1.912571632
  0
LWPOLYLINE
  5
8D
330
1F
100
AcDbEntity
  8
0
  6
Continuous
 62
     7
370
    25
100
AcDbPolyline
 90
       14
 70
   128
 43
0.0
 10
-0.6336216727
 20
1.912571632
 10
-0.6150014167
 20
1.9089101034
 10
-0.5952208793
 20
1.9076500432
 10
-0.5754296335
 20
1.9088646813
 10
-0.5567778745
 20
1.9124834275
 10
-0.5403495748
 20
1.9182959733
 10
-0.5270994874
 20
1.9259645148
 10
-0.5177976593
 20
1.9350433842
 10
-0.5129846789
 20
1.9450049506
 10
-0.5129402591
 20
1.955270284
 10
-0.5176669814
 20
1.9652428005
 10
-0.526890146
 20
1.9743429336
 10
-0.540073736
 20
1.9820418168
 10
-0.556451569
 20
1.987892019
  0
LWPOLYLINE
  5
8E
330
1F
100
AcDbEntity
  8
0
  6
Continuous
 62
     7
370
    25
100
AcDbPolyline
 90
       55
 70
   128
 43
0.0
 10
1.764545775
 20
2.0510294782
 10
1.7902913958
 20
2.0231546677
 10
1.8266863909
 20
1.9794719316
 10
1.8590659329
 20
1.934958596
 10
1.8873588445
 20
1.8897125109
 10
1.9115029317
 20
1.8438331369
 10
1.9314451207
 20
1.797421327
 10
1.9471415741
 20
1.7505791043
 10
1.9585577877
 20
1.7034094382
 10
1.9656686663
 20
1.6560160178
 10
1.9684585785
 20
1.6085030243
 10
1.9669213916
 20
1.5609749014
 10
1.9610604845
 20
1.5135361263
 10
1.9508887409
 20
1.4662909798
 10
1.9364285205
 20
1.4193433168
 10
1.9177116099
 20
1.3727963386
 10
1.894779153
 20
1.3267523655
 10
1.8676815603
 20
1.2813126122
 10
1.8364783982
 20
1.2365769651
 10
1.801238258
 20
1.1926437628
 10
1.7620386051
 20
1.1496095801
 10
1.7189656091
 20
1.1075690155
 10
1.6721139535
 20
1.0666144831
 10
1.6215866286
 20
1.0268360101
 10
1.5674947043
 20
0.9883210381
 10
1.5099570865
 20
0.9511542313
 10
1.4491002553
 20
0.9154172906
 10
1.3850579873
 20
0.8811887733
 10
1.3179710611
 20
0.8485439213
 10
1.2479869486
 20
0.817554495
 10
1.1752594899
 20
0.7882886159
 10
1.0999485558
 20
0.7608106167
 10
1.022219696
 20
0.7351809001
 10
0.9422437755
 20
0.7114558057
 10
0.8601965987
 20
0.6896874864
 10
0.7762585231
 20
0.6699237938
 10
0.6906140627
 20
0.6522081727
 10
0.6034514828
 20
0.6365795659
 10
0.5149623855
 20
0.6230723284
 10
0.4253412892
 20
0.6117161521
 10
0.3347852004
 20
0.6025360004
 10
0.2434931811
 20
0.5955520532
 10
0.1516659109
 20
0.5907796627
 10
0.0595052461
 20
0.5882293197
 10
-0.0327862241
 20
0.5879066305
 10
-0.1250056231
 20
0.5898123042
 10
-0.2169502326
 20
0.5939421519
 10
-0.3084179384
 20
0.6002870953
 10
-0.3992076747
 20
0.6088331867
 10
-0.4891198658
 20
0.6195616401
 10
-0.5779568653
 20
0.6324488719
 10
-0.6655233902
 20
0.6474665533
 10
-0.7516269502
 20
0.664581672
 10
-0.8360782711
 20
0.6837566054
 10
-0.9186917105
 20
0.7049492028
  0
LWPOLYLINE
  5
90
330
1F
100
AcDbEntity
  8
0
  6
Continuous
 62
     7
370
    25
100
AcDbPolyline
 90
       51
 70
   128
 43
0.0
 10
-0.8720221716
 20
0.8362168336
 10
-0.7911641161
 20
0.8155120208
 10
-0.7084582601
 20
0.7968433962
 10
-0.624097767
 20
0.7802545612
 10
-0.5382796647
 20
0.7657842597
 10
-0.4512043853
 20
0.7534662878
 10
-0.3630752971
 20
0.7433294147
 10
-0.2740982297
 20
0.7353973156
 10
-0.1844809932
 20
0.7296885162
 10
-0.0944328929
 20
0.7262163496
 10
-0.0041642401
 20
0.7249889254
 10
0.0861141385
 20
0.7260091101
 10
0.1761913935
 20
0.7292745212
 10
0.2658571453
 20
0.7347775321
 10
0.3549019754
 20
0.7425052902
 10
0.4431179156
 20
0.752439747
 10
0.5302989333
 20
0.7645577002
 10
0.6162414133
 20
0.7788308476
 10
0.7007446329
 20
0.7952258538
 10
0.7836112309
 20
0.8137044274
 10
0.8646476686
 20
0.8342234108
 10
0.9436646817
 20
0.8567348809
 10
1.0204777221
 20
0.8811862614
 10
1.0949073895
 20
0.9075204446
 10
1.16677985
 20
0.9356759261
 10
1.2359272421
 20
0.9655869473
 10
1.3021880688
 20
0.9971836497
 10
1.365407575
 20
1.0303922377
 10
1.4254381085
 20
1.0651351512
 10
1.4821394653
 20
1.1013312463
 10
1.5353792166
 20
1.1388959855
 10
1.5850330187
 20
1.1777416346
 10
1.6309849027
 20
1.2177774678
 10
1.6731275459
 20
1.2589099795
 10
1.7113625221
 20
1.3010431028
 10
1.745600532
 20
1.3440784339
 10
1.7757616108
 20
1.3879154618
 10
1.8017753162
 20
1.432451803
 10
1.8235808918
 20
1.4775834409
 10
1.8411274098
 20
1.5232049685
 10
1.8543738894
 20
1.5692098345
 10
1.8632893928
 20
1.6154905924
 10
1.8678530976
 20
1.6619391515
 10
1.8680543448
 20
1.7084470288
 10
1.8638926646
 20
1.7549056032
 10
1.8553777767
 20
1.8012063685
 10
1.8425295681
 20
1.8472411871
 10
1.8253780463
 20
1.8929025425
 10
1.8039632694
 20
1.9380837905
 10
1.7783352528
 20
1.9826794083
 10
1.7603733404
 20
2.0099635126
  0
LWPOLYLINE
  5
91
330
1F
100
AcDbEntity
  8
0
  6
Continuous
 62
     7
370
    25
100
AcDbPolyline
 90
       45
 70
   128
 43
0.0
 10
1.968503937
 20
0.3214377378
 10
1.9669213916
 20
0.2807921631
 10
1.9610604845
 20
0.2333533881
 10
1.9508887409
 20
0.1861082415
 10
1.9364285205
 20
0.1391605785
 10
1.9177116099
 20
0.0926136003
 10
1.894779153
 20
0.0465696272
 10
1.8676815603
 20
0.0011298739
 10
1.8364783982
 20
-0.0436057732
 10
1.801238258
 20
-0.0875389755
 10
1.7620386051
 20
-0.1305731582
 10
1.7189656091
 20
-0.1726137228
 10
1.6721139535
 20
-0.2135682551
 10
1.6215866286
 20
-0.2533467282
 10
1.5674947043
 20
-0.2918617002
 10
1.5099570865
 20
-0.3290285069
 10
1.4491002553
 20
-0.3647654477
 10
1.3850579873
 20
-0.398993965
 10
1.3179710611
 20
-0.431638817
 10
1.2479869486
 20
-0.4626282433
 10
1.1752594899
 20
-0.4918941224
 10
1.0999485558
 20
-0.5193721216
 10
1.022219696
 20
-0.5450018382
 10
0.9422437755
 20
-0.5687269326
 10
0.8601965987
 20
-0.5904952518
 10
0.7762585231
 20
-0.6102589445
 10
0.6906140627
 20
-0.6279745656
 10
0.6034514828
 20
-0.6436031724
 10
0.5149623855
 20
-0.6571104099
 10
0.4253412892
 20
-0.6684665861
 10
0.3347852004
 20
-0.6776467379
 10
0.2434931811
 20
-0.6846306851
 10
0.1516659109
 20
-0.6894030755
 10
0.0595052461
 20
-0.6919534185
 10
-0.0327862241
 20
-0.6922761078
 10
-0.1250056231
 20
-0.6903704341
 10
-0.2169502326
 20
-0.6862405864
 10
-0.3084179384
 20
-0.679895643
 10
-0.3992076747
 20
-0.6713495516
 10
-0.4891198658
 20
-0.6606210982
 10
-0.5779568653
 20
-0.6477338664
 10
-0.6655233902
 20
-0.632716185
 10
-0.7516269502
 20
-0.6156010663
 10
-0.8360782711
 20
-0.5964261329
 10
-0.9186917105
 20
-0.5752335355
  0
LWPOLYLINE
  5
93
330
1F
100
AcDbEntity
  8
0
  6
Continuous
 62
     7
370
    25
100
AcDbPolyline
 90
       31
 70
   128
 43
0.0
 10
-1.7603733404
 20
2.0099635126
 10
-1.7757616108
 20
1.9867589504
 10
-1.8017753162
 20
1.9422226092
 10
-1.8235808918
 20
1.8970909713
 10
-1.8411274098
 20
1.8514694437
 10
-1.8543738894
 20
1.8054645777
 10
-1.8632893928
 20
1.7591838198
 10
-1.8678530976
 20
1.7127352608
 10
-1.8680543448
 20
1.6662273834
 10
-1.8638926646
 20
1.619768809
 10
-1.8553777767
 20
1.5734680437
 10
-1.8425295681
 20
1.5274332251
 10
-1.8253780463
 20
1.4817718697
 10
-1.8039632694
 20
1.4365906217
 10
-1.7783352528
 20
1.3919950039
 10
-1.7485538517
 20
1.3480891715
 10
-1.7146886222
 20
1.3049756686
 10
-1.6768186579
 20
1.2627551888
 10
-1.6350324059
 20
1.22152634
 10
-1.58942746
 20
1.1813854141
 10
-1.5401103326
 20
1.142426162
 10
-1.4871962062
 20
1.1047395749
 10
-1.4308086641
 20
1.0684136715
 10
-1.3710794021
 20
1.0335332928
 10
-1.3081479206
 20
1.0001799033
 10
-1.242161199
 20
0.9684314016
 10
-1.1732733524
 20
0.9383619378
 10
-1.1016452715
 20
0.9100417403
 10
-1.0274442471
 20
0.8835369525
 10
-0.9508435789
 20
0.8589094773
 10
-0.8720221716
 20
0.8362168336
  0
LWPOLYLINE
  5
94
330
1F
100
AcDbEntity
  8
0
  6
Continuous
 62
     7
370
    25
100
AcDbPolyline
 90
       28
 70
   128
 43
0.0
 10
-0.8309529774
 20
0.8763016261
 10
-0.9084128494
 20
0.8986424717
 10
-0.9836142639
 20
0.9229441366
 10
-1.0563702583
 20
0.9491462031
 10
-1.1264999499
 20
0.9771835287
 10
-1.1938289851
 20
1.0069864083
 10
-1.2581899733
 20
1.0384807472
 10
-1.319422903
 20
1.0715882455
 10
-1.3773755395
 20
1.1062265927
 10
-1.4319038034
 20
1.1423096724
 10
-1.4828721288
 20
1.1797477765
 10
-1.5301538005
 20
1.2184478279
 10
-1.5736312687
 20
1.2583136121
 10
-1.6131964416
 20
1.2992460166
 10
-1.648750954
 20
1.3411432769
 10
-1.6802064117
 20
1.3839012299
 10
-1.7074846116
 20
1.4274135726
 10
-1.7305177357
 20
1.4715721263
 10
-1.74924852
 20
1.5162671061
 10
-1.7636303969
 20
1.561387393
 10
-1.7736276108
 20
1.6068208111
 10
-1.7792153069
 20
1.6524544055
 10
-1.7803795935
 20
1.6981747242
 10
-1.7771175758
 20
1.743868099
 10
-1.7694373639
 20
1.7894209291
 10
-1.7573580519
 20
1.834719963
 10
-1.7409096709
 20
1.8796525802
 10
-1.7407409224
 20
1.8800573452
  0
LWPOLYLINE
  5
95
330
1F
100
AcDbEntity
  8
0
  6
Continuous
 62
     7
370
    25
100
AcDbPolyline
 90
       47
 70
   128
 43
0.0
 10
1.7407409224
 20
1.8800573452
 10
1.74924852
 20
1.8584073062
 10
1.7636303969
 20
1.8132870192
 10
1.7736276108
 20
1.7678536012
 10
1.7792153069
 20
1.7222200067
 10
1.7803795935
 20
1.6764996881
 10
1.7771175758
 20
1.6308063132
 10
1.7694373639
 20
1.5852534831
 10
1.7573580519
 20
1.5399544492
 10
1.7409096709
 20
1.495021832
 10
1.7201331141
 20
1.4505673412
 10
1.6950800354
 20
1.4067014975
 10
1.6658127206
 20
1.3635333585
 10
1.632403933
 20
1.3211702468
 10
1.5949367319
 20
1.2797174839
 10
1.5535042669
 20
1.2392781278
 10
1.5082095454
 20
1.1999527172
 10
1.4591651774
 20
1.1618390212
 10
1.4064930949
 20
1.1250317966
 10
1.3503242489
 20
1.0896225517
 10
1.2907982841
 20
1.0556993197
 10
1.2280631913
 20
1.023346439
 10
1.16227494
 20
0.9926443439
 10
1.09359709
 20
0.9636693648
 10
1.0222003854
 20
0.9364935379
 10
0.9482623295
 20
0.9111844267
 10
0.8719667441
 20
0.8878049536
 10
0.793503312
 20
0.8664132437
 10
0.7130671056
 20
0.8470624801
 10
0.630858102
 20
0.8298007718
 10
0.5470806858
 20
0.8146710342
 10
0.4619431408
 20
0.8017108823
 10
0.3756571324
 20
0.7909525369
 10
0.2884371811
 20
0.782422745
 10
0.2005001296
 20
0.7761427131
 10
0.1120646031
 20
0.7721280542
 10
0.0233504664
 20
0.7703887495
 10
-0.0654217232
 20
0.7709291232
 10
-0.1540312641
 20
0.7737478317
 10
-0.2422578591
 20
0.7788378674
 10
-0.3298821628
 20
0.7861865755
 10
-0.4166863275
 20
0.7957756862
 10
-0.5024545443
 20
0.8075813592
 10
-0.58697358
 20
0.8215742439
 10
-0.6700333069
 20
0.8377195517
 10
-0.7514272254
 20
0.8559771429
 10
-0.8309529774
 20
0.8763016261
  0
LWPOLYLINE
  5
96
330
1F
100
AcDbEntity
  8
0
  6
Continuous
 62
     7
370
    25
100
AcDbPolyline
 90
       34
 70
   128
 43
0.0
 10
-0.9186917105
 20
0.7049492028
 10
-0.9992856661
 20
0.7281128783
 10
-1.077682975
 20
0.753196713
 10
-1.1537113028
 20
0.7801455673
 10
-1.2272035227
 20
0.8089002017
 10
-1.297998083
 20
0.8393974074
 10
-1.3659393618
 20
0.8715701447
 10
-1.4308780094
 20
0.9053476911
 10
-1.4926712766
 20
0.9406557963
 10
-1.5511833284
 20
0.9774168452
 10
-1.6062855426
 20
1.0155500292
 10
-1.6578567926
 20
1.0549715232
 10
-1.7057837135
 20
1.0955946703
 10
-1.7499609516
 20
1.1373301719
 10
-1.7902913958
 20
1.1800862844
 10
-1.8266863909
 20
1.2237690205
 10
-1.8590659329
 20
1.2682823561
 10
-1.8873588445
 20
1.3135284412
 10
-1.9115029317
 20
1.3594078152
 10
-1.9314451207
 20
1.4058196251
 10
-1.9471415741
 20
1.4526618478
 10
-1.9585577877
 20
1.4998315139
 10
-1.9656686663
 20
1.5472249343
 10
-1.9684585785
 20
1.5947379278
 10
-1.9669213916
 20
1.6422660507
 10
-1.9610604845
 20
1.6897048257
 10
-1.9508887409
 20
1.7369499723
 10
-1.9364285205
 20
1.7838976353
 10
-1.9177116099
 20
1.8304446135
 10
-1.894779153
 20
1.8764885866
 10
-1.8676815603
 20
1.9219283399
 10
-1.8364783982
 20
1.966663987
 10
-1.801238258
 20
2.0105971893
 10
-1.764545775
 20
2.0510294782
  0
LWPOLYLINE
  5
97
330
1F
100
AcDbEntity
  8
0
  6
Continuous
 62
     7
370
    25
100
AcDbPolyline
 90
       25
 70
   128
 43
0.0
 10
-0.9186917105
 20
-0.5752335355
 10
-0.9992856661
 20
-0.55206986
 10
-1.077682975
 20
-0.5269860253
 10
-1.1537113028
 20
-0.500037171
 10
-1.2272035227
 20
-0.4712825366
 10
-1.297998083
 20
-0.4407853309
 10
-1.3659393618
 20
-0.4086125936
 10
-1.4308780094
 20
-0.3748350471
 10
-1.4926712766
 20
-0.339526942
 10
-1.5511833284
 20
-0.3027658931
 10
-1.6062855426
 20
-0.2646327091
 10
-1.6578567926
 20
-0.225211215
 10
-1.7057837135
 20
-0.184588068
 10
-1.7499609516
 20
-0.1428525664
 10
-1.7902913958
 20
-0.1000964539
 10
-1.8266863909
 20
-0.0564137178
 10
-1.8590659329
 20
-0.0119003822
 10
-1.8873588445
 20
0.0333457029
 10
-1.9115029317
 20
0.0792250769
 10
-1.9314451207
 20
0.1256368868
 10
-1.9471415741
 20
0.1724791095
 10
-1.9585577877
 20
0.2196487756
 10
-1.9656686663
 20
0.267042196
 10
-1.9684585785
 20
0.3145551895
 10
-1.968503937
 20
0.3214377378
  0
LINE
  5
9E
330
1F
100
AcDbEntity
  8
0
  6
Continuous
 62
     7
370
    25
100
AcDbLine
 10
1.968503937
 20
0.0
 30
0.0
 11
1.968503937
 21
1.601620476
 31
0.0
  0
LINE
  5
9F
330
1F
100
AcDbEntity
  8
0
  6
Continuous
 62
     7
370
    25
100
AcDbLine
 10
-1.968503937
 20
1.601620476
 30
0.0
 11
-1.968503937
 21
0.0
 31
0.0
  0
LINE
  5
A0
330
1F
100
AcDbEntity
  8
0
  6
Continuous
 62
     7
370
    25
100
AcDbLine
 10
-0.9186917105
 20
0.7049492028
 30
0.0
 11
-0.9186917105
 21
-0.8966712732
 31
0.0
  0
LINE
  5
A1
330
1F
100
AcDbEntity
  8
0
  6
Continuous
 62
     7
370
    25
100
AcDbLine
 10
-0.8720221716
 20
0.8362168336
 30
0.0
 11
-0.9186917105
 21
0.7049492028
 31
0.0
  0
LINE
  5
A2
330
1F
100
AcDbEntity
  8
0
  6
Continuous
 62
     8
370
    25
100
AcDbLine
 10
-0.556451569
 20
1.912571632
 30
0.0
 11
-0.556451569
 21
1.987892019
 31
0.0
  0
LINE
  5
A3
330
1F
100
AcDbEntity
  8
0
  6
Continuous
 62
     8
370
    25
100
AcDbLine
 10
1.166218157
 20
2.1868791
 30
0.0
 11
1.166218157
 21
2.2621994869
 31
0.0
  0
LINE
  5
A4
330
1F
100
AcDbEntity
  8
0
  6
Continuous
 62
     8
370
    25
100
AcDbLine
 10
0.0385850518
 20
2.4933456157
 30
0.0
 11
0.0385850518
 21
2.5686660026
 31
0.0
  0
LINE
  5
A5
330
1F
100
AcDbEntity
  8
0
  6
Continuous
 62
     8
370
    25
100
AcDbLine
 10
-1.0890480533
 20
2.7998121314
 30
0.0
 11
-1.0890480533
 21
2.8751325184
 31
0.0
  0
LINE
  5
A6
330
1F
100
AcDbEntity
  8
0
  6
Continuous
 62
     8
370
    25
100
AcDbLine
 10
0.6336216727
 20
3.0741195994
 30
0.0
 11
0.6336216727
 21
3.1494399863
 31
0.0
  0
ARC
  5
A7
330
1F
100
AcDbEntity
  8
0
  6
Continuous
 62
     7
370
    25
100
AcDbCircle
 10
0.0
 20
2.2095680714
 30
0.0
 40
1.771653543307071
100
AcDbArc
 50
165.7036428534
 51
203.6527337588
  0
ARC
  5
A8
330
1F
100
AcDbEntity
  8
0
  6
Continuous
 62
     7
370
    25
100
AcDbCircle
 10
0.0
 20
2.2095680714
 30
0.0
 40
1.771653543307081
100
AcDbArc
 50
336.3472662412
 51
14.2963571466
  0
ARC
  5
A9
330
1F
100
AcDbEntity
  8
0
  6
Continuous
 62
     7
370
    25
100
AcDbCircle
 10
1.0108542448
 20
1.7775492968
 30
0.0
 40
0.6724663722663521
100
AcDbArc
 50
313.2151643217
 51
335.5105184166
  0
ARC
  5
AA
330
1F
100
AcDbEntity
  8
0
  6
Continuous
 62
     8
370
    25
100
AcDbCircle
 10
0.1815708733
 20
1.7969461252
 30
0.0
 40
1.386730575462164
100
AcDbArc
 50
338.4447733825
 51
13.2510288542
  0
LINE
  5
C1
330
1B
100
AcDbEntity
 67
     1
  8
0
  6
Continuous
 62
     7
370
    25
100
AcDbLine
 10
1.968503937
 20
0.0
 30
0.0
 11
1.968503937
 21
1.868503937
 31
0.0
  0
LINE
  5
C2
330
1B
100
AcDbEntity
 67
     1
  8
0
  6
Continuous
 62
     7
370
    25
100
AcDbLine
 10
-1.968503937
 20
1.868503937
 30
0.0
 11
-1.968503937
 21
0.375
 31
0.0
  0
LINE
  5
C3
330
1B
100
AcDbEntity
 67
     1
  8
0
  6
Continuous
 62
     7
370
    25
100
AcDbLine
 10
1.968503937
 20
1.868503937
 30
0.0
 11
1.868503937
 21
1.968503937
 31
0.0
  0
LINE
  5
C4
330
1B
100
AcDbEntity
 67
     1
  8
0
  6
Continuous
 62
     7
370
    25
100
AcDbLine
 10
-1.868503937
 20
1.968503937
 30
0.0
 11
-1.968503937
 21
1.868503937
 31
0.0
  0
LINE
  5
C5
330
1B
100
AcDbEntity
 67
     1
  8
0
  6
Continuous
 62
     7
370
    25
100
AcDbLine
 10
-1.9595539033
 20
0.0
 30
0.0
 11
-1.9595539033
 21
0.375
 31
0.0
  0
LINE
  5
C6
330
1B
100
AcDbEntity
 67
     1
  8
0
  6
Continuous
 62
     7
370
    25
100
AcDbLine
 10
-1.968503937
 20
0.375
 30
0.0
 11
1.968503937
 21
0.375
 31
0.0
  0
LINE
  5
C7
330
1B
100
AcDbEntity
 67
     1
  8
0
  6
Continuous
 62
     7
370
    25
100
AcDbLine
 10
0.0
 20
1.968503937
 30
0.0
 11
0.0
 21
0.0
 31
0.0
  0
LINE
  5
C8
330
1B
100
AcDbEntity
 67
     1
  8
0
  6
Continuous
 62
     7
370
    25
100
AcDbLine
 10
-1.9595539033
 20
0.0
 30
0.0
 11
1.968503937
 21
0.0
 31
0.0
  0
LINE
  5
C9
330
1B
100
AcDbEntity
 67
     1
  8
0
  6
Continuous
 62
     7
370
    25
100
AcDbLine
 10
-1.7315112698
 20
2.9527559055
 30
0.0
 11
1.7315112698
 21
2.9527559055
 31
0.0
  0
LINE
  5
CA
330
1B
100
AcDbEntity
 67
     1
  8
0
  6
Continuous
 62
     7
370
    25
100
AcDbLine
 10
1.968503937
 20
1.868503937
 30
0.0
 11
-1.968503937
 21
1.868503937
 31
0.0
  0
LINE
  5
CB
330
1B
100
AcDbEntity
 67
     1
  8
0
  6
Continuous
 62
     7
370
    25
100
AcDbLine
 10
-1.868503937
 20
1.968503937
 30
0.0
 11
1.868503937
 21
1.968503937
 31
0.0
  0
ARC
  5
CC
330
1B
100
AcDbEntity
 67
     1
  8
0
  6
Continuous
 62
     7
370
    25
100
AcDbCircle
 10
0.0
 20
2.5777559055
 30
0.0
 40
1.771653543307087
100
AcDbArc
 50
339.8860158308
 51
12.220041071
  0
ARC
  5
CD
330
1B
100
AcDbEntity
 67
     1
  8
0
  6
Continuous
 62
     7
370
    25
100
AcDbCircle
 10
0.0
 20
2.5777559055
 30
0.0
 40
1.771653543307087
100
AcDbArc
 50
167.779958929
 51
200.1139841692
  0
VIEWPORT
  5
297
330
1B
100
AcDbEntity
 67
     1
  8
0
100
AcDbViewport
 10
0.0
 20
0.0
 30
0.0
 40
8.4
 41
6.4
 68
     1
 69
     1
 12
0.0
 22
1.2045119576
 13
0.0
 23
0.0
 14
0.5
 24
0.5
 15
0.5
 25
0.5
 16
0.0
 26
0.0
 36
1.0
 17
0.0
 27
0.0
 37
0.0
 42
50.0
 43
0.0
 44
0.0
 45
4.5251806385
 50
0.0
 51
0.0
 72
   100
 90
   557152
  1

281
     0
 71
     1
 74
     0
110
0.0
120
0.0
130
0.0
111
1.0
121
0.0
131
0.0
112
0.0
122
1.0
132
0.0
 79
     0
146
0.0
  0
ENDSEC
  0
SECTION
  2
OBJECTS
  0
DICTIONARY
  5
C
330
0
100
AcDbDictionary
281
     1
  3
ACAD_GROUP
350
D
  3
ACAD_LAYOUT
350
1A
  3
ACAD_MLINESTYLE
350
17
  3
ACAD_PLOTSETTINGS
350
19
  3
ACAD_PLOTSTYLENAME
350
E
  3
ACAD_SCALELIST
350
47
  3
DWGPROPS
350
2A9
  0
DICTIONARY
  5
D
102
{ACAD_REACTORS
330
C
102
}
330
C
100
AcDbDictionary
281
     1
  0
DICTIONARY
  5
1A
102
{ACAD_REACTORS
330
C
102
}
330
C
100
AcDbDictionary
281
     1
  3
_Back
350
26
  3
_Bottom
350
181
  3
_Dimetric
350
257
  3
_Front
350
1E
  3
_Isometric
350
1DE
  3
_Left
350
F2
  3
_Right
350
124
  3
_Top
350
145
  3
_Trimetric
350
21B
  3
Model
350
22
  0
DICTIONARY
  5
17
102
{ACAD_REACTORS
330
C
102
}
330
C
100
AcDbDictionary
281
     1
  3
Standard
350
18
  0
DICTIONARY
  5
19
102
{ACAD_REACTORS
330
C
102
}
330
C
100
AcDbDictionary
281
     1
  0
ACDBDICTIONARYWDFLT
  5
E
102
{ACAD_REACTORS
330
C
102
}
330
C
100
AcDbDictionary
281
     1
  3
Normal
350
F
100
AcDbDictionaryWithDefault
340
F
  0
DICTIONARY
  5
47
102
{ACAD_REACTORS
330
C
102
}
330
C
100
AcDbDictionary
281
     1
  3
A0
350
48
  3
A1
350
49
  3
A2
350
4A
  3
A3
350
4B
  3
A4
350
4C
  3
A5
350
4D
  3
A6
350
4E
  3
A7
350
4F
  3
A8
350
50
  3
A9
350
51
  3
B0
350
52
  3
B1
350
53
  3
B2
350
54
  3
B3
350
55
  3
B4
350
56
  3
B5
350
57
  3
B6
350
58
  3
B7
350
59
  3
B8
350
5A
  3
B9
350
5B
  3
C0
350
5C
  3
C1
350
5D
  3
C2
350
5E
  3
C3
350
5F
  3
C4
350
60
  3
C5
350
61
  3
C6
350
62
  3
C7
350
63
  3
C8
350
64
  3
C9
350
65
  3
D0
350
66
  3
D1
350
67
  3
D2
350
68
  0
XRECORD
  5
2A9
102
{ACAD_REACTORS
330
C
102
}
330
C
100
AcDbXrecord
280
     1
  1
DWGPROPS COOKIE
  2

  3

  4

  6

  7

  8
jeffs
  9

300
=
301
=
302
=
303
=
304
=
305
=
306
=
307
=
308
=
309
=
 40
0.0
 41
2460929.744100602
 42
2460929.744131238
  1

 90
        0
  0
LAYOUT
  5
26
102
{ACAD_REACTORS
330
1A
102
}
330
1A
100
AcDbPlotSettings
  1

  2
none_device
  4
Letter_(8.50_x_11.00_Inches)
  6

 40
6.35
 41
6.35
 42
6.35001
 43
6.35001
 44
215.9
 45
279.4
 46
0.0
 47
0.0
 48
0.0
 49
0.0
140
0.0
141
0.0
142
1.0
143
0.3749531449
 70
   688
 72
     0
 73
     1
 74
     1
  7

 75
     0
147
2.6669999
148
50.0
149
0.0
100
AcDbLayout
  1
_Back
 70
     1
 71
     2
 10
0.0
 20
0.0
 11
0.0
 21
0.0
 12
0.0
 22
0.0
 32
0.0
 14
0.0
 24
0.0
 34
0.0
 15
0.0
 25
0.0
 35
0.0
146
0.0
 13
0.0
 23
0.0
 33
0.0
 16
1.0
 26
0.0
 36
0.0
 17
0.0
 27
1.0
 37
0.0
 76
     0
330
23
331
299
  0
LAYOUT
  5
181
102
{ACAD_REACTORS
330
1A
102
}
330
1A
100
AcDbPlotSettings
  1

  2
none_device
  4
Letter_(8.50_x_11.00_Inches)
  6

 40
6.35
 41
6.35
 42
6.35001
 43
6.35001
 44
215.9
 45
279.4
 46
0.0
 47
0.0
 48
0.0
 49
0.0
140
0.0
141
0.0
142
1.0
143
0.3749531449
 70
   688
 72
     0
 73
     1
 74
     1
  7

 75
     0
147
2.6669999
148
50.0
149
0.0
100
AcDbLayout
  1
_Bottom
 70
     1
 71
     6
 10
0.0
 20
0.0
 11
0.0
 21
0.0
 12
0.0
 22
0.0
 32
0.0
 14
0.0
 24
0.0
 34
0.0
 15
0.0
 25
0.0
 35
0.0
146
0.0
 13
0.0
 23
0.0
 33
0.0
 16
1.0
 26
0.0
 36
0.0
 17
0.0
 27
1.0
 37
0.0
 76
     0
330
180
331
2A1
  0
LAYOUT
  5
257
102
{ACAD_REACTORS
330
1A
102
}
330
1A
100
AcDbPlotSettings
  1

  2
none_device
  4
Letter_(8.50_x_11.00_Inches)
  6

 40
6.35
 41
6.35
 42
6.35001
 43
6.35001
 44
215.9
 45
279.4
 46
0.0
 47
0.0
 48
0.0
 49
0.0
140
0.0
141
0.0
142
1.0
143
0.3749531449
 70
   688
 72
     0
 73
     1
 74
     1
  7

 75
     0
147
2.6669999
148
50.0
149
0.0
100
AcDbLayout
  1
_Dimetric
 70
     1
 71
     9
 10
0.0
 20
0.0
 11
0.0
 21
0.0
 12
0.0
 22
0.0
 32
0.0
 14
0.0
 24
0.0
 34
0.0
 15
0.0
 25
0.0
 35
0.0
146
0.0
 13
0.0
 23
0.0
 33
0.0
 16
1.0
 26
0.0
 36
0.0
 17
0.0
 27
1.0
 37
0.0
 76
     0
330
256
331
2A7
  0
LAYOUT
  5
1E
102
{ACAD_REACTORS
330
1A
102
}
330
1A
100
AcDbPlotSettings
  1

  2
none_device
  4
Letter_(8.50_x_11.00_Inches)
  6

 40
6.35
 41
6.35
 42
6.35001
 43
6.35001
 44
215.9
 45
279.4
 46
0.0
 47
0.0
 48
0.0
 49
0.0
140
0.0
141
0.0
142
1.0
143
0.3749531449
 70
   688
 72
     0
 73
     1
 74
     1
  7

 75
     0
147
2.6669999
148
50.0
149
0.0
100
AcDbLayout
  1
_Front
 70
     1
 71
     1
 10
-2.0622423709
 20
-0.0937382862
 11
2.0622422232
 21
3.0933634456
 12
0.0
 22
0.0
 32
0.0
 14
-1.968503937
 24
0.0
 34
0.0
 15
1.968503937
 25
2.9527559055
 35
0.0
146
0.0
 13
0.0
 23
0.0
 33
0.0
 16
1.0
 26
0.0
 36
0.0
 17
0.0
 27
1.0
 37
0.0
 76
     0
330
1B
331
297
  0
LAYOUT
  5
1DE
102
{ACAD_REACTORS
330
1A
102
}
330
1A
100
AcDbPlotSettings
  1

  2
none_device
  4
Letter_(8.50_x_11.00_Inches)
  6

 40
6.35
 41
6.35
 42
6.35001
 43
6.35001
 44
215.9
 45
279.4
 46
0.0
 47
0.0
 48
0.0
 49
0.0
140
0.0
141
0.0
142
1.0
143
0.3749531449
 70
   688
 72
     0
 73
     1
 74
     1
  7

 75
     0
147
2.6669999
148
50.0
149
0.0
100
AcDbLayout
  1
_Isometric
 70
     1
 71
     7
 10
0.0
 20
0.0
 11
0.0
 21
0.0
 12
0.0
 22
0.0
 32
0.0
 14
0.0
 24
0.0
 34
0.0
 15
0.0
 25
0.0
 35
0.0
146
0.0
 13
0.0
 23
0.0
 33
0.0
 16
1.0
 26
0.0
 36
0.0
 17
0.0
 27
1.0
 37
0.0
 76
     0
330
1DD
331
2A3
  0
LAYOUT
  5
F2
102
{ACAD_REACTORS
330
1A
102
}
330
1A
100
AcDbPlotSettings
  1

  2
none_device
  4
Letter_(8.50_x_11.00_Inches)
  6

 40
6.35
 41
6.35
 42
6.35001
 43
6.35001
 44
215.9
 45
279.4
 46
0.0
 47
0.0
 48
0.0
 49
0.0
140
0.0
141
0.0
142
1.0
143
0.3749531449
 70
   688
 72
     0
 73
     1
 74
     1
  7

 75
     0
147
2.6669999
148
50.0
149
0.0
100
AcDbLayout
  1
_Left
 70
     1
 71
     3
 10
0.0
 20
0.0
 11
0.0
 21
0.0
 12
0.0
 22
0.0
 32
0.0
 14
0.0
 24
0.0
 34
0.0
 15
0.0
 25
0.0
 35
0.0
146
0.0
 13
0.0
 23
0.0
 33
0.0
 16
1.0
 26
0.0
 36
0.0
 17
0.0
 27
1.0
 37
0.0
 76
     0
330
F1
331
29B
  0
LAYOUT
  5
124
102
{ACAD_REACTORS
330
1A
102
}
330
1A
100
AcDbPlotSettings
  1

  2
none_device
  4
Letter_(8.50_x_11.00_Inches)
  6

 40
6.35
 41
6.35
 42
6.35001
 43
6.35001
 44
215.9
 45
279.4
 46
0.0
 47
0.0
 48
0.0
 49
0.0
140
0.0
141
0.0
142
1.0
143
0.3749531449
 70
   688
 72
     0
 73
     1
 74
     1
  7

 75
     0
147
2.6669999
148
50.0
149
0.0
100
AcDbLayout
  1
_Right
 70
     1
 71
     4
 10
0.0
 20
0.0
 11
0.0
 21
0.0
 12
0.0
 22
0.0
 32
0.0
 14
0.0
 24
0.0
 34
0.0
 15
0.0
 25
0.0
 35
0.0
146
0.0
 13
0.0
 23
0.0
 33
0.0
 16
1.0
 26
0.0
 36
0.0
 17
0.0
 27
1.0
 37
0.0
 76
     0
330
123
331
29D
  0
LAYOUT
  5
145
102
{ACAD_REACTORS
330
1A
102
}
330
1A
100
AcDbPlotSettings
  1

  2
none_device
  4
Letter_(8.50_x_11.00_Inches)
  6

 40
6.35
 41
6.35
 42
6.35001
 43
6.35001
 44
215.9
 45
279.4
 46
0.0
 47
0.0
 48
0.0
 49
0.0
140
0.0
141
0.0
142
1.0
143
0.3749531449
 70
   688
 72
     0
 73
     1
 74
     1
  7

 75
     0
147
2.6669999
148
50.0
149
0.0
100
AcDbLayout
  1
_Top
 70
     1
 71
     5
 10
0.0
 20
0.0
 11
0.0
 21
0.0
 12
0.0
 22
0.0
 32
0.0
 14
0.0
 24
0.0
 34
0.0
 15
0.0
 25
0.0
 35
0.0
146
0.0
 13
0.0
 23
0.0
 33
0.0
 16
1.0
 26
0.0
 36
0.0
 17
0.0
 27
1.0
 37
0.0
 76
     0
330
144
331
29F
  0
LAYOUT
  5
21B
102
{ACAD_REACTORS
330
1A
102
}
330
1A
100
AcDbPlotSettings
  1

  2
none_device
  4
Letter_(8.50_x_11.00_Inches)
  6

 40
6.35
 41
6.35
 42
6.35001
 43
6.35001
 44
215.9
 45
279.4
 46
0.0
 47
0.0
 48
0.0
 49
0.0
140
0.0
141
0.0
142
1.0
143
0.3749531449
 70
   688
 72
     0
 73
     1
 74
     1
  7

 75
     0
147
2.6669999
148
50.0
149
0.0
100
AcDbLayout
  1
_Trimetric
 70
     1
 71
     8
 10
0.0
 20
0.0
 11
0.0
 21
0.0
 12
0.0
 22
0.0
 32
0.0
 14
0.0
 24
0.0
 34
0.0
 15
0.0
 25
0.0
 35
0.0
146
0.0
 13
0.0
 23
0.0
 33
0.0
 16
1.0
 26
0.0
 36
0.0
 17
0.0
 27
1.0
 37
0.0
 76
     0
330
21A
331
2A5
  0
LAYOUT
  5
22
102
{ACAD_REACTORS
330
1A
102
}
330
1A
100
AcDbPlotSettings
  1

  2
none_device
  4
ANSI_A_(11.00_x_8.50_Inches)
  6

 40
6.35
 41
19.05
 42
6.35000508
 43
19.05000254
 44
279.4
 45
215.9
 46
133.34999746
 47
30.8685778619
 48
0.0
 49
0.0
140
0.0
141
0.0
142
1.8967861585
143
1.0
 70
  1696
 72
     0
 73
     0
 74
     0
  7

 75
     0
147
0.5913241897
148
-39.4088153714
149
0.0
100
AcDbLayout
  1
Model
 70
     1
 71
     0
 10
0.0
 20
0.0
 11
12.0
 21
9.0
 12
0.0
 22
0.0
 32
0.0
 14
-1.968503937
 24
-1.0137138456
 34
0.0
 15
1.968503937
 25
3.4227377608
 35
0.0
146
0.0
 13
0.0
 23
0.0
 33
0.0
 16
1.0
 26
0.0
 36
0.0
 17
0.0
 27
1.0
 37
0.0
 76
     0
330
1F
331
29
  0
MLINESTYLE
  5
18
102
{ACAD_REACTORS
330
17
102
}
330
17
100
AcDbMlineStyle
  2
Standard
 70
     0
  3

 62
   256
 51
90.0
 52
90.0
 71
     2
 49
0.5
 62
   256
  6
BYLAYER
 49
-0.5
 62
   256
  6
BYLAYER
  0
ACDBPLACEHOLDER
  5
F
102
{ACAD_REACTORS
330
E
102
}
330
E
  0
SCALE
  5
48
102
{ACAD_REACTORS
330
47
102
}
330
47
100
AcDbScale
 70
     0
300
1:1
140
1.0
141
1.0
290
     1
  0
SCALE
  5
49
102
{ACAD_REACTORS
330
47
102
}
330
47
100
AcDbScale
 70
     0
300
1:2
140
1.0
141
2.0
290
     0
  0
SCALE
  5
4A
102
{ACAD_REACTORS
330
47
102
}
330
47
100
AcDbScale
 70
     0
300
1:4
140
1.0
141
4.0
290
     0
  0
SCALE
  5
4B
102
{ACAD_REACTORS
330
47
102
}
330
47
100
AcDbScale
 70
     0
300
1:5
140
1.0
141
5.0
290
     0
  0
SCALE
  5
4C
102
{ACAD_REACTORS
330
47
102
}
330
47
100
AcDbScale
 70
     0
300
1:8
140
1.0
141
8.0
290
     0
  0
SCALE
  5
4D
102
{ACAD_REACTORS
330
47
102
}
330
47
100
AcDbScale
 70
     0
300
1:10
140
1.0
141
10.0
290
     0
  0
SCALE
  5
4E
102
{ACAD_REACTORS
330
47
102
}
330
47
100
AcDbScale
 70
     0
300
1:16
140
1.0
141
16.0
290
     0
  0
SCALE
  5
4F
102
{ACAD_REACTORS
330
47
102
}
330
47
100
AcDbScale
 70
     0
300
1:20
140
1.0
141
20.0
290
     0
  0
SCALE
  5
50
102
{ACAD_REACTORS
330
47
102
}
330
47
100
AcDbScale
 70
     0
300
1:30
140
1.0
141
30.0
290
     0
  0
SCALE
  5
51
102
{ACAD_REACTORS
330
47
102
}
330
47
100
AcDbScale
 70
     0
300
1:40
140
1.0
141
40.0
290
     0
  0
SCALE
  5
52
102
{ACAD_REACTORS
330
47
102
}
330
47
100
AcDbScale
 70
     0
300
1:50
140
1.0
141
50.0
290
     0
  0
SCALE
  5
53
102
{ACAD_REACTORS
330
47
102
}
330
47
100
AcDbScale
 70
     0
300
1:100
140
1.0
141
100.0
290
     0
  0
SCALE
  5
54
102
{ACAD_REACTORS
330
47
102
}
330
47
100
AcDbScale
 70
     0
300
2:1
140
2.0
141
1.0
290
     0
  0
SCALE
  5
55
102
{ACAD_REACTORS
330
47
102
}
330
47
100
AcDbScale
 70
     0
300
4:1
140
4.0
141
1.0
290
     0
  0
SCALE
  5
56
102
{ACAD_REACTORS
330
47
102
}
330
47
100
AcDbScale
 70
     0
300
8:1
140
8.0
141
1.0
290
     0
  0
SCALE
  5
57
102
{ACAD_REACTORS
330
47
102
}
330
47
100
AcDbScale
 70
     0
300
10:1
140
10.0
141
1.0
290
     0
  0
SCALE
  5
58
102
{ACAD_REACTORS
330
47
102
}
330
47
100
AcDbScale
 70
     0
300
100:1
140
100.0
141
1.0
290
     0
  0
SCALE
  5
59
102
{ACAD_REACTORS
330
47
102
}
330
47
100
AcDbScale
 70
     0
300
1/128" = 1'-0"
140
0.0078125
141
12.0
290
     0
  0
SCALE
  5
5A
102
{ACAD_REACTORS
330
47
102
}
330
47
100
AcDbScale
 70
     0
300
1/64" = 1'-0"
140
0.015625
141
12.0
290
     0
  0
SCALE
  5
5B
102
{ACAD_REACTORS
330
47
102
}
330
47
100
AcDbScale
 70
     0
300
1/32" = 1'-0"
140
0.03125
141
12.0
290
     0
  0
SCALE
  5
5C
102
{ACAD_REACTORS
330
47
102
}
330
47
100
AcDbScale
 70
     0
300
1/16" = 1'-0"
140
0.0625
141
12.0
290
     0
  0
SCALE
  5
5D
102
{ACAD_REACTORS
330
47
102
}
330
47
100
AcDbScale
 70
     0
300
3/32" = 1'-0"
140
0.09375
141
12.0
290
     0
  0
SCALE
  5
5E
102
{ACAD_REACTORS
330
47
102
}
330
47
100
AcDbScale
 70
     0
300
1/8" = 1'-0"
140
0.125
141
12.0
290
     0
  0
SCALE
  5
5F
102
{ACAD_REACTORS
330
47
102
}
330
47
100
AcDbScale
 70
     0
300
3/16" = 1'-0"
140
0.1875
141
12.0
290
     0
  0
SCALE
  5
60
102
{ACAD_REACTORS
330
47
102
}
330
47
100
AcDbScale
 70
     0
300
1/4" = 1'-0"
140
0.25
141
12.0
290
     0
  0
SCALE
  5
61
102
{ACAD_REACTORS
330
47
102
}
330
47
100
AcDbScale
 70
     0
300
3/8" = 1'-0"
140
0.375
141
12.0
290
     0
  0
SCALE
  5
62
102
{ACAD_REACTORS
330
47
102
}
330
47
100
AcDbScale
 70
     0
300
1/2" = 1'-0"
140
0.5
141
12.0
290
     0
  0
SCALE
  5
63
102
{ACAD_REACTORS
330
47
102
}
330
47
100
AcDbScale
 70
     0
300
3/4" = 1'-0"
140
0.75
141
12.0
290
     0
  0
SCALE
  5
64
102
{ACAD_REACTORS
330
47
102
}
330
47
100
AcDbScale
 70
     0
300
1" = 1'-0"
140
1.0
141
12.0
290
     0
  0
SCALE
  5
65
102
{ACAD_REACTORS
330
47
102
}
330
47
100
AcDbScale
 70
     0
300
1-1/2" = 1'-0"
140
1.5
141
12.0
290
     0
  0
SCALE
  5
66
102
{ACAD_REACTORS
330
47
102
}
330
47
100
AcDbScale
 70
     0
300
3" = 1'-0"
140
3.0
141
12.0
290
     0
  0
SCALE
  5
67
102
{ACAD_REACTORS
330
47
102
}
330
47
100
AcDbScale
 70
     0
300
6" = 1'-0"
140
6.0
141
12.0
290
     0
  0
SCALE
  5
68
102
{ACAD_REACTORS
330
47
102
}
330
47
100
AcDbScale
 70
     0
300
1'-0" = 1'-0"
140
12.0
141
12.0
290
     0
  0
ENDSEC
  0
EOF
