0
SECTION
2
HEADER
9
$ACADVER
1
AC1021
9
$LWDISPLAY
290
1
9
$HANDSEED
5
6B2
0
ENDSEC
0
SECTION
2
CLASSES
0
ENDSEC
0
SECTION
2
TABLES
0
TABLE
2
VPORT
5
100
330
0
100
AcDbSymbolTable
70
0
0
ENDTAB
0
TABLE
2
LTYPE
5
101
330
0
100
AcDbSymbolTable
70
3
0
LTYPE
5
102
330
101
100
AcDbSymbolTableRecord
100
AcDbLinetypeTableRecord
2
ByBlock
70
0
3

72
65
73
0
40
0
0
LTYPE
5
103
330
101
100
AcDbSymbolTableRecord
100
AcDbLinetypeTableRecord
2
ByLayer
70
0
3

72
65
73
0
40
0
0
LTYPE
5
104
330
101
100
AcDbSymbolTableRecord
100
AcDbLinetypeTableRecord
2
Continuous
70
0
3

72
65
73
0
40
0
0
ENDTAB
0
TABLE
2
LAYER
5
105
330
0
100
AcDbSymbolTable
70
19
0
LAYER
5
106
330
105
100
AcDbSymbolTableRecord
100
AcDbLayerTableRecord
2
0
70
0
62
7
6
Continuous
390
0
0
LAYER
5
118
330
105
100
AcDbSymbolTableRecord
100
AcDbLayerTableRecord
2
lineal
70
0
62
7
6
Continuous
390
0
0
LAYER
5
182
330
105
100
AcDbSymbolTableRecord
100
AcDbLayerTableRecord
2
tunnelmeter
70
0
62
7
6
Continuous
390
0
0
LAYER
5
1A0
330
105
100
AcDbSymbolTableRecord
100
AcDbLayerTableRecord
2
ueberlagerung
70
0
62
7
6
Continuous
390
0
0
LAYER
5
1B5
330
105
100
AcDbSymbolTableRecord
100
AcDbLayerTableRecord
2
richtung
70
0
62
7
6
Continuous
390
0
0
LAYER
5
1D3
330
105
100
AcDbSymbolTableRecord
100
AcDbLayerTableRecord
2
neigung
70
0
62
7
6
Continuous
390
0
0
LAYER
5
1F1
330
105
100
AcDbSymbolTableRecord
100
AcDbLayerTableRecord
2
nummer
70
0
62
7
6
Continuous
390
0
0
LAYER
5
24F
330
105
100
AcDbSymbolTableRecord
100
AcDbLayerTableRecord
2
laenge
70
0
62
7
6
Continuous
390
0
0
LAYER
5
2AD
330
105
100
AcDbSymbolTableRecord
100
AcDbLayerTableRecord
2
ausbruchsverhalten
70
0
62
7
6
Continuous
390
0
0
LAYER
5
309
330
105
100
AcDbSymbolTableRecord
100
AcDbLayerTableRecord
2
loesemethode
70
0
62
7
6
Continuous
390
0
0
LAYER
5
374
330
105
100
AcDbSymbolTableRecord
100
AcDbLayerTableRecord
2
profilmasshaltigkeit
70
0
62
7
6
Continuous
390
0
0
LAYER
5
3DF
330
105
100
AcDbSymbolTableRecord
100
AcDbLayerTableRecord
2
bergwasserverhaeltnis
70
0
62
7
6
Continuous
390
0
0
LAYER
5
420
330
105
100
AcDbSymbolTableRecord
100
AcDbLayerTableRecord
2
gebirgsart
70
0
62
7
6
Continuous
390
0
0
LAYER
5
4B2
330
105
100
AcDbSymbolTableRecord
100
AcDbLayerTableRecord
2
festigkeit
70
0
62
7
6
Continuous
390
0
0
LAYER
5
52A
330
105
100
AcDbSymbolTableRecord
100
AcDbLayerTableRecord
2
verwitterung
70
0
62
7
6
Continuous
390
0
0
LAYER
5
5B8
330
105
100
AcDbSymbolTableRecord
100
AcDbLayerTableRecord
2
zerlegung
70
0
62
7
6
Continuous
390
0
0
LAYER
5
631
330
105
100
AcDbSymbolTableRecord
100
AcDbLayerTableRecord
2
verbandsfestigkeit
70
0
62
7
6
Continuous
390
0
0
LAYER
5
6A4
330
105
100
AcDbSymbolTableRecord
100
AcDbLayerTableRecord
2
gebirge
70
0
62
7
6
Continuous
390
0
0
LAYER
5
6AC
330
105
100
AcDbSymbolTableRecord
100
AcDbLayerTableRecord
2
grid
70
0
62
7
6
Continuous
390
0
0
ENDTAB
0
TABLE
2
STYLE
5
107
330
0
100
AcDbSymbolTable
70
2
0
STYLE
5
108
330
107
100
AcDbSymbolTableRecord
100
AcDbTextStyleTableRecord
2
Standard
70
0
40
0
41
1
50
0
71
0
42
1
3
txt
4

0
STYLE
5
117
330
107
100
AcDbSymbolTableRecord
100
AcDbTextStyleTableRecord
2
Arial
70
0
40
0
41
0.7500
50
0
71
0
42
1
3
arial.ttf
4

0
ENDTAB
0
TABLE
2
VIEW
5
109
330
0
100
AcDbSymbolTable
70
0
0
ENDTAB
0
TABLE
2
UCS
5
10A
330
0
100
AcDbSymbolTable
70
0
0
ENDTAB
0
TABLE
2
APPID
5
10B
330
0
100
AcDbSymbolTable
70
1
0
APPID
5
10C
330
10B
100
AcDbSymbolTableRecord
100
AcDbRegAppTableRecord
2
ACAD
70
0
0
ENDTAB
0
TABLE
2
DIMSTYLE
5
10D
330
0
100
AcDbSymbolTable
70
0
100
AcDbDimStyleTable
0
ENDTAB
0
TABLE
2
BLOCK_RECORD
5
10E
330
0
100
AcDbSymbolTable
70
2
0
BLOCK_RECORD
5
10F
330
10E
100
AcDbSymbolTableRecord
100
AcDbBlockTableRecord
2
*Model_Space
340
0
0
BLOCK_RECORD
5
112
330
10E
100
AcDbSymbolTableRecord
100
AcDbBlockTableRecord
2
*Paper_Space
340
0
0
ENDTAB
0
ENDSEC
0
SECTION
2
BLOCKS
0
BLOCK
5
110
330
10F
100
AcDbEntity
8
0
6
ByLayer
100
AcDbBlockBegin
2
*Model_Space
70
0
10
0
20
0
30
0
3
*Model_Space
1

0
ENDBLK
5
111
330
10F
100
AcDbEntity
8
0
6
ByLayer
100
AcDbBlockEnd
0
BLOCK
5
113
330
112
100
AcDbEntity
8
0
6
ByLayer
100
AcDbBlockBegin
2
*Paper_Space
70
0
10
0
20
0
30
0
3
*Paper_Space
1

0
ENDBLK
5
114
330
112
100
AcDbEntity
8
0
6
ByLayer
100
AcDbBlockEnd
0
ENDSEC
0
SECTION
2
ENTITIES
0
LWPOLYLINE
5
119
100
AcDbEntity
8
lineal
6
ByLayer
62
7
370
30
100
AcDbPolyline
90
4
70
1
10
-10.7000
20
0
10
-5.2000
20
0
10
-5.2000
20
-0.4000
10
-10.7000
20
-0.4000
0
LWPOLYLINE
5
11A
100
AcDbEntity
8
lineal
6
ByLayer
62
7
370
30
100
AcDbPolyline
90
4
70
1
10
-5.2000
20
0
10
0
20
0
10
0
20
-0.4000
10
-5.2000
20
-0.4000
0
HATCH
5
11B
100
AcDbEntity
8
lineal
6
ByLayer
62
7
100
AcDbHatch
10
0
20
0
30
0
210
0
220
0
230
1
2
SOLID
70
1
71
0
91
1
92
3
72
0
73
1
93
4
10
0
20
0
10
1
20
0
10
1
20
-0.4000
10
0
20
-0.4000
97
0
75
0
76
0
98
0
0
LWPOLYLINE
5
11C
100
AcDbEntity
8
lineal
6
ByLayer
62
7
370
-1
100
AcDbPolyline
90
4
70
1
10
0
20
0
10
1
20
0
10
1
20
-0.4000
10
0
20
-0.4000
0
HATCH
5
11D
100
AcDbEntity
8
lineal
6
ByLayer
62
7
100
AcDbHatch
10
0
20
0
30
0
210
0
220
0
230
1
2
SOLID
70
1
71
0
91
1
92
3
72
0
73
1
93
4
10
2
20
0
10
3
20
0
10
3
20
-0.4000
10
2
20
-0.4000
97
0
75
0
76
0
98
0
0
LWPOLYLINE
5
11E
100
AcDbEntity
8
lineal
6
ByLayer
62
7
370
-1
100
AcDbPolyline
90
4
70
1
10
2
20
0
10
3
20
0
10
3
20
-0.4000
10
2
20
-0.4000
0
HATCH
5
11F
100
AcDbEntity
8
lineal
6
ByLayer
62
7
100
AcDbHatch
10
0
20
0
30
0
210
0
220
0
230
1
2
SOLID
70
1
71
0
91
1
92
3
72
0
73
1
93
4
10
4
20
0
10
5
20
0
10
5
20
-0.4000
10
4
20
-0.4000
97
0
75
0
76
0
98
0
0
LWPOLYLINE
5
120
100
AcDbEntity
8
lineal
6
ByLayer
62
7
370
-1
100
AcDbPolyline
90
4
70
1
10
4
20
0
10
5
20
0
10
5
20
-0.4000
10
4
20
-0.4000
0
HATCH
5
121
100
AcDbEntity
8
lineal
6
ByLayer
62
7
100
AcDbHatch
10
0
20
0
30
0
210
0
220
0
230
1
2
SOLID
70
1
71
0
91
1
92
3
72
0
73
1
93
4
10
6
20
0
10
7
20
0
10
7
20
-0.4000
10
6
20
-0.4000
97
0
75
0
76
0
98
0
0
LWPOLYLINE
5
122
100
AcDbEntity
8
lineal
6
ByLayer
62
7
370
-1
100
AcDbPolyline
90
4
70
1
10
6
20
0
10
7
20
0
10
7
20
-0.4000
10
6
20
-0.4000
0
HATCH
5
123
100
AcDbEntity
8
lineal
6
ByLayer
62
7
100
AcDbHatch
10
0
20
0
30
0
210
0
220
0
230
1
2
SOLID
70
1
71
0
91
1
92
3
72
0
73
1
93
4
10
8
20
0
10
9
20
0
10
9
20
-0.4000
10
8
20
-0.4000
97
0
75
0
76
0
98
0
0
LWPOLYLINE
5
124
100
AcDbEntity
8
lineal
6
ByLayer
62
7
370
-1
100
AcDbPolyline
90
4
70
1
10
8
20
0
10
9
20
0
10
9
20
-0.4000
10
8
20
-0.4000
0
HATCH
5
125
100
AcDbEntity
8
lineal
6
ByLayer
62
7
100
AcDbHatch
10
0
20
0
30
0
210
0
220
0
230
1
2
SOLID
70
1
71
0
91
1
92
3
72
0
73
1
93
4
10
10
20
0
10
11
20
0
10
11
20
-0.4000
10
10
20
-0.4000
97
0
75
0
76
0
98
0
0
LWPOLYLINE
5
126
100
AcDbEntity
8
lineal
6
ByLayer
62
7
370
-1
100
AcDbPolyline
90
4
70
1
10
10
20
0
10
11
20
0
10
11
20
-0.4000
10
10
20
-0.4000
0
HATCH
5
127
100
AcDbEntity
8
lineal
6
ByLayer
62
7
100
AcDbHatch
10
0
20
0
30
0
210
0
220
0
230
1
2
SOLID
70
1
71
0
91
1
92
3
72
0
73
1
93
4
10
12
20
0
10
13
20
0
10
13
20
-0.4000
10
12
20
-0.4000
97
0
75
0
76
0
98
0
0
LWPOLYLINE
5
128
100
AcDbEntity
8
lineal
6
ByLayer
62
7
370
-1
100
AcDbPolyline
90
4
70
1
10
12
20
0
10
13
20
0
10
13
20
-0.4000
10
12
20
-0.4000
0
HATCH
5
129
100
AcDbEntity
8
lineal
6
ByLayer
62
7
100
AcDbHatch
10
0
20
0
30
0
210
0
220
0
230
1
2
SOLID
70
1
71
0
91
1
92
3
72
0
73
1
93
4
10
14
20
0
10
15
20
0
10
15
20
-0.4000
10
14
20
-0.4000
97
0
75
0
76
0
98
0
0
LWPOLYLINE
5
12A
100
AcDbEntity
8
lineal
6
ByLayer
62
7
370
-1
100
AcDbPolyline
90
4
70
1
10
14
20
0
10
15
20
0
10
15
20
-0.4000
10
14
20
-0.4000
0
HATCH
5
12B
100
AcDbEntity
8
lineal
6
ByLayer
62
7
100
AcDbHatch
10
0
20
0
30
0
210
0
220
0
230
1
2
SOLID
70
1
71
0
91
1
92
3
72
0
73
1
93
4
10
16
20
0
10
17
20
0
10
17
20
-0.4000
10
16
20
-0.4000
97
0
75
0
76
0
98
0
0
LWPOLYLINE
5
12C
100
AcDbEntity
8
lineal
6
ByLayer
62
7
370
-1
100
AcDbPolyline
90
4
70
1
10
16
20
0
10
17
20
0
10
17
20
-0.4000
10
16
20
-0.4000
0
HATCH
5
12D
100
AcDbEntity
8
lineal
6
ByLayer
62
7
100
AcDbHatch
10
0
20
0
30
0
210
0
220
0
230
1
2
SOLID
70
1
71
0
91
1
92
3
72
0
73
1
93
4
10
18
20
0
10
19
20
0
10
19
20
-0.4000
10
18
20
-0.4000
97
0
75
0
76
0
98
0
0
LWPOLYLINE
5
12E
100
AcDbEntity
8
lineal
6
ByLayer
62
7
370
-1
100
AcDbPolyline
90
4
70
1
10
18
20
0
10
19
20
0
10
19
20
-0.4000
10
18
20
-0.4000
0
HATCH
5
12F
100
AcDbEntity
8
lineal
6
ByLayer
62
7
100
AcDbHatch
10
0
20
0
30
0
210
0
220
0
230
1
2
SOLID
70
1
71
0
91
1
92
3
72
0
73
1
93
4
10
20
20
0
10
21
20
0
10
21
20
-0.4000
10
20
20
-0.4000
97
0
75
0
76
0
98
0
0
LWPOLYLINE
5
130
100
AcDbEntity
8
lineal
6
ByLayer
62
7
370
-1
100
AcDbPolyline
90
4
70
1
10
20
20
0
10
21
20
0
10
21
20
-0.4000
10
20
20
-0.4000
0
HATCH
5
131
100
AcDbEntity
8
lineal
6
ByLayer
62
7
100
AcDbHatch
10
0
20
0
30
0
210
0
220
0
230
1
2
SOLID
70
1
71
0
91
1
92
3
72
0
73
1
93
4
10
22
20
0
10
23
20
0
10
23
20
-0.4000
10
22
20
-0.4000
97
0
75
0
76
0
98
0
0
LWPOLYLINE
5
132
100
AcDbEntity
8
lineal
6
ByLayer
62
7
370
-1
100
AcDbPolyline
90
4
70
1
10
22
20
0
10
23
20
0
10
23
20
-0.4000
10
22
20
-0.4000
0
HATCH
5
133
100
AcDbEntity
8
lineal
6
ByLayer
62
7
100
AcDbHatch
10
0
20
0
30
0
210
0
220
0
230
1
2
SOLID
70
1
71
0
91
1
92
3
72
0
73
1
93
4
10
24
20
0
10
25
20
0
10
25
20
-0.4000
10
24
20
-0.4000
97
0
75
0
76
0
98
0
0
LWPOLYLINE
5
134
100
AcDbEntity
8
lineal
6
ByLayer
62
7
370
-1
100
AcDbPolyline
90
4
70
1
10
24
20
0
10
25
20
0
10
25
20
-0.4000
10
24
20
-0.4000
0
HATCH
5
135
100
AcDbEntity
8
lineal
6
ByLayer
62
7
100
AcDbHatch
10
0
20
0
30
0
210
0
220
0
230
1
2
SOLID
70
1
71
0
91
1
92
3
72
0
73
1
93
4
10
26
20
0
10
27
20
0
10
27
20
-0.4000
10
26
20
-0.4000
97
0
75
0
76
0
98
0
0
LWPOLYLINE
5
136
100
AcDbEntity
8
lineal
6
ByLayer
62
7
370
-1
100
AcDbPolyline
90
4
70
1
10
26
20
0
10
27
20
0
10
27
20
-0.4000
10
26
20
-0.4000
0
HATCH
5
137
100
AcDbEntity
8
lineal
6
ByLayer
62
7
100
AcDbHatch
10
0
20
0
30
0
210
0
220
0
230
1
2
SOLID
70
1
71
0
91
1
92
3
72
0
73
1
93
4
10
28
20
0
10
29
20
0
10
29
20
-0.4000
10
28
20
-0.4000
97
0
75
0
76
0
98
0
0
LWPOLYLINE
5
138
100
AcDbEntity
8
lineal
6
ByLayer
62
7
370
-1
100
AcDbPolyline
90
4
70
1
10
28
20
0
10
29
20
0
10
29
20
-0.4000
10
28
20
-0.4000
0
HATCH
5
139
100
AcDbEntity
8
lineal
6
ByLayer
62
7
100
AcDbHatch
10
0
20
0
30
0
210
0
220
0
230
1
2
SOLID
70
1
71
0
91
1
92
3
72
0
73
1
93
4
10
30
20
0
10
31
20
0
10
31
20
-0.4000
10
30
20
-0.4000
97
0
75
0
76
0
98
0
0
LWPOLYLINE
5
13A
100
AcDbEntity
8
lineal
6
ByLayer
62
7
370
-1
100
AcDbPolyline
90
4
70
1
10
30
20
0
10
31
20
0
10
31
20
-0.4000
10
30
20
-0.4000
0
HATCH
5
13B
100
AcDbEntity
8
lineal
6
ByLayer
62
7
100
AcDbHatch
10
0
20
0
30
0
210
0
220
0
230
1
2
SOLID
70
1
71
0
91
1
92
3
72
0
73
1
93
4
10
32
20
0
10
33
20
0
10
33
20
-0.4000
10
32
20
-0.4000
97
0
75
0
76
0
98
0
0
LWPOLYLINE
5
13C
100
AcDbEntity
8
lineal
6
ByLayer
62
7
370
-1
100
AcDbPolyline
90
4
70
1
10
32
20
0
10
33
20
0
10
33
20
-0.4000
10
32
20
-0.4000
0
HATCH
5
13D
100
AcDbEntity
8
lineal
6
ByLayer
62
7
100
AcDbHatch
10
0
20
0
30
0
210
0
220
0
230
1
2
SOLID
70
1
71
0
91
1
92
3
72
0
73
1
93
4
10
34
20
0
10
35
20
0
10
35
20
-0.4000
10
34
20
-0.4000
97
0
75
0
76
0
98
0
0
LWPOLYLINE
5
13E
100
AcDbEntity
8
lineal
6
ByLayer
62
7
370
-1
100
AcDbPolyline
90
4
70
1
10
34
20
0
10
35
20
0
10
35
20
-0.4000
10
34
20
-0.4000
0
HATCH
5
13F
100
AcDbEntity
8
lineal
6
ByLayer
62
7
100
AcDbHatch
10
0
20
0
30
0
210
0
220
0
230
1
2
SOLID
70
1
71
0
91
1
92
3
72
0
73
1
93
4
10
36
20
0
10
37
20
0
10
37
20
-0.4000
10
36
20
-0.4000
97
0
75
0
76
0
98
0
0
LWPOLYLINE
5
140
100
AcDbEntity
8
lineal
6
ByLayer
62
7
370
-1
100
AcDbPolyline
90
4
70
1
10
36
20
0
10
37
20
0
10
37
20
-0.4000
10
36
20
-0.4000
0
HATCH
5
141
100
AcDbEntity
8
lineal
6
ByLayer
62
7
100
AcDbHatch
10
0
20
0
30
0
210
0
220
0
230
1
2
SOLID
70
1
71
0
91
1
92
3
72
0
73
1
93
4
10
38
20
0
10
39
20
0
10
39
20
-0.4000
10
38
20
-0.4000
97
0
75
0
76
0
98
0
0
LWPOLYLINE
5
142
100
AcDbEntity
8
lineal
6
ByLayer
62
7
370
-1
100
AcDbPolyline
90
4
70
1
10
38
20
0
10
39
20
0
10
39
20
-0.4000
10
38
20
-0.4000
0
HATCH
5
143
100
AcDbEntity
8
lineal
6
ByLayer
62
7
100
AcDbHatch
10
0
20
0
30
0
210
0
220
0
230
1
2
SOLID
70
1
71
0
91
1
92
3
72
0
73
1
93
4
10
40
20
0
10
41
20
0
10
41
20
-0.4000
10
40
20
-0.4000
97
0
75
0
76
0
98
0
0
LWPOLYLINE
5
144
100
AcDbEntity
8
lineal
6
ByLayer
62
7
370
-1
100
AcDbPolyline
90
4
70
1
10
40
20
0
10
41
20
0
10
41
20
-0.4000
10
40
20
-0.4000
0
HATCH
5
145
100
AcDbEntity
8
lineal
6
ByLayer
62
7
100
AcDbHatch
10
0
20
0
30
0
210
0
220
0
230
1
2
SOLID
70
1
71
0
91
1
92
3
72
0
73
1
93
4
10
42
20
0
10
43
20
0
10
43
20
-0.4000
10
42
20
-0.4000
97
0
75
0
76
0
98
0
0
LWPOLYLINE
5
146
100
AcDbEntity
8
lineal
6
ByLayer
62
7
370
-1
100
AcDbPolyline
90
4
70
1
10
42
20
0
10
43
20
0
10
43
20
-0.4000
10
42
20
-0.4000
0
HATCH
5
147
100
AcDbEntity
8
lineal
6
ByLayer
62
7
100
AcDbHatch
10
0
20
0
30
0
210
0
220
0
230
1
2
SOLID
70
1
71
0
91
1
92
3
72
0
73
1
93
4
10
44
20
0
10
45
20
0
10
45
20
-0.4000
10
44
20
-0.4000
97
0
75
0
76
0
98
0
0
LWPOLYLINE
5
148
100
AcDbEntity
8
lineal
6
ByLayer
62
7
370
-1
100
AcDbPolyline
90
4
70
1
10
44
20
0
10
45
20
0
10
45
20
-0.4000
10
44
20
-0.4000
0
HATCH
5
149
100
AcDbEntity
8
lineal
6
ByLayer
62
7
100
AcDbHatch
10
0
20
0
30
0
210
0
220
0
230
1
2
SOLID
70
1
71
0
91
1
92
3
72
0
73
1
93
4
10
46
20
0
10
47
20
0
10
47
20
-0.4000
10
46
20
-0.4000
97
0
75
0
76
0
98
0
0
LWPOLYLINE
5
14A
100
AcDbEntity
8
lineal
6
ByLayer
62
7
370
-1
100
AcDbPolyline
90
4
70
1
10
46
20
0
10
47
20
0
10
47
20
-0.4000
10
46
20
-0.4000
0
HATCH
5
14B
100
AcDbEntity
8
lineal
6
ByLayer
62
7
100
AcDbHatch
10
0
20
0
30
0
210
0
220
0
230
1
2
SOLID
70
1
71
0
91
1
92
3
72
0
73
1
93
4
10
48
20
0
10
49
20
0
10
49
20
-0.4000
10
48
20
-0.4000
97
0
75
0
76
0
98
0
0
LWPOLYLINE
5
14C
100
AcDbEntity
8
lineal
6
ByLayer
62
7
370
-1
100
AcDbPolyline
90
4
70
1
10
48
20
0
10
49
20
0
10
49
20
-0.4000
10
48
20
-0.4000
0
HATCH
5
14D
100
AcDbEntity
8
lineal
6
ByLayer
62
7
100
AcDbHatch
10
0
20
0
30
0
210
0
220
0
230
1
2
SOLID
70
1
71
0
91
1
92
3
72
0
73
1
93
4
10
50
20
0
10
51
20
0
10
51
20
-0.4000
10
50
20
-0.4000
97
0
75
0
76
0
98
0
0
LWPOLYLINE
5
14E
100
AcDbEntity
8
lineal
6
ByLayer
62
7
370
-1
100
AcDbPolyline
90
4
70
1
10
50
20
0
10
51
20
0
10
51
20
-0.4000
10
50
20
-0.4000
0
HATCH
5
14F
100
AcDbEntity
8
lineal
6
ByLayer
62
7
100
AcDbHatch
10
0
20
0
30
0
210
0
220
0
230
1
2
SOLID
70
1
71
0
91
1
92
3
72
0
73
1
93
4
10
52
20
0
10
53
20
0
10
53
20
-0.4000
10
52
20
-0.4000
97
0
75
0
76
0
98
0
0
LWPOLYLINE
5
150
100
AcDbEntity
8
lineal
6
ByLayer
62
7
370
-1
100
AcDbPolyline
90
4
70
1
10
52
20
0
10
53
20
0
10
53
20
-0.4000
10
52
20
-0.4000
0
HATCH
5
151
100
AcDbEntity
8
lineal
6
ByLayer
62
7
100
AcDbHatch
10
0
20
0
30
0
210
0
220
0
230
1
2
SOLID
70
1
71
0
91
1
92
3
72
0
73
1
93
4
10
54
20
0
10
55
20
0
10
55
20
-0.4000
10
54
20
-0.4000
97
0
75
0
76
0
98
0
0
LWPOLYLINE
5
152
100
AcDbEntity
8
lineal
6
ByLayer
62
7
370
-1
100
AcDbPolyline
90
4
70
1
10
54
20
0
10
55
20
0
10
55
20
-0.4000
10
54
20
-0.4000
0
HATCH
5
153
100
AcDbEntity
8
lineal
6
ByLayer
62
7
100
AcDbHatch
10
0
20
0
30
0
210
0
220
0
230
1
2
SOLID
70
1
71
0
91
1
92
3
72
0
73
1
93
4
10
56
20
0
10
57
20
0
10
57
20
-0.4000
10
56
20
-0.4000
97
0
75
0
76
0
98
0
0
LWPOLYLINE
5
154
100
AcDbEntity
8
lineal
6
ByLayer
62
7
370
-1
100
AcDbPolyline
90
4
70
1
10
56
20
0
10
57
20
0
10
57
20
-0.4000
10
56
20
-0.4000
0
HATCH
5
155
100
AcDbEntity
8
lineal
6
ByLayer
62
7
100
AcDbHatch
10
0
20
0
30
0
210
0
220
0
230
1
2
SOLID
70
1
71
0
91
1
92
3
72
0
73
1
93
4
10
58
20
0
10
59
20
0
10
59
20
-0.4000
10
58
20
-0.4000
97
0
75
0
76
0
98
0
0
LWPOLYLINE
5
156
100
AcDbEntity
8
lineal
6
ByLayer
62
7
370
-1
100
AcDbPolyline
90
4
70
1
10
58
20
0
10
59
20
0
10
59
20
-0.4000
10
58
20
-0.4000
0
HATCH
5
157
100
AcDbEntity
8
lineal
6
ByLayer
62
7
100
AcDbHatch
10
0
20
0
30
0
210
0
220
0
230
1
2
SOLID
70
1
71
0
91
1
92
3
72
0
73
1
93
4
10
60
20
0
10
61
20
0
10
61
20
-0.4000
10
60
20
-0.4000
97
0
75
0
76
0
98
0
0
LWPOLYLINE
5
158
100
AcDbEntity
8
lineal
6
ByLayer
62
7
370
-1
100
AcDbPolyline
90
4
70
1
10
60
20
0
10
61
20
0
10
61
20
-0.4000
10
60
20
-0.4000
0
HATCH
5
159
100
AcDbEntity
8
lineal
6
ByLayer
62
7
100
AcDbHatch
10
0
20
0
30
0
210
0
220
0
230
1
2
SOLID
70
1
71
0
91
1
92
3
72
0
73
1
93
4
10
62
20
0
10
63
20
0
10
63
20
-0.4000
10
62
20
-0.4000
97
0
75
0
76
0
98
0
0
LWPOLYLINE
5
15A
100
AcDbEntity
8
lineal
6
ByLayer
62
7
370
-1
100
AcDbPolyline
90
4
70
1
10
62
20
0
10
63
20
0
10
63
20
-0.4000
10
62
20
-0.4000
0
HATCH
5
15B
100
AcDbEntity
8
lineal
6
ByLayer
62
7
100
AcDbHatch
10
0
20
0
30
0
210
0
220
0
230
1
2
SOLID
70
1
71
0
91
1
92
3
72
0
73
1
93
4
10
64
20
0
10
65
20
0
10
65
20
-0.4000
10
64
20
-0.4000
97
0
75
0
76
0
98
0
0
LWPOLYLINE
5
15C
100
AcDbEntity
8
lineal
6
ByLayer
62
7
370
-1
100
AcDbPolyline
90
4
70
1
10
64
20
0
10
65
20
0
10
65
20
-0.4000
10
64
20
-0.4000
0
HATCH
5
15D
100
AcDbEntity
8
lineal
6
ByLayer
62
7
100
AcDbHatch
10
0
20
0
30
0
210
0
220
0
230
1
2
SOLID
70
1
71
0
91
1
92
3
72
0
73
1
93
4
10
66
20
0
10
67
20
0
10
67
20
-0.4000
10
66
20
-0.4000
97
0
75
0
76
0
98
0
0
LWPOLYLINE
5
15E
100
AcDbEntity
8
lineal
6
ByLayer
62
7
370
-1
100
AcDbPolyline
90
4
70
1
10
66
20
0
10
67
20
0
10
67
20
-0.4000
10
66
20
-0.4000
0
HATCH
5
15F
100
AcDbEntity
8
lineal
6
ByLayer
62
7
100
AcDbHatch
10
0
20
0
30
0
210
0
220
0
230
1
2
SOLID
70
1
71
0
91
1
92
3
72
0
73
1
93
4
10
68
20
0
10
69
20
0
10
69
20
-0.4000
10
68
20
-0.4000
97
0
75
0
76
0
98
0
0
LWPOLYLINE
5
160
100
AcDbEntity
8
lineal
6
ByLayer
62
7
370
-1
100
AcDbPolyline
90
4
70
1
10
68
20
0
10
69
20
0
10
69
20
-0.4000
10
68
20
-0.4000
0
HATCH
5
161
100
AcDbEntity
8
lineal
6
ByLayer
62
7
100
AcDbHatch
10
0
20
0
30
0
210
0
220
0
230
1
2
SOLID
70
1
71
0
91
1
92
3
72
0
73
1
93
4
10
70
20
0
10
71
20
0
10
71
20
-0.4000
10
70
20
-0.4000
97
0
75
0
76
0
98
0
0
LWPOLYLINE
5
162
100
AcDbEntity
8
lineal
6
ByLayer
62
7
370
-1
100
AcDbPolyline
90
4
70
1
10
70
20
0
10
71
20
0
10
71
20
-0.4000
10
70
20
-0.4000
0
HATCH
5
163
100
AcDbEntity
8
lineal
6
ByLayer
62
7
100
AcDbHatch
10
0
20
0
30
0
210
0
220
0
230
1
2
SOLID
70
1
71
0
91
1
92
3
72
0
73
1
93
4
10
72
20
0
10
73
20
0
10
73
20
-0.4000
10
72
20
-0.4000
97
0
75
0
76
0
98
0
0
LWPOLYLINE
5
164
100
AcDbEntity
8
lineal
6
ByLayer
62
7
370
-1
100
AcDbPolyline
90
4
70
1
10
72
20
0
10
73
20
0
10
73
20
-0.4000
10
72
20
-0.4000
0
HATCH
5
165
100
AcDbEntity
8
lineal
6
ByLayer
62
7
100
AcDbHatch
10
0
20
0
30
0
210
0
220
0
230
1
2
SOLID
70
1
71
0
91
1
92
3
72
0
73
1
93
4
10
74
20
0
10
75
20
0
10
75
20
-0.4000
10
74
20
-0.4000
97
0
75
0
76
0
98
0
0
LWPOLYLINE
5
166
100
AcDbEntity
8
lineal
6
ByLayer
62
7
370
-1
100
AcDbPolyline
90
4
70
1
10
74
20
0
10
75
20
0
10
75
20
-0.4000
10
74
20
-0.4000
0
HATCH
5
167
100
AcDbEntity
8
lineal
6
ByLayer
62
7
100
AcDbHatch
10
0
20
0
30
0
210
0
220
0
230
1
2
SOLID
70
1
71
0
91
1
92
3
72
0
73
1
93
4
10
76
20
0
10
77
20
0
10
77
20
-0.4000
10
76
20
-0.4000
97
0
75
0
76
0
98
0
0
LWPOLYLINE
5
168
100
AcDbEntity
8
lineal
6
ByLayer
62
7
370
-1
100
AcDbPolyline
90
4
70
1
10
76
20
0
10
77
20
0
10
77
20
-0.4000
10
76
20
-0.4000
0
HATCH
5
169
100
AcDbEntity
8
lineal
6
ByLayer
62
7
100
AcDbHatch
10
0
20
0
30
0
210
0
220
0
230
1
2
SOLID
70
1
71
0
91
1
92
3
72
0
73
1
93
4
10
78
20
0
10
79
20
0
10
79
20
-0.4000
10
78
20
-0.4000
97
0
75
0
76
0
98
0
0
LWPOLYLINE
5
16A
100
AcDbEntity
8
lineal
6
ByLayer
62
7
370
-1
100
AcDbPolyline
90
4
70
1
10
78
20
0
10
79
20
0
10
79
20
-0.4000
10
78
20
-0.4000
0
HATCH
5
16B
100
AcDbEntity
8
lineal
6
ByLayer
62
7
100
AcDbHatch
10
0
20
0
30
0
210
0
220
0
230
1
2
SOLID
70
1
71
0
91
1
92
3
72
0
73
1
93
4
10
80
20
0
10
81
20
0
10
81
20
-0.4000
10
80
20
-0.4000
97
0
75
0
76
0
98
0
0
LWPOLYLINE
5
16C
100
AcDbEntity
8
lineal
6
ByLayer
62
7
370
-1
100
AcDbPolyline
90
4
70
1
10
80
20
0
10
81
20
0
10
81
20
-0.4000
10
80
20
-0.4000
0
HATCH
5
16D
100
AcDbEntity
8
lineal
6
ByLayer
62
7
100
AcDbHatch
10
0
20
0
30
0
210
0
220
0
230
1
2
SOLID
70
1
71
0
91
1
92
3
72
0
73
1
93
4
10
82
20
0
10
83
20
0
10
83
20
-0.4000
10
82
20
-0.4000
97
0
75
0
76
0
98
0
0
LWPOLYLINE
5
16E
100
AcDbEntity
8
lineal
6
ByLayer
62
7
370
-1
100
AcDbPolyline
90
4
70
1
10
82
20
0
10
83
20
0
10
83
20
-0.4000
10
82
20
-0.4000
0
HATCH
5
16F
100
AcDbEntity
8
lineal
6
ByLayer
62
7
100
AcDbHatch
10
0
20
0
30
0
210
0
220
0
230
1
2
SOLID
70
1
71
0
91
1
92
3
72
0
73
1
93
4
10
84
20
0
10
85
20
0
10
85
20
-0.4000
10
84
20
-0.4000
97
0
75
0
76
0
98
0
0
LWPOLYLINE
5
170
100
AcDbEntity
8
lineal
6
ByLayer
62
7
370
-1
100
AcDbPolyline
90
4
70
1
10
84
20
0
10
85
20
0
10
85
20
-0.4000
10
84
20
-0.4000
0
HATCH
5
171
100
AcDbEntity
8
lineal
6
ByLayer
62
7
100
AcDbHatch
10
0
20
0
30
0
210
0
220
0
230
1
2
SOLID
70
1
71
0
91
1
92
3
72
0
73
1
93
4
10
86
20
0
10
87
20
0
10
87
20
-0.4000
10
86
20
-0.4000
97
0
75
0
76
0
98
0
0
LWPOLYLINE
5
172
100
AcDbEntity
8
lineal
6
ByLayer
62
7
370
-1
100
AcDbPolyline
90
4
70
1
10
86
20
0
10
87
20
0
10
87
20
-0.4000
10
86
20
-0.4000
0
HATCH
5
173
100
AcDbEntity
8
lineal
6
ByLayer
62
7
100
AcDbHatch
10
0
20
0
30
0
210
0
220
0
230
1
2
SOLID
70
1
71
0
91
1
92
3
72
0
73
1
93
4
10
88
20
0
10
89
20
0
10
89
20
-0.4000
10
88
20
-0.4000
97
0
75
0
76
0
98
0
0
LWPOLYLINE
5
174
100
AcDbEntity
8
lineal
6
ByLayer
62
7
370
-1
100
AcDbPolyline
90
4
70
1
10
88
20
0
10
89
20
0
10
89
20
-0.4000
10
88
20
-0.4000
0
HATCH
5
175
100
AcDbEntity
8
lineal
6
ByLayer
62
7
100
AcDbHatch
10
0
20
0
30
0
210
0
220
0
230
1
2
SOLID
70
1
71
0
91
1
92
3
72
0
73
1
93
4
10
90
20
0
10
91
20
0
10
91
20
-0.4000
10
90
20
-0.4000
97
0
75
0
76
0
98
0
0
LWPOLYLINE
5
176
100
AcDbEntity
8
lineal
6
ByLayer
62
7
370
-1
100
AcDbPolyline
90
4
70
1
10
90
20
0
10
91
20
0
10
91
20
-0.4000
10
90
20
-0.4000
0
HATCH
5
177
100
AcDbEntity
8
lineal
6
ByLayer
62
7
100
AcDbHatch
10
0
20
0
30
0
210
0
220
0
230
1
2
SOLID
70
1
71
0
91
1
92
3
72
0
73
1
93
4
10
92
20
0
10
93
20
0
10
93
20
-0.4000
10
92
20
-0.4000
97
0
75
0
76
0
98
0
0
LWPOLYLINE
5
178
100
AcDbEntity
8
lineal
6
ByLayer
62
7
370
-1
100
AcDbPolyline
90
4
70
1
10
92
20
0
10
93
20
0
10
93
20
-0.4000
10
92
20
-0.4000
0
HATCH
5
179
100
AcDbEntity
8
lineal
6
ByLayer
62
7
100
AcDbHatch
10
0
20
0
30
0
210
0
220
0
230
1
2
SOLID
70
1
71
0
91
1
92
3
72
0
73
1
93
4
10
94
20
0
10
95
20
0
10
95
20
-0.4000
10
94
20
-0.4000
97
0
75
0
76
0
98
0
0
LWPOLYLINE
5
17A
100
AcDbEntity
8
lineal
6
ByLayer
62
7
370
-1
100
AcDbPolyline
90
4
70
1
10
94
20
0
10
95
20
0
10
95
20
-0.4000
10
94
20
-0.4000
0
HATCH
5
17B
100
AcDbEntity
8
lineal
6
ByLayer
62
7
100
AcDbHatch
10
0
20
0
30
0
210
0
220
0
230
1
2
SOLID
70
1
71
0
91
1
92
3
72
0
73
1
93
4
10
96
20
0
10
97
20
0
10
97
20
-0.4000
10
96
20
-0.4000
97
0
75
0
76
0
98
0
0
LWPOLYLINE
5
17C
100
AcDbEntity
8
lineal
6
ByLayer
62
7
370
-1
100
AcDbPolyline
90
4
70
1
10
96
20
0
10
97
20
0
10
97
20
-0.4000
10
96
20
-0.4000
0
HATCH
5
17D
100
AcDbEntity
8
lineal
6
ByLayer
62
7
100
AcDbHatch
10
0
20
0
30
0
210
0
220
0
230
1
2
SOLID
70
1
71
0
91
1
92
3
72
0
73
1
93
4
10
98
20
0
10
99
20
0
10
99
20
-0.4000
10
98
20
-0.4000
97
0
75
0
76
0
98
0
0
LWPOLYLINE
5
17E
100
AcDbEntity
8
lineal
6
ByLayer
62
7
370
-1
100
AcDbPolyline
90
4
70
1
10
98
20
0
10
99
20
0
10
99
20
-0.4000
10
98
20
-0.4000
0
LWPOLYLINE
5
17F
100
AcDbEntity
8
lineal
6
ByLayer
62
7
370
30
100
AcDbPolyline
90
4
70
1
10
105.2000
20
0
10
110.7000
20
0
10
110.7000
20
-0.4000
10
105.2000
20
-0.4000
0
LWPOLYLINE
5
180
100
AcDbEntity
8
lineal
6
ByLayer
62
7
370
30
100
AcDbPolyline
90
4
70
1
10
100
20
0
10
105.2000
20
0
10
105.2000
20
-0.4000
10
100
20
-0.4000
0
LWPOLYLINE
5
181
100
AcDbEntity
8
lineal
6
ByLayer
62
7
370
30
100
AcDbPolyline
90
4
70
1
10
0
20
0
10
100
20
0
10
100
20
-0.4000
10
0
20
-0.4000
0
LWPOLYLINE
5
183
100
AcDbEntity
8
tunnelmeter
6
ByLayer
62
7
370
30
100
AcDbPolyline
90
4
70
1
10
-10.7000
20
-0.4000
10
-5.2000
20
-0.4000
10
-5.2000
20
-1.4000
10
-10.7000
20
-1.4000
0
LWPOLYLINE
5
184
100
AcDbEntity
8
tunnelmeter
6
ByLayer
62
7
370
30
100
AcDbPolyline
90
4
70
1
10
-5.2000
20
-0.4000
10
0
20
-0.4000
10
0
20
-1.4000
10
-5.2000
20
-1.4000
0
TEXT
5
185
100
AcDbEntity
8
tunnelmeter
6
ByLayer
62
7
100
AcDbText
7
Arial
10
-10.5000
20
-0.9000
40
0.4500
41
0.7500
1
Tunnelmeter
7
Arial
11
-10.5000
21
-0.9000
100
AcDbText
73
2
0
TEXT
5
186
100
AcDbEntity
8
tunnelmeter
6
ByLayer
62
7
100
AcDbText
7
Arial
10
-0.2000
20
-0.9000
40
0.3600
41
0.7500
1
[m]
7
Arial
72
2
11
-0.2000
21
-0.9000
100
AcDbText
73
2
0
TEXT
5
187
100
AcDbEntity
8
tunnelmeter
6
ByLayer
62
7
100
AcDbText
7
Arial
10
10
20
-0.9000
40
0.3600
41
0.7500
1
10
7
Arial
72
1
11
10
21
-0.9000
100
AcDbText
73
2
0
TEXT
5
188
100
AcDbEntity
8
tunnelmeter
6
ByLayer
62
7
100
AcDbText
7
Arial
10
20
20
-0.9000
40
0.3600
41
0.7500
1
20
7
Arial
72
1
11
20
21
-0.9000
100
AcDbText
73
2
0
TEXT
5
189
100
AcDbEntity
8
tunnelmeter
6
ByLayer
62
7
100
AcDbText
7
Arial
10
30
20
-0.9000
40
0.3600
41
0.7500
1
30
7
Arial
72
1
11
30
21
-0.9000
100
AcDbText
73
2
0
TEXT
5
18A
100
AcDbEntity
8
tunnelmeter
6
ByLayer
62
7
100
AcDbText
7
Arial
10
40
20
-0.9000
40
0.3600
41
0.7500
1
40
7
Arial
72
1
11
40
21
-0.9000
100
AcDbText
73
2
0
TEXT
5
18B
100
AcDbEntity
8
tunnelmeter
6
ByLayer
62
7
100
AcDbText
7
Arial
10
50
20
-0.9000
40
0.3600
41
0.7500
1
50
7
Arial
72
1
11
50
21
-0.9000
100
AcDbText
73
2
0
TEXT
5
18C
100
AcDbEntity
8
tunnelmeter
6
ByLayer
62
7
100
AcDbText
7
Arial
10
60
20
-0.9000
40
0.3600
41
0.7500
1
60
7
Arial
72
1
11
60
21
-0.9000
100
AcDbText
73
2
0
TEXT
5
18D
100
AcDbEntity
8
tunnelmeter
6
ByLayer
62
7
100
AcDbText
7
Arial
10
70
20
-0.9000
40
0.3600
41
0.7500
1
70
7
Arial
72
1
11
70
21
-0.9000
100
AcDbText
73
2
0
TEXT
5
18E
100
AcDbEntity
8
tunnelmeter
6
ByLayer
62
7
100
AcDbText
7
Arial
10
80
20
-0.9000
40
0.3600
41
0.7500
1
80
7
Arial
72
1
11
80
21
-0.9000
100
AcDbText
73
2
0
TEXT
5
18F
100
AcDbEntity
8
tunnelmeter
6
ByLayer
62
7
100
AcDbText
7
Arial
10
90
20
-0.9000
40
0.3600
41
0.7500
1
90
7
Arial
72
1
11
90
21
-0.9000
100
AcDbText
73
2
0
LINE
5
190
100
AcDbEntity
8
tunnelmeter
6
ByLayer
62
256
370
-1
100
AcDbLine
10
0
20
-1.4000
11
0
21
-1.2500
0
LINE
5
191
100
AcDbEntity
8
tunnelmeter
6
ByLayer
62
256
370
-1
100
AcDbLine
10
10
20
-1.4000
11
10
21
-1.2500
0
LINE
5
192
100
AcDbEntity
8
tunnelmeter
6
ByLayer
62
256
370
-1
100
AcDbLine
10
20
20
-1.4000
11
20
21
-1.2500
0
LINE
5
193
100
AcDbEntity
8
tunnelmeter
6
ByLayer
62
256
370
-1
100
AcDbLine
10
30
20
-1.4000
11
30
21
-1.2500
0
LINE
5
194
100
AcDbEntity
8
tunnelmeter
6
ByLayer
62
256
370
-1
100
AcDbLine
10
40
20
-1.4000
11
40
21
-1.2500
0
LINE
5
195
100
AcDbEntity
8
tunnelmeter
6
ByLayer
62
256
370
-1
100
AcDbLine
10
50
20
-1.4000
11
50
21
-1.2500
0
LINE
5
196
100
AcDbEntity
8
tunnelmeter
6
ByLayer
62
256
370
-1
100
AcDbLine
10
60
20
-1.4000
11
60
21
-1.2500
0
LINE
5
197
100
AcDbEntity
8
tunnelmeter
6
ByLayer
62
256
370
-1
100
AcDbLine
10
70
20
-1.4000
11
70
21
-1.2500
0
LINE
5
198
100
AcDbEntity
8
tunnelmeter
6
ByLayer
62
256
370
-1
100
AcDbLine
10
80
20
-1.4000
11
80
21
-1.2500
0
LINE
5
199
100
AcDbEntity
8
tunnelmeter
6
ByLayer
62
256
370
-1
100
AcDbLine
10
90
20
-1.4000
11
90
21
-1.2500
0
LINE
5
19A
100
AcDbEntity
8
tunnelmeter
6
ByLayer
62
256
370
-1
100
AcDbLine
10
100
20
-1.4000
11
100
21
-1.2500
0
LWPOLYLINE
5
19B
100
AcDbEntity
8
tunnelmeter
6
ByLayer
62
7
370
30
100
AcDbPolyline
90
4
70
1
10
105.2000
20
-0.4000
10
110.7000
20
-0.4000
10
110.7000
20
-1.4000
10
105.2000
20
-1.4000
0
LWPOLYLINE
5
19C
100
AcDbEntity
8
tunnelmeter
6
ByLayer
62
7
370
30
100
AcDbPolyline
90
4
70
1
10
100
20
-0.4000
10
105.2000
20
-0.4000
10
105.2000
20
-1.4000
10
100
20
-1.4000
0
TEXT
5
19D
100
AcDbEntity
8
tunnelmeter
6
ByLayer
62
7
100
AcDbText
7
Arial
10
110.5000
20
-0.9000
40
0.4500
41
0.7500
1
Tunnelmeter
7
Arial
72
2
11
110.5000
21
-0.9000
100
AcDbText
73
2
0
TEXT
5
19E
100
AcDbEntity
8
tunnelmeter
6
ByLayer
62
7
100
AcDbText
7
Arial
10
100.2000
20
-0.9000
40
0.3600
41
0.7500
1
[m]
7
Arial
11
100.2000
21
-0.9000
100
AcDbText
73
2
0
LWPOLYLINE
5
19F
100
AcDbEntity
8
tunnelmeter
6
ByLayer
62
7
370
30
100
AcDbPolyline
90
4
70
1
10
0
20
-0.4000
10
100
20
-0.4000
10
100
20
-1.4000
10
0
20
-1.4000
0
LWPOLYLINE
5
1A1
100
AcDbEntity
8
ueberlagerung
6
ByLayer
62
7
370
30
100
AcDbPolyline
90
4
70
1
10
-10.7000
20
-1.4000
10
-5.2000
20
-1.4000
10
-5.2000
20
-2.4000
10
-10.7000
20
-2.4000
0
LWPOLYLINE
5
1A2
100
AcDbEntity
8
ueberlagerung
6
ByLayer
62
7
370
30
100
AcDbPolyline
90
4
70
1
10
-5.2000
20
-1.4000
10
0
20
-1.4000
10
0
20
-2.4000
10
-5.2000
20
-2.4000
0
TEXT
5
1A3
100
AcDbEntity
8
ueberlagerung
6
ByLayer
62
7
100
AcDbText
7
Arial
10
-10.5000
20
-1.9000
40
0.4500
41
0.7500
1
Überlagerung
7
Arial
11
-10.5000
21
-1.9000
100
AcDbText
73
2
0
TEXT
5
1A4
100
AcDbEntity
8
ueberlagerung
6
ByLayer
62
7
100
AcDbText
7
Arial
10
-0.2000
20
-1.9000
40
0.3600
41
0.7500
1
[m]
7
Arial
72
2
11
-0.2000
21
-1.9000
100
AcDbText
73
2
0
LINE
5
1A5
100
AcDbEntity
8
ueberlagerung
6
ByLayer
62
256
370
-1
100
AcDbLine
10
0
20
-2.4000
11
0
21
-2.2500
0
LINE
5
1A6
100
AcDbEntity
8
ueberlagerung
6
ByLayer
62
256
370
-1
100
AcDbLine
10
10
20
-2.4000
11
10
21
-2.2500
0
LINE
5
1A7
100
AcDbEntity
8
ueberlagerung
6
ByLayer
62
256
370
-1
100
AcDbLine
10
20
20
-2.4000
11
20
21
-2.2500
0
LINE
5
1A8
100
AcDbEntity
8
ueberlagerung
6
ByLayer
62
256
370
-1
100
AcDbLine
10
30
20
-2.4000
11
30
21
-2.2500
0
LINE
5
1A9
100
AcDbEntity
8
ueberlagerung
6
ByLayer
62
256
370
-1
100
AcDbLine
10
40
20
-2.4000
11
40
21
-2.2500
0
LINE
5
1AA
100
AcDbEntity
8
ueberlagerung
6
ByLayer
62
256
370
-1
100
AcDbLine
10
50
20
-2.4000
11
50
21
-2.2500
0
LINE
5
1AB
100
AcDbEntity
8
ueberlagerung
6
ByLayer
62
256
370
-1
100
AcDbLine
10
60
20
-2.4000
11
60
21
-2.2500
0
LINE
5
1AC
100
AcDbEntity
8
ueberlagerung
6
ByLayer
62
256
370
-1
100
AcDbLine
10
70
20
-2.4000
11
70
21
-2.2500
0
LINE
5
1AD
100
AcDbEntity
8
ueberlagerung
6
ByLayer
62
256
370
-1
100
AcDbLine
10
80
20
-2.4000
11
80
21
-2.2500
0
LINE
5
1AE
100
AcDbEntity
8
ueberlagerung
6
ByLayer
62
256
370
-1
100
AcDbLine
10
90
20
-2.4000
11
90
21
-2.2500
0
LINE
5
1AF
100
AcDbEntity
8
ueberlagerung
6
ByLayer
62
256
370
-1
100
AcDbLine
10
100
20
-2.4000
11
100
21
-2.2500
0
LWPOLYLINE
5
1B0
100
AcDbEntity
8
ueberlagerung
6
ByLayer
62
7
370
30
100
AcDbPolyline
90
4
70
1
10
105.2000
20
-1.4000
10
110.7000
20
-1.4000
10
110.7000
20
-2.4000
10
105.2000
20
-2.4000
0
LWPOLYLINE
5
1B1
100
AcDbEntity
8
ueberlagerung
6
ByLayer
62
7
370
30
100
AcDbPolyline
90
4
70
1
10
100
20
-1.4000
10
105.2000
20
-1.4000
10
105.2000
20
-2.4000
10
100
20
-2.4000
0
TEXT
5
1B2
100
AcDbEntity
8
ueberlagerung
6
ByLayer
62
7
100
AcDbText
7
Arial
10
110.5000
20
-1.9000
40
0.4500
41
0.7500
1
Überlagerung
7
Arial
72
2
11
110.5000
21
-1.9000
100
AcDbText
73
2
0
TEXT
5
1B3
100
AcDbEntity
8
ueberlagerung
6
ByLayer
62
7
100
AcDbText
7
Arial
10
100.2000
20
-1.9000
40
0.3600
41
0.7500
1
[m]
7
Arial
11
100.2000
21
-1.9000
100
AcDbText
73
2
0
LWPOLYLINE
5
1B4
100
AcDbEntity
8
ueberlagerung
6
ByLayer
62
7
370
30
100
AcDbPolyline
90
4
70
1
10
0
20
-1.4000
10
100
20
-1.4000
10
100
20
-2.4000
10
0
20
-2.4000
0
LWPOLYLINE
5
1B6
100
AcDbEntity
8
richtung
6
ByLayer
62
7
370
30
100
AcDbPolyline
90
4
70
1
10
-10.7000
20
-2.4000
10
-5.2000
20
-2.4000
10
-5.2000
20
-3.4000
10
-10.7000
20
-3.4000
0
LWPOLYLINE
5
1B7
100
AcDbEntity
8
richtung
6
ByLayer
62
7
370
30
100
AcDbPolyline
90
4
70
1
10
-5.2000
20
-2.4000
10
0
20
-2.4000
10
0
20
-3.4000
10
-5.2000
20
-3.4000
0
TEXT
5
1B8
100
AcDbEntity
8
richtung
6
ByLayer
62
7
100
AcDbText
7
Arial
10
-10.5000
20
-2.9000
40
0.4500
41
0.7500
1
Richtung
7
Arial
11
-10.5000
21
-2.9000
100
AcDbText
73
2
0
TEXT
5
1B9
100
AcDbEntity
8
richtung
6
ByLayer
62
7
100
AcDbText
7
Arial
10
-0.2000
20
-2.9000
40
0.3600
41
0.7500
1
[°]
7
Arial
72
2
11
-0.2000
21
-2.9000
100
AcDbText
73
2
0
TEXT
5
1BA
100
AcDbEntity
8
richtung
6
ByLayer
62
7
100
AcDbText
7
Arial
10
10
20
-2.9000
40
0.3600
41
0.7500
1
357
7
Arial
72
1
11
10
21
-2.9000
100
AcDbText
73
2
0
TEXT
5
1BB
100
AcDbEntity
8
richtung
6
ByLayer
62
7
100
AcDbText
7
Arial
10
20
20
-2.9000
40
0.3600
41
0.7500
1
358
7
Arial
72
1
11
20
21
-2.9000
100
AcDbText
73
2
0
TEXT
5
1BC
100
AcDbEntity
8
richtung
6
ByLayer
62
7
100
AcDbText
7
Arial
10
30
20
-2.9000
40
0.3600
41
0.7500
1
359
7
Arial
72
1
11
30
21
-2.9000
100
AcDbText
73
2
0
TEXT
5
1BD
100
AcDbEntity
8
richtung
6
ByLayer
62
7
100
AcDbText
7
Arial
10
40
20
-2.9000
40
0.3600
41
0.7500
1
359
7
Arial
72
1
11
40
21
-2.9000
100
AcDbText
73
2
0
TEXT
5
1BE
100
AcDbEntity
8
richtung
6
ByLayer
62
7
100
AcDbText
7
Arial
10
50
20
-2.9000
40
0.3600
41
0.7500
1
0
7
Arial
72
1
11
50
21
-2.9000
100
AcDbText
73
2
0
TEXT
5
1BF
100
AcDbEntity
8
richtung
6
ByLayer
62
7
100
AcDbText
7
Arial
10
60
20
-2.9000
40
0.3600
41
0.7500
1
0
7
Arial
72
1
11
60
21
-2.9000
100
AcDbText
73
2
0
TEXT
5
1C0
100
AcDbEntity
8
richtung
6
ByLayer
62
7
100
AcDbText
7
Arial
10
70
20
-2.9000
40
0.3600
41
0.7500
1
1
7
Arial
72
1
11
70
21
-2.9000
100
AcDbText
73
2
0
TEXT
5
1C1
100
AcDbEntity
8
richtung
6
ByLayer
62
7
100
AcDbText
7
Arial
10
80
20
-2.9000
40
0.3600
41
0.7500
1
2
7
Arial
72
1
11
80
21
-2.9000
100
AcDbText
73
2
0
TEXT
5
1C2
100
AcDbEntity
8
richtung
6
ByLayer
62
7
100
AcDbText
7
Arial
10
90
20
-2.9000
40
0.3600
41
0.7500
1
2
7
Arial
72
1
11
90
21
-2.9000
100
AcDbText
73
2
0
LINE
5
1C3
100
AcDbEntity
8
richtung
6
ByLayer
62
256
370
-1
100
AcDbLine
10
0
20
-3.4000
11
0
21
-3.2500
0
LINE
5
1C4
100
AcDbEntity
8
richtung
6
ByLayer
62
256
370
-1
100
AcDbLine
10
10
20
-3.4000
11
10
21
-3.2500
0
LINE
5
1C5
100
AcDbEntity
8
richtung
6
ByLayer
62
256
370
-1
100
AcDbLine
10
20
20
-3.4000
11
20
21
-3.2500
0
LINE
5
1C6
100
AcDbEntity
8
richtung
6
ByLayer
62
256
370
-1
100
AcDbLine
10
30
20
-3.4000
11
30
21
-3.2500
0
LINE
5
1C7
100
AcDbEntity
8
richtung
6
ByLayer
62
256
370
-1
100
AcDbLine
10
40
20
-3.4000
11
40
21
-3.2500
0
LINE
5
1C8
100
AcDbEntity
8
richtung
6
ByLayer
62
256
370
-1
100
AcDbLine
10
50
20
-3.4000
11
50
21
-3.2500
0
LINE
5
1C9
100
AcDbEntity
8
richtung
6
ByLayer
62
256
370
-1
100
AcDbLine
10
60
20
-3.4000
11
60
21
-3.2500
0
LINE
5
1CA
100
AcDbEntity
8
richtung
6
ByLayer
62
256
370
-1
100
AcDbLine
10
70
20
-3.4000
11
70
21
-3.2500
0
LINE
5
1CB
100
AcDbEntity
8
richtung
6
ByLayer
62
256
370
-1
100
AcDbLine
10
80
20
-3.4000
11
80
21
-3.2500
0
LINE
5
1CC
100
AcDbEntity
8
richtung
6
ByLayer
62
256
370
-1
100
AcDbLine
10
90
20
-3.4000
11
90
21
-3.2500
0
LINE
5
1CD
100
AcDbEntity
8
richtung
6
ByLayer
62
256
370
-1
100
AcDbLine
10
100
20
-3.4000
11
100
21
-3.2500
0
LWPOLYLINE
5
1CE
100
AcDbEntity
8
richtung
6
ByLayer
62
7
370
30
100
AcDbPolyline
90
4
70
1
10
105.2000
20
-2.4000
10
110.7000
20
-2.4000
10
110.7000
20
-3.4000
10
105.2000
20
-3.4000
0
LWPOLYLINE
5
1CF
100
AcDbEntity
8
richtung
6
ByLayer
62
7
370
30
100
AcDbPolyline
90
4
70
1
10
100
20
-2.4000
10
105.2000
20
-2.4000
10
105.2000
20
-3.4000
10
100
20
-3.4000
0
TEXT
5
1D0
100
AcDbEntity
8
richtung
6
ByLayer
62
7
100
AcDbText
7
Arial
10
110.5000
20
-2.9000
40
0.4500
41
0.7500
1
Richtung
7
Arial
72
2
11
110.5000
21
-2.9000
100
AcDbText
73
2
0
TEXT
5
1D1
100
AcDbEntity
8
richtung
6
ByLayer
62
7
100
AcDbText
7
Arial
10
100.2000
20
-2.9000
40
0.3600
41
0.7500
1
[°]
7
Arial
11
100.2000
21
-2.9000
100
AcDbText
73
2
0
LWPOLYLINE
5
1D2
100
AcDbEntity
8
richtung
6
ByLayer
62
7
370
30
100
AcDbPolyline
90
4
70
1
10
0
20
-2.4000
10
100
20
-2.4000
10
100
20
-3.4000
10
0
20
-3.4000
0
LWPOLYLINE
5
1D4
100
AcDbEntity
8
neigung
6
ByLayer
62
7
370
30
100
AcDbPolyline
90
4
70
1
10
-10.7000
20
-3.4000
10
-5.2000
20
-3.4000
10
-5.2000
20
-4.4000
10
-10.7000
20
-4.4000
0
LWPOLYLINE
5
1D5
100
AcDbEntity
8
neigung
6
ByLayer
62
7
370
30
100
AcDbPolyline
90
4
70
1
10
-5.2000
20
-3.4000
10
0
20
-3.4000
10
0
20
-4.4000
10
-5.2000
20
-4.4000
0
TEXT
5
1D6
100
AcDbEntity
8
neigung
6
ByLayer
62
7
100
AcDbText
7
Arial
10
-10.5000
20
-3.9000
40
0.4500
41
0.7500
1
Neigung
7
Arial
11
-10.5000
21
-3.9000
100
AcDbText
73
2
0
TEXT
5
1D7
100
AcDbEntity
8
neigung
6
ByLayer
62
7
100
AcDbText
7
Arial
10
-0.2000
20
-3.9000
40
0.3600
41
0.7500
1
[%]
7
Arial
72
2
11
-0.2000
21
-3.9000
100
AcDbText
73
2
0
TEXT
5
1D8
100
AcDbEntity
8
neigung
6
ByLayer
62
7
100
AcDbText
7
Arial
10
10
20
-3.9000
40
0.3600
41
0.7500
1
3
7
Arial
72
1
11
10
21
-3.9000
100
AcDbText
73
2
0
TEXT
5
1D9
100
AcDbEntity
8
neigung
6
ByLayer
62
7
100
AcDbText
7
Arial
10
20
20
-3.9000
40
0.3600
41
0.7500
1
3
7
Arial
72
1
11
20
21
-3.9000
100
AcDbText
73
2
0
TEXT
5
1DA
100
AcDbEntity
8
neigung
6
ByLayer
62
7
100
AcDbText
7
Arial
10
30
20
-3.9000
40
0.3600
41
0.7500
1
3
7
Arial
72
1
11
30
21
-3.9000
100
AcDbText
73
2
0
TEXT
5
1DB
100
AcDbEntity
8
neigung
6
ByLayer
62
7
100
AcDbText
7
Arial
10
40
20
-3.9000
40
0.3600
41
0.7500
1
3
7
Arial
72
1
11
40
21
-3.9000
100
AcDbText
73
2
0
TEXT
5
1DC
100
AcDbEntity
8
neigung
6
ByLayer
62
7
100
AcDbText
7
Arial
10
50
20
-3.9000
40
0.3600
41
0.7500
1
3
7
Arial
72
1
11
50
21
-3.9000
100
AcDbText
73
2
0
TEXT
5
1DD
100
AcDbEntity
8
neigung
6
ByLayer
62
7
100
AcDbText
7
Arial
10
60
20
-3.9000
40
0.3600
41
0.7500
1
3
7
Arial
72
1
11
60
21
-3.9000
100
AcDbText
73
2
0
TEXT
5
1DE
100
AcDbEntity
8
neigung
6
ByLayer
62
7
100
AcDbText
7
Arial
10
70
20
-3.9000
40
0.3600
41
0.7500
1
3
7
Arial
72
1
11
70
21
-3.9000
100
AcDbText
73
2
0
TEXT
5
1DF
100
AcDbEntity
8
neigung
6
ByLayer
62
7
100
AcDbText
7
Arial
10
80
20
-3.9000
40
0.3600
41
0.7500
1
3
7
Arial
72
1
11
80
21
-3.9000
100
AcDbText
73
2
0
TEXT
5
1E0
100
AcDbEntity
8
neigung
6
ByLayer
62
7
100
AcDbText
7
Arial
10
90
20
-3.9000
40
0.3600
41
0.7500
1
3
7
Arial
72
1
11
90
21
-3.9000
100
AcDbText
73
2
0
LINE
5
1E1
100
AcDbEntity
8
neigung
6
ByLayer
62
256
370
-1
100
AcDbLine
10
0
20
-4.4000
11
0
21
-4.2500
0
LINE
5
1E2
100
AcDbEntity
8
neigung
6
ByLayer
62
256
370
-1
100
AcDbLine
10
10
20
-4.4000
11
10
21
-4.2500
0
LINE
5
1E3
100
AcDbEntity
8
neigung
6
ByLayer
62
256
370
-1
100
AcDbLine
10
20
20
-4.4000
11
20
21
-4.2500
0
LINE
5
1E4
100
AcDbEntity
8
neigung
6
ByLayer
62
256
370
-1
100
AcDbLine
10
30
20
-4.4000
11
30
21
-4.2500
0
LINE
5
1E5
100
AcDbEntity
8
neigung
6
ByLayer
62
256
370
-1
100
AcDbLine
10
40
20
-4.4000
11
40
21
-4.2500
0
LINE
5
1E6
100
AcDbEntity
8
neigung
6
ByLayer
62
256
370
-1
100
AcDbLine
10
50
20
-4.4000
11
50
21
-4.2500
0
LINE
5
1E7
100
AcDbEntity
8
neigung
6
ByLayer
62
256
370
-1
100
AcDbLine
10
60
20
-4.4000
11
60
21
-4.2500
0
LINE
5
1E8
100
AcDbEntity
8
neigung
6
ByLayer
62
256
370
-1
100
AcDbLine
10
70
20
-4.4000
11
70
21
-4.2500
0
LINE
5
1E9
100
AcDbEntity
8
neigung
6
ByLayer
62
256
370
-1
100
AcDbLine
10
80
20
-4.4000
11
80
21
-4.2500
0
LINE
5
1EA
100
AcDbEntity
8
neigung
6
ByLayer
62
256
370
-1
100
AcDbLine
10
90
20
-4.4000
11
90
21
-4.2500
0
LINE
5
1EB
100
AcDbEntity
8
neigung
6
ByLayer
62
256
370
-1
100
AcDbLine
10
100
20
-4.4000
11
100
21
-4.2500
0
LWPOLYLINE
5
1EC
100
AcDbEntity
8
neigung
6
ByLayer
62
7
370
30
100
AcDbPolyline
90
4
70
1
10
105.2000
20
-3.4000
10
110.7000
20
-3.4000
10
110.7000
20
-4.4000
10
105.2000
20
-4.4000
0
LWPOLYLINE
5
1ED
100
AcDbEntity
8
neigung
6
ByLayer
62
7
370
30
100
AcDbPolyline
90
4
70
1
10
100
20
-3.4000
10
105.2000
20
-3.4000
10
105.2000
20
-4.4000
10
100
20
-4.4000
0
TEXT
5
1EE
100
AcDbEntity
8
neigung
6
ByLayer
62
7
100
AcDbText
7
Arial
10
110.5000
20
-3.9000
40
0.4500
41
0.7500
1
Neigung
7
Arial
72
2
11
110.5000
21
-3.9000
100
AcDbText
73
2
0
TEXT
5
1EF
100
AcDbEntity
8
neigung
6
ByLayer
62
7
100
AcDbText
7
Arial
10
100.2000
20
-3.9000
40
0.3600
41
0.7500
1
[%]
7
Arial
11
100.2000
21
-3.9000
100
AcDbText
73
2
0
LWPOLYLINE
5
1F0
100
AcDbEntity
8
neigung
6
ByLayer
62
7
370
30
100
AcDbPolyline
90
4
70
1
10
0
20
-3.4000
10
100
20
-3.4000
10
100
20
-4.4000
10
0
20
-4.4000
0
LWPOLYLINE
5
1F2
100
AcDbEntity
8
nummer
6
ByLayer
62
7
370
30
100
AcDbPolyline
90
4
70
1
10
-10.7000
20
-4.4000
10
-5.2000
20
-4.4000
10
-5.2000
20
-5.4000
10
-10.7000
20
-5.4000
0
LWPOLYLINE
5
1F3
100
AcDbEntity
8
nummer
6
ByLayer
62
7
370
30
100
AcDbPolyline
90
4
70
1
10
-5.2000
20
-4.4000
10
0
20
-4.4000
10
0
20
-5.4000
10
-5.2000
20
-5.4000
0
TEXT
5
1F4
100
AcDbEntity
8
nummer
6
ByLayer
62
7
100
AcDbText
7
Arial
10
-10.5000
20
-4.9000
40
0.4500
41
0.7500
1
Abschlag
7
Arial
11
-10.5000
21
-4.9000
100
AcDbText
73
2
0
TEXT
5
1F5
100
AcDbEntity
8
nummer
6
ByLayer
62
7
100
AcDbText
7
Arial
10
-0.2000
20
-4.9000
40
0.3600
41
0.7500
1
#
7
Arial
72
2
11
-0.2000
21
-4.9000
100
AcDbText
73
2
0
TEXT
5
1F6
100
AcDbEntity
8
nummer
6
ByLayer
62
7
100
AcDbText
7
Arial
10
0.3500
20
-4.9000
40
0.3600
41
0.7500
1
1
7
Arial
72
1
11
0.3500
21
-4.9000
100
AcDbText
73
2
0
TEXT
5
1F7
100
AcDbEntity
8
nummer
6
ByLayer
62
7
100
AcDbText
7
Arial
10
6.3500
20
-4.9000
40
0.3600
41
0.7500
1
2
7
Arial
72
1
11
6.3500
21
-4.9000
100
AcDbText
73
2
0
TEXT
5
1F8
100
AcDbEntity
8
nummer
6
ByLayer
62
7
100
AcDbText
7
Arial
10
11.3500
20
-4.9000
40
0.3600
41
0.7500
1
3
7
Arial
72
1
11
11.3500
21
-4.9000
100
AcDbText
73
2
0
TEXT
5
1F9
100
AcDbEntity
8
nummer
6
ByLayer
62
7
100
AcDbText
7
Arial
10
16.3500
20
-4.9000
40
0.3600
41
0.7500
1
4
7
Arial
72
1
11
16.3500
21
-4.9000
100
AcDbText
73
2
0
TEXT
5
1FA
100
AcDbEntity
8
nummer
6
ByLayer
62
7
100
AcDbText
7
Arial
10
21.3500
20
-4.9000
40
0.3600
41
0.7500
1
5
7
Arial
72
1
11
21.3500
21
-4.9000
100
AcDbText
73
2
0
TEXT
5
1FB
100
AcDbEntity
8
nummer
6
ByLayer
62
7
100
AcDbText
7
Arial
10
24.3500
20
-4.9000
40
0.3600
41
0.7500
1
6
7
Arial
72
1
11
24.3500
21
-4.9000
100
AcDbText
73
2
0
TEXT
5
1FC
100
AcDbEntity
8
nummer
6
ByLayer
62
7
100
AcDbText
7
Arial
10
28.3500
20
-4.9000
40
0.3600
41
0.7500
1
7
7
Arial
72
1
11
28.3500
21
-4.9000
100
AcDbText
73
2
0
TEXT
5
1FD
100
AcDbEntity
8
nummer
6
ByLayer
62
7
100
AcDbText
7
Arial
10
32.3500
20
-4.9000
40
0.3600
41
0.7500
1
8
7
Arial
72
1
11
32.3500
21
-4.9000
100
AcDbText
73
2
0
TEXT
5
1FE
100
AcDbEntity
8
nummer
6
ByLayer
62
7
100
AcDbText
7
Arial
10
36.3500
20
-4.9000
40
0.3600
41
0.7500
1
9
7
Arial
72
1
11
36.3500
21
-4.9000
100
AcDbText
73
2
0
TEXT
5
1FF
100
AcDbEntity
8
nummer
6
ByLayer
62
7
100
AcDbText
7
Arial
10
39.3500
20
-4.9000
40
0.3600
41
0.7500
1
10
7
Arial
72
1
11
39.3500
21
-4.9000
100
AcDbText
73
2
0
TEXT
5
200
100
AcDbEntity
8
nummer
6
ByLayer
62
7
100
AcDbText
7
Arial
10
44.3500
20
-4.9000
40
0.3600
41
0.7500
1
11
7
Arial
72
1
11
44.3500
21
-4.9000
100
AcDbText
73
2
0
TEXT
5
201
100
AcDbEntity
8
nummer
6
ByLayer
62
7
100
AcDbText
7
Arial
10
47.3500
20
-4.9000
40
0.3600
41
0.7500
1
12
7
Arial
72
1
11
47.3500
21
-4.9000
100
AcDbText
73
2
0
TEXT
5
202
100
AcDbEntity
8
nummer
6
ByLayer
62
7
100
AcDbText
7
Arial
10
51.3500
20
-4.9000
40
0.3600
41
0.7500
1
13
7
Arial
72
1
11
51.3500
21
-4.9000
100
AcDbText
73
2
0
TEXT
5
203
100
AcDbEntity
8
nummer
6
ByLayer
62
7
100
AcDbText
7
Arial
10
55.3500
20
-4.9000
40
0.3600
41
0.7500
1
14
7
Arial
72
1
11
55.3500
21
-4.9000
100
AcDbText
73
2
0
TEXT
5
204
100
AcDbEntity
8
nummer
6
ByLayer
62
7
100
AcDbText
7
Arial
10
58.3500
20
-4.9000
40
0.3600
41
0.7500
1
15
7
Arial
72
1
11
58.3500
21
-4.9000
100
AcDbText
73
2
0
TEXT
5
205
100
AcDbEntity
8
nummer
6
ByLayer
62
7
100
AcDbText
7
Arial
10
62.3500
20
-4.9000
40
0.3600
41
0.7500
1
16
7
Arial
72
1
11
62.3500
21
-4.9000
100
AcDbText
73
2
0
TEXT
5
206
100
AcDbEntity
8
nummer
6
ByLayer
62
7
100
AcDbText
7
Arial
10
66.3500
20
-4.9000
40
0.3600
41
0.7500
1
17
7
Arial
72
1
11
66.3500
21
-4.9000
100
AcDbText
73
2
0
TEXT
5
207
100
AcDbEntity
8
nummer
6
ByLayer
62
7
100
AcDbText
7
Arial
10
70.3500
20
-4.9000
40
0.3600
41
0.7500
1
18
7
Arial
72
1
11
70.3500
21
-4.9000
100
AcDbText
73
2
0
TEXT
5
208
100
AcDbEntity
8
nummer
6
ByLayer
62
7
100
AcDbText
7
Arial
10
74.3500
20
-4.9000
40
0.3600
41
0.7500
1
19
7
Arial
72
1
11
74.3500
21
-4.9000
100
AcDbText
73
2
0
TEXT
5
209
100
AcDbEntity
8
nummer
6
ByLayer
62
7
100
AcDbText
7
Arial
10
78.3500
20
-4.9000
40
0.3600
41
0.7500
1
20
7
Arial
72
1
11
78.3500
21
-4.9000
100
AcDbText
73
2
0
TEXT
5
20A
100
AcDbEntity
8
nummer
6
ByLayer
62
7
100
AcDbText
7
Arial
10
82.3500
20
-4.9000
40
0.3600
41
0.7500
1
21
7
Arial
72
1
11
82.3500
21
-4.9000
100
AcDbText
73
2
0
TEXT
5
20B
100
AcDbEntity
8
nummer
6
ByLayer
62
7
100
AcDbText
7
Arial
10
86.3500
20
-4.9000
40
0.3600
41
0.7500
1
22
7
Arial
72
1
11
86.3500
21
-4.9000
100
AcDbText
73
2
0
TEXT
5
20C
100
AcDbEntity
8
nummer
6
ByLayer
62
7
100
AcDbText
7
Arial
10
90.3500
20
-4.9000
40
0.3600
41
0.7500
1
23
7
Arial
72
1
11
90.3500
21
-4.9000
100
AcDbText
73
2
0
TEXT
5
20D
100
AcDbEntity
8
nummer
6
ByLayer
62
7
100
AcDbText
7
Arial
10
94.3500
20
-4.9000
40
0.3600
41
0.7500
1
24
7
Arial
72
1
11
94.3500
21
-4.9000
100
AcDbText
73
2
0
TEXT
5
20E
100
AcDbEntity
8
nummer
6
ByLayer
62
7
100
AcDbText
7
Arial
10
95.6500
20
-4.9000
40
0.3600
41
0.7500
1
25
7
Arial
72
1
11
95.6500
21
-4.9000
100
AcDbText
73
2
0
TEXT
5
20F
100
AcDbEntity
8
nummer
6
ByLayer
62
7
100
AcDbText
7
Arial
10
96.9500
20
-4.9000
40
0.3600
41
0.7500
1
26
7
Arial
72
1
11
96.9500
21
-4.9000
100
AcDbText
73
2
0
TEXT
5
210
100
AcDbEntity
8
nummer
6
ByLayer
62
7
100
AcDbText
7
Arial
10
98.2500
20
-4.9000
40
0.3600
41
0.7500
1
27
7
Arial
72
1
11
98.2500
21
-4.9000
100
AcDbText
73
2
0
TEXT
5
211
100
AcDbEntity
8
nummer
6
ByLayer
62
7
100
AcDbText
7
Arial
10
99.3500
20
-4.9000
40
0.3600
41
0.7500
1
28
7
Arial
72
1
11
99.3500
21
-4.9000
100
AcDbText
73
2
0
LINE
5
212
100
AcDbEntity
8
nummer
6
ByLayer
62
256
370
-1
100
AcDbLine
10
-0.3000
20
-5.4000
11
-0.3000
21
-4.4000
0
LINE
5
213
100
AcDbEntity
8
nummer
6
ByLayer
62
256
370
-1
100
AcDbLine
10
5.7000
20
-5.4000
11
5.7000
21
-4.4000
0
LINE
5
214
100
AcDbEntity
8
nummer
6
ByLayer
62
256
370
-1
100
AcDbLine
10
10.7000
20
-5.4000
11
10.7000
21
-4.4000
0
LINE
5
215
100
AcDbEntity
8
nummer
6
ByLayer
62
256
370
-1
100
AcDbLine
10
15.7000
20
-5.4000
11
15.7000
21
-4.4000
0
LINE
5
216
100
AcDbEntity
8
nummer
6
ByLayer
62
256
370
-1
100
AcDbLine
10
20.7000
20
-5.4000
11
20.7000
21
-4.4000
0
LINE
5
217
100
AcDbEntity
8
nummer
6
ByLayer
62
256
370
-1
100
AcDbLine
10
23.7000
20
-5.4000
11
23.7000
21
-4.4000
0
LINE
5
218
100
AcDbEntity
8
nummer
6
ByLayer
62
256
370
-1
100
AcDbLine
10
27.7000
20
-5.4000
11
27.7000
21
-4.4000
0
LINE
5
219
100
AcDbEntity
8
nummer
6
ByLayer
62
256
370
-1
100
AcDbLine
10
31.7000
20
-5.4000
11
31.7000
21
-4.4000
0
LINE
5
21A
100
AcDbEntity
8
nummer
6
ByLayer
62
256
370
-1
100
AcDbLine
10
35.7000
20
-5.4000
11
35.7000
21
-4.4000
0
LINE
5
21B
100
AcDbEntity
8
nummer
6
ByLayer
62
256
370
-1
100
AcDbLine
10
38.7000
20
-5.4000
11
38.7000
21
-4.4000
0
LINE
5
21C
100
AcDbEntity
8
nummer
6
ByLayer
62
256
370
-1
100
AcDbLine
10
43.7000
20
-5.4000
11
43.7000
21
-4.4000
0
LINE
5
21D
100
AcDbEntity
8
nummer
6
ByLayer
62
256
370
-1
100
AcDbLine
10
46.7000
20
-5.4000
11
46.7000
21
-4.4000
0
LINE
5
21E
100
AcDbEntity
8
nummer
6
ByLayer
62
256
370
-1
100
AcDbLine
10
50.7000
20
-5.4000
11
50.7000
21
-4.4000
0
LINE
5
21F
100
AcDbEntity
8
nummer
6
ByLayer
62
256
370
-1
100
AcDbLine
10
54.7000
20
-5.4000
11
54.7000
21
-4.4000
0
LINE
5
220
100
AcDbEntity
8
nummer
6
ByLayer
62
256
370
-1
100
AcDbLine
10
57.7000
20
-5.4000
11
57.7000
21
-4.4000
0
LINE
5
221
100
AcDbEntity
8
nummer
6
ByLayer
62
256
370
-1
100
AcDbLine
10
61.7000
20
-5.4000
11
61.7000
21
-4.4000
0
LINE
5
222
100
AcDbEntity
8
nummer
6
ByLayer
62
256
370
-1
100
AcDbLine
10
65.7000
20
-5.4000
11
65.7000
21
-4.4000
0
LINE
5
223
100
AcDbEntity
8
nummer
6
ByLayer
62
256
370
-1
100
AcDbLine
10
69.7000
20
-5.4000
11
69.7000
21
-4.4000
0
LINE
5
224
100
AcDbEntity
8
nummer
6
ByLayer
62
256
370
-1
100
AcDbLine
10
73.7000
20
-5.4000
11
73.7000
21
-4.4000
0
LINE
5
225
100
AcDbEntity
8
nummer
6
ByLayer
62
256
370
-1
100
AcDbLine
10
77.7000
20
-5.4000
11
77.7000
21
-4.4000
0
LINE
5
226
100
AcDbEntity
8
nummer
6
ByLayer
62
256
370
-1
100
AcDbLine
10
81.7000
20
-5.4000
11
81.7000
21
-4.4000
0
LINE
5
227
100
AcDbEntity
8
nummer
6
ByLayer
62
256
370
-1
100
AcDbLine
10
85.7000
20
-5.4000
11
85.7000
21
-4.4000
0
LINE
5
228
100
AcDbEntity
8
nummer
6
ByLayer
62
256
370
-1
100
AcDbLine
10
89.7000
20
-5.4000
11
89.7000
21
-4.4000
0
LINE
5
229
100
AcDbEntity
8
nummer
6
ByLayer
62
256
370
-1
100
AcDbLine
10
93.7000
20
-5.4000
11
93.7000
21
-4.4000
0
LINE
5
22A
100
AcDbEntity
8
nummer
6
ByLayer
62
256
370
-1
100
AcDbLine
10
95
20
-5.4000
11
95
21
-4.4000
0
LINE
5
22B
100
AcDbEntity
8
nummer
6
ByLayer
62
256
370
-1
100
AcDbLine
10
96.3000
20
-5.4000
11
96.3000
21
-4.4000
0
LINE
5
22C
100
AcDbEntity
8
nummer
6
ByLayer
62
256
370
-1
100
AcDbLine
10
97.6000
20
-5.4000
11
97.6000
21
-4.4000
0
LINE
5
22D
100
AcDbEntity
8
nummer
6
ByLayer
62
256
370
-1
100
AcDbLine
10
98.7000
20
-5.4000
11
98.7000
21
-4.4000
0
LINE
5
22E
100
AcDbEntity
8
nummer
6
ByLayer
62
256
370
-1
100
AcDbLine
10
1
20
-5.4000
11
1
21
-4.4000
0
LINE
5
22F
100
AcDbEntity
8
nummer
6
ByLayer
62
256
370
-1
100
AcDbLine
10
7
20
-5.4000
11
7
21
-4.4000
0
LINE
5
230
100
AcDbEntity
8
nummer
6
ByLayer
62
256
370
-1
100
AcDbLine
10
12
20
-5.4000
11
12
21
-4.4000
0
LINE
5
231
100
AcDbEntity
8
nummer
6
ByLayer
62
256
370
-1
100
AcDbLine
10
17
20
-5.4000
11
17
21
-4.4000
0
LINE
5
232
100
AcDbEntity
8
nummer
6
ByLayer
62
256
370
-1
100
AcDbLine
10
22
20
-5.4000
11
22
21
-4.4000
0
LINE
5
233
100
AcDbEntity
8
nummer
6
ByLayer
62
256
370
-1
100
AcDbLine
10
25
20
-5.4000
11
25
21
-4.4000
0
LINE
5
234
100
AcDbEntity
8
nummer
6
ByLayer
62
256
370
-1
100
AcDbLine
10
29
20
-5.4000
11
29
21
-4.4000
0
LINE
5
235
100
AcDbEntity
8
nummer
6
ByLayer
62
256
370
-1
100
AcDbLine
10
33
20
-5.4000
11
33
21
-4.4000
0
LINE
5
236
100
AcDbEntity
8
nummer
6
ByLayer
62
256
370
-1
100
AcDbLine
10
37
20
-5.4000
11
37
21
-4.4000
0
LINE
5
237
100
AcDbEntity
8
nummer
6
ByLayer
62
256
370
-1
100
AcDbLine
10
40
20
-5.4000
11
40
21
-4.4000
0
LINE
5
238
100
AcDbEntity
8
nummer
6
ByLayer
62
256
370
-1
100
AcDbLine
10
45
20
-5.4000
11
45
21
-4.4000
0
LINE
5
239
100
AcDbEntity
8
nummer
6
ByLayer
62
256
370
-1
100
AcDbLine
10
48
20
-5.4000
11
48
21
-4.4000
0
LINE
5
23A
100
AcDbEntity
8
nummer
6
ByLayer
62
256
370
-1
100
AcDbLine
10
52
20
-5.4000
11
52
21
-4.4000
0
LINE
5
23B
100
AcDbEntity
8
nummer
6
ByLayer
62
256
370
-1
100
AcDbLine
10
56
20
-5.4000
11
56
21
-4.4000
0
LINE
5
23C
100
AcDbEntity
8
nummer
6
ByLayer
62
256
370
-1
100
AcDbLine
10
59
20
-5.4000
11
59
21
-4.4000
0
LINE
5
23D
100
AcDbEntity
8
nummer
6
ByLayer
62
256
370
-1
100
AcDbLine
10
63
20
-5.4000
11
63
21
-4.4000
0
LINE
5
23E
100
AcDbEntity
8
nummer
6
ByLayer
62
256
370
-1
100
AcDbLine
10
67
20
-5.4000
11
67
21
-4.4000
0
LINE
5
23F
100
AcDbEntity
8
nummer
6
ByLayer
62
256
370
-1
100
AcDbLine
10
71
20
-5.4000
11
71
21
-4.4000
0
LINE
5
240
100
AcDbEntity
8
nummer
6
ByLayer
62
256
370
-1
100
AcDbLine
10
75
20
-5.4000
11
75
21
-4.4000
0
LINE
5
241
100
AcDbEntity
8
nummer
6
ByLayer
62
256
370
-1
100
AcDbLine
10
79
20
-5.4000
11
79
21
-4.4000
0
LINE
5
242
100
AcDbEntity
8
nummer
6
ByLayer
62
256
370
-1
100
AcDbLine
10
83
20
-5.4000
11
83
21
-4.4000
0
LINE
5
243
100
AcDbEntity
8
nummer
6
ByLayer
62
256
370
-1
100
AcDbLine
10
87
20
-5.4000
11
87
21
-4.4000
0
LINE
5
244
100
AcDbEntity
8
nummer
6
ByLayer
62
256
370
-1
100
AcDbLine
10
91
20
-5.4000
11
91
21
-4.4000
0
LINE
5
245
100
AcDbEntity
8
nummer
6
ByLayer
62
256
370
-1
100
AcDbLine
10
95
20
-5.4000
11
95
21
-4.4000
0
LINE
5
246
100
AcDbEntity
8
nummer
6
ByLayer
62
256
370
-1
100
AcDbLine
10
96.3000
20
-5.4000
11
96.3000
21
-4.4000
0
LINE
5
247
100
AcDbEntity
8
nummer
6
ByLayer
62
256
370
-1
100
AcDbLine
10
97.6000
20
-5.4000
11
97.6000
21
-4.4000
0
LINE
5
248
100
AcDbEntity
8
nummer
6
ByLayer
62
256
370
-1
100
AcDbLine
10
98.9000
20
-5.4000
11
98.9000
21
-4.4000
0
LINE
5
249
100
AcDbEntity
8
nummer
6
ByLayer
62
256
370
-1
100
AcDbLine
10
100
20
-5.4000
11
100
21
-4.4000
0
LWPOLYLINE
5
24A
100
AcDbEntity
8
nummer
6
ByLayer
62
7
370
30
100
AcDbPolyline
90
4
70
1
10
105.2000
20
-4.4000
10
110.7000
20
-4.4000
10
110.7000
20
-5.4000
10
105.2000
20
-5.4000
0
LWPOLYLINE
5
24B
100
AcDbEntity
8
nummer
6
ByLayer
62
7
370
30
100
AcDbPolyline
90
4
70
1
10
100
20
-4.4000
10
105.2000
20
-4.4000
10
105.2000
20
-5.4000
10
100
20
-5.4000
0
TEXT
5
24C
100
AcDbEntity
8
nummer
6
ByLayer
62
7
100
AcDbText
7
Arial
10
110.5000
20
-4.9000
40
0.4500
41
0.7500
1
Abschlag
7
Arial
72
2
11
110.5000
21
-4.9000
100
AcDbText
73
2
0
TEXT
5
24D
100
AcDbEntity
8
nummer
6
ByLayer
62
7
100
AcDbText
7
Arial
10
100.2000
20
-4.9000
40
0.3600
41
0.7500
1
#
7
Arial
11
100.2000
21
-4.9000
100
AcDbText
73
2
0
LWPOLYLINE
5
24E
100
AcDbEntity
8
nummer
6
ByLayer
62
7
370
30
100
AcDbPolyline
90
4
70
1
10
0
20
-4.4000
10
100
20
-4.4000
10
100
20
-5.4000
10
0
20
-5.4000
0
LWPOLYLINE
5
250
100
AcDbEntity
8
laenge
6
ByLayer
62
7
370
30
100
AcDbPolyline
90
4
70
1
10
-10.7000
20
-5.4000
10
-5.2000
20
-5.4000
10
-5.2000
20
-6.4000
10
-10.7000
20
-6.4000
0
LWPOLYLINE
5
251
100
AcDbEntity
8
laenge
6
ByLayer
62
7
370
30
100
AcDbPolyline
90
4
70
1
10
-5.2000
20
-5.4000
10
0
20
-5.4000
10
0
20
-6.4000
10
-5.2000
20
-6.4000
0
TEXT
5
252
100
AcDbEntity
8
laenge
6
ByLayer
62
7
100
AcDbText
7
Arial
10
-10.5000
20
-5.9000
40
0.4500
41
0.7500
1
Abschlagslänge
7
Arial
11
-10.5000
21
-5.9000
100
AcDbText
73
2
0
TEXT
5
253
100
AcDbEntity
8
laenge
6
ByLayer
62
7
100
AcDbText
7
Arial
10
-0.2000
20
-5.9000
40
0.3600
41
0.7500
1
m
7
Arial
72
2
11
-0.2000
21
-5.9000
100
AcDbText
73
2
0
TEXT
5
254
100
AcDbEntity
8
laenge
6
ByLayer
62
7
100
AcDbText
7
Arial
10
0.3500
20
-5.9000
40
0.3600
41
0.7500
1
1,3
7
Arial
72
1
11
0.3500
21
-5.9000
100
AcDbText
73
2
0
TEXT
5
255
100
AcDbEntity
8
laenge
6
ByLayer
62
7
100
AcDbText
7
Arial
10
6.3500
20
-5.9000
40
0.3600
41
0.7500
1
1,3
7
Arial
72
1
11
6.3500
21
-5.9000
100
AcDbText
73
2
0
TEXT
5
256
100
AcDbEntity
8
laenge
6
ByLayer
62
7
100
AcDbText
7
Arial
10
11.3500
20
-5.9000
40
0.3600
41
0.7500
1
1,3
7
Arial
72
1
11
11.3500
21
-5.9000
100
AcDbText
73
2
0
TEXT
5
257
100
AcDbEntity
8
laenge
6
ByLayer
62
7
100
AcDbText
7
Arial
10
16.3500
20
-5.9000
40
0.3600
41
0.7500
1
1,3
7
Arial
72
1
11
16.3500
21
-5.9000
100
AcDbText
73
2
0
TEXT
5
258
100
AcDbEntity
8
laenge
6
ByLayer
62
7
100
AcDbText
7
Arial
10
21.3500
20
-5.9000
40
0.3600
41
0.7500
1
1,3
7
Arial
72
1
11
21.3500
21
-5.9000
100
AcDbText
73
2
0
TEXT
5
259
100
AcDbEntity
8
laenge
6
ByLayer
62
7
100
AcDbText
7
Arial
10
24.3500
20
-5.9000
40
0.3600
41
0.7500
1
1,3
7
Arial
72
1
11
24.3500
21
-5.9000
100
AcDbText
73
2
0
TEXT
5
25A
100
AcDbEntity
8
laenge
6
ByLayer
62
7
100
AcDbText
7
Arial
10
28.3500
20
-5.9000
40
0.3600
41
0.7500
1
1,3
7
Arial
72
1
11
28.3500
21
-5.9000
100
AcDbText
73
2
0
TEXT
5
25B
100
AcDbEntity
8
laenge
6
ByLayer
62
7
100
AcDbText
7
Arial
10
32.3500
20
-5.9000
40
0.3600
41
0.7500
1
1,3
7
Arial
72
1
11
32.3500
21
-5.9000
100
AcDbText
73
2
0
TEXT
5
25C
100
AcDbEntity
8
laenge
6
ByLayer
62
7
100
AcDbText
7
Arial
10
36.3500
20
-5.9000
40
0.3600
41
0.7500
1
1,3
7
Arial
72
1
11
36.3500
21
-5.9000
100
AcDbText
73
2
0
TEXT
5
25D
100
AcDbEntity
8
laenge
6
ByLayer
62
7
100
AcDbText
7
Arial
10
39.3500
20
-5.9000
40
0.3600
41
0.7500
1
1,3
7
Arial
72
1
11
39.3500
21
-5.9000
100
AcDbText
73
2
0
TEXT
5
25E
100
AcDbEntity
8
laenge
6
ByLayer
62
7
100
AcDbText
7
Arial
10
44.3500
20
-5.9000
40
0.3600
41
0.7500
1
1,3
7
Arial
72
1
11
44.3500
21
-5.9000
100
AcDbText
73
2
0
TEXT
5
25F
100
AcDbEntity
8
laenge
6
ByLayer
62
7
100
AcDbText
7
Arial
10
47.3500
20
-5.9000
40
0.3600
41
0.7500
1
1,3
7
Arial
72
1
11
47.3500
21
-5.9000
100
AcDbText
73
2
0
TEXT
5
260
100
AcDbEntity
8
laenge
6
ByLayer
62
7
100
AcDbText
7
Arial
10
51.3500
20
-5.9000
40
0.3600
41
0.7500
1
1,3
7
Arial
72
1
11
51.3500
21
-5.9000
100
AcDbText
73
2
0
TEXT
5
261
100
AcDbEntity
8
laenge
6
ByLayer
62
7
100
AcDbText
7
Arial
10
55.3500
20
-5.9000
40
0.3600
41
0.7500
1
1,3
7
Arial
72
1
11
55.3500
21
-5.9000
100
AcDbText
73
2
0
TEXT
5
262
100
AcDbEntity
8
laenge
6
ByLayer
62
7
100
AcDbText
7
Arial
10
58.3500
20
-5.9000
40
0.3600
41
0.7500
1
1,3
7
Arial
72
1
11
58.3500
21
-5.9000
100
AcDbText
73
2
0
TEXT
5
263
100
AcDbEntity
8
laenge
6
ByLayer
62
7
100
AcDbText
7
Arial
10
62.3500
20
-5.9000
40
0.3600
41
0.7500
1
1,3
7
Arial
72
1
11
62.3500
21
-5.9000
100
AcDbText
73
2
0
TEXT
5
264
100
AcDbEntity
8
laenge
6
ByLayer
62
7
100
AcDbText
7
Arial
10
66.3500
20
-5.9000
40
0.3600
41
0.7500
1
1,3
7
Arial
72
1
11
66.3500
21
-5.9000
100
AcDbText
73
2
0
TEXT
5
265
100
AcDbEntity
8
laenge
6
ByLayer
62
7
100
AcDbText
7
Arial
10
70.3500
20
-5.9000
40
0.3600
41
0.7500
1
1,3
7
Arial
72
1
11
70.3500
21
-5.9000
100
AcDbText
73
2
0
TEXT
5
266
100
AcDbEntity
8
laenge
6
ByLayer
62
7
100
AcDbText
7
Arial
10
74.3500
20
-5.9000
40
0.3600
41
0.7500
1
1,3
7
Arial
72
1
11
74.3500
21
-5.9000
100
AcDbText
73
2
0
TEXT
5
267
100
AcDbEntity
8
laenge
6
ByLayer
62
7
100
AcDbText
7
Arial
10
78.3500
20
-5.9000
40
0.3600
41
0.7500
1
1,3
7
Arial
72
1
11
78.3500
21
-5.9000
100
AcDbText
73
2
0
TEXT
5
268
100
AcDbEntity
8
laenge
6
ByLayer
62
7
100
AcDbText
7
Arial
10
82.3500
20
-5.9000
40
0.3600
41
0.7500
1
1,3
7
Arial
72
1
11
82.3500
21
-5.9000
100
AcDbText
73
2
0
TEXT
5
269
100
AcDbEntity
8
laenge
6
ByLayer
62
7
100
AcDbText
7
Arial
10
86.3500
20
-5.9000
40
0.3600
41
0.7500
1
1,3
7
Arial
72
1
11
86.3500
21
-5.9000
100
AcDbText
73
2
0
TEXT
5
26A
100
AcDbEntity
8
laenge
6
ByLayer
62
7
100
AcDbText
7
Arial
10
90.3500
20
-5.9000
40
0.3600
41
0.7500
1
1,3
7
Arial
72
1
11
90.3500
21
-5.9000
100
AcDbText
73
2
0
TEXT
5
26B
100
AcDbEntity
8
laenge
6
ByLayer
62
7
100
AcDbText
7
Arial
10
94.3500
20
-5.9000
40
0.3600
41
0.7500
1
1,3
7
Arial
72
1
11
94.3500
21
-5.9000
100
AcDbText
73
2
0
TEXT
5
26C
100
AcDbEntity
8
laenge
6
ByLayer
62
7
100
AcDbText
7
Arial
10
95.6500
20
-5.9000
40
0.3600
41
0.7500
1
1,3
7
Arial
72
1
11
95.6500
21
-5.9000
100
AcDbText
73
2
0
TEXT
5
26D
100
AcDbEntity
8
laenge
6
ByLayer
62
7
100
AcDbText
7
Arial
10
96.9500
20
-5.9000
40
0.3600
41
0.7500
1
1,3
7
Arial
72
1
11
96.9500
21
-5.9000
100
AcDbText
73
2
0
TEXT
5
26E
100
AcDbEntity
8
laenge
6
ByLayer
62
7
100
AcDbText
7
Arial
10
98.2500
20
-5.9000
40
0.3600
41
0.7500
1
1,3
7
Arial
72
1
11
98.2500
21
-5.9000
100
AcDbText
73
2
0
TEXT
5
26F
100
AcDbEntity
8
laenge
6
ByLayer
62
7
100
AcDbText
7
Arial
10
99.3500
20
-5.9000
40
0.3600
41
0.7500
1
1,3
7
Arial
72
1
11
99.3500
21
-5.9000
100
AcDbText
73
2
0
LINE
5
270
100
AcDbEntity
8
laenge
6
ByLayer
62
256
370
-1
100
AcDbLine
10
-0.3000
20
-6.4000
11
-0.3000
21
-5.4000
0
LINE
5
271
100
AcDbEntity
8
laenge
6
ByLayer
62
256
370
-1
100
AcDbLine
10
5.7000
20
-6.4000
11
5.7000
21
-5.4000
0
LINE
5
272
100
AcDbEntity
8
laenge
6
ByLayer
62
256
370
-1
100
AcDbLine
10
10.7000
20
-6.4000
11
10.7000
21
-5.4000
0
LINE
5
273
100
AcDbEntity
8
laenge
6
ByLayer
62
256
370
-1
100
AcDbLine
10
15.7000
20
-6.4000
11
15.7000
21
-5.4000
0
LINE
5
274
100
AcDbEntity
8
laenge
6
ByLayer
62
256
370
-1
100
AcDbLine
10
20.7000
20
-6.4000
11
20.7000
21
-5.4000
0
LINE
5
275
100
AcDbEntity
8
laenge
6
ByLayer
62
256
370
-1
100
AcDbLine
10
23.7000
20
-6.4000
11
23.7000
21
-5.4000
0
LINE
5
276
100
AcDbEntity
8
laenge
6
ByLayer
62
256
370
-1
100
AcDbLine
10
27.7000
20
-6.4000
11
27.7000
21
-5.4000
0
LINE
5
277
100
AcDbEntity
8
laenge
6
ByLayer
62
256
370
-1
100
AcDbLine
10
31.7000
20
-6.4000
11
31.7000
21
-5.4000
0
LINE
5
278
100
AcDbEntity
8
laenge
6
ByLayer
62
256
370
-1
100
AcDbLine
10
35.7000
20
-6.4000
11
35.7000
21
-5.4000
0
LINE
5
279
100
AcDbEntity
8
laenge
6
ByLayer
62
256
370
-1
100
AcDbLine
10
38.7000
20
-6.4000
11
38.7000
21
-5.4000
0
LINE
5
27A
100
AcDbEntity
8
laenge
6
ByLayer
62
256
370
-1
100
AcDbLine
10
43.7000
20
-6.4000
11
43.7000
21
-5.4000
0
LINE
5
27B
100
AcDbEntity
8
laenge
6
ByLayer
62
256
370
-1
100
AcDbLine
10
46.7000
20
-6.4000
11
46.7000
21
-5.4000
0
LINE
5
27C
100
AcDbEntity
8
laenge
6
ByLayer
62
256
370
-1
100
AcDbLine
10
50.7000
20
-6.4000
11
50.7000
21
-5.4000
0
LINE
5
27D
100
AcDbEntity
8
laenge
6
ByLayer
62
256
370
-1
100
AcDbLine
10
54.7000
20
-6.4000
11
54.7000
21
-5.4000
0
LINE
5
27E
100
AcDbEntity
8
laenge
6
ByLayer
62
256
370
-1
100
AcDbLine
10
57.7000
20
-6.4000
11
57.7000
21
-5.4000
0
LINE
5
27F
100
AcDbEntity
8
laenge
6
ByLayer
62
256
370
-1
100
AcDbLine
10
61.7000
20
-6.4000
11
61.7000
21
-5.4000
0
LINE
5
280
100
AcDbEntity
8
laenge
6
ByLayer
62
256
370
-1
100
AcDbLine
10
65.7000
20
-6.4000
11
65.7000
21
-5.4000
0
LINE
5
281
100
AcDbEntity
8
laenge
6
ByLayer
62
256
370
-1
100
AcDbLine
10
69.7000
20
-6.4000
11
69.7000
21
-5.4000
0
LINE
5
282
100
AcDbEntity
8
laenge
6
ByLayer
62
256
370
-1
100
AcDbLine
10
73.7000
20
-6.4000
11
73.7000
21
-5.4000
0
LINE
5
283
100
AcDbEntity
8
laenge
6
ByLayer
62
256
370
-1
100
AcDbLine
10
77.7000
20
-6.4000
11
77.7000
21
-5.4000
0
LINE
5
284
100
AcDbEntity
8
laenge
6
ByLayer
62
256
370
-1
100
AcDbLine
10
81.7000
20
-6.4000
11
81.7000
21
-5.4000
0
LINE
5
285
100
AcDbEntity
8
laenge
6
ByLayer
62
256
370
-1
100
AcDbLine
10
85.7000
20
-6.4000
11
85.7000
21
-5.4000
0
LINE
5
286
100
AcDbEntity
8
laenge
6
ByLayer
62
256
370
-1
100
AcDbLine
10
89.7000
20
-6.4000
11
89.7000
21
-5.4000
0
LINE
5
287
100
AcDbEntity
8
laenge
6
ByLayer
62
256
370
-1
100
AcDbLine
10
93.7000
20
-6.4000
11
93.7000
21
-5.4000
0
LINE
5
288
100
AcDbEntity
8
laenge
6
ByLayer
62
256
370
-1
100
AcDbLine
10
95
20
-6.4000
11
95
21
-5.4000
0
LINE
5
289
100
AcDbEntity
8
laenge
6
ByLayer
62
256
370
-1
100
AcDbLine
10
96.3000
20
-6.4000
11
96.3000
21
-5.4000
0
LINE
5
28A
100
AcDbEntity
8
laenge
6
ByLayer
62
256
370
-1
100
AcDbLine
10
97.6000
20
-6.4000
11
97.6000
21
-5.4000
0
LINE
5
28B
100
AcDbEntity
8
laenge
6
ByLayer
62
256
370
-1
100
AcDbLine
10
98.7000
20
-6.4000
11
98.7000
21
-5.4000
0
LINE
5
28C
100
AcDbEntity
8
laenge
6
ByLayer
62
256
370
-1
100
AcDbLine
10
1
20
-6.4000
11
1
21
-5.4000
0
LINE
5
28D
100
AcDbEntity
8
laenge
6
ByLayer
62
256
370
-1
100
AcDbLine
10
7
20
-6.4000
11
7
21
-5.4000
0
LINE
5
28E
100
AcDbEntity
8
laenge
6
ByLayer
62
256
370
-1
100
AcDbLine
10
12
20
-6.4000
11
12
21
-5.4000
0
LINE
5
28F
100
AcDbEntity
8
laenge
6
ByLayer
62
256
370
-1
100
AcDbLine
10
17
20
-6.4000
11
17
21
-5.4000
0
LINE
5
290
100
AcDbEntity
8
laenge
6
ByLayer
62
256
370
-1
100
AcDbLine
10
22
20
-6.4000
11
22
21
-5.4000
0
LINE
5
291
100
AcDbEntity
8
laenge
6
ByLayer
62
256
370
-1
100
AcDbLine
10
25
20
-6.4000
11
25
21
-5.4000
0
LINE
5
292
100
AcDbEntity
8
laenge
6
ByLayer
62
256
370
-1
100
AcDbLine
10
29
20
-6.4000
11
29
21
-5.4000
0
LINE
5
293
100
AcDbEntity
8
laenge
6
ByLayer
62
256
370
-1
100
AcDbLine
10
33
20
-6.4000
11
33
21
-5.4000
0
LINE
5
294
100
AcDbEntity
8
laenge
6
ByLayer
62
256
370
-1
100
AcDbLine
10
37
20
-6.4000
11
37
21
-5.4000
0
LINE
5
295
100
AcDbEntity
8
laenge
6
ByLayer
62
256
370
-1
100
AcDbLine
10
40
20
-6.4000
11
40
21
-5.4000
0
LINE
5
296
100
AcDbEntity
8
laenge
6
ByLayer
62
256
370
-1
100
AcDbLine
10
45
20
-6.4000
11
45
21
-5.4000
0
LINE
5
297
100
AcDbEntity
8
laenge
6
ByLayer
62
256
370
-1
100
AcDbLine
10
48
20
-6.4000
11
48
21
-5.4000
0
LINE
5
298
100
AcDbEntity
8
laenge
6
ByLayer
62
256
370
-1
100
AcDbLine
10
52
20
-6.4000
11
52
21
-5.4000
0
LINE
5
299
100
AcDbEntity
8
laenge
6
ByLayer
62
256
370
-1
100
AcDbLine
10
56
20
-6.4000
11
56
21
-5.4000
0
LINE
5
29A
100
AcDbEntity
8
laenge
6
ByLayer
62
256
370
-1
100
AcDbLine
10
59
20
-6.4000
11
59
21
-5.4000
0
LINE
5
29B
100
AcDbEntity
8
laenge
6
ByLayer
62
256
370
-1
100
AcDbLine
10
63
20
-6.4000
11
63
21
-5.4000
0
LINE
5
29C
100
AcDbEntity
8
laenge
6
ByLayer
62
256
370
-1
100
AcDbLine
10
67
20
-6.4000
11
67
21
-5.4000
0
LINE
5
29D
100
AcDbEntity
8
laenge
6
ByLayer
62
256
370
-1
100
AcDbLine
10
71
20
-6.4000
11
71
21
-5.4000
0
LINE
5
29E
100
AcDbEntity
8
laenge
6
ByLayer
62
256
370
-1
100
AcDbLine
10
75
20
-6.4000
11
75
21
-5.4000
0
LINE
5
29F
100
AcDbEntity
8
laenge
6
ByLayer
62
256
370
-1
100
AcDbLine
10
79
20
-6.4000
11
79
21
-5.4000
0
LINE
5
2A0
100
AcDbEntity
8
laenge
6
ByLayer
62
256
370
-1
100
AcDbLine
10
83
20
-6.4000
11
83
21
-5.4000
0
LINE
5
2A1
100
AcDbEntity
8
laenge
6
ByLayer
62
256
370
-1
100
AcDbLine
10
87
20
-6.4000
11
87
21
-5.4000
0
LINE
5
2A2
100
AcDbEntity
8
laenge
6
ByLayer
62
256
370
-1
100
AcDbLine
10
91
20
-6.4000
11
91
21
-5.4000
0
LINE
5
2A3
100
AcDbEntity
8
laenge
6
ByLayer
62
256
370
-1
100
AcDbLine
10
95
20
-6.4000
11
95
21
-5.4000
0
LINE
5
2A4
100
AcDbEntity
8
laenge
6
ByLayer
62
256
370
-1
100
AcDbLine
10
96.3000
20
-6.4000
11
96.3000
21
-5.4000
0
LINE
5
2A5
100
AcDbEntity
8
laenge
6
ByLayer
62
256
370
-1
100
AcDbLine
10
97.6000
20
-6.4000
11
97.6000
21
-5.4000
0
LINE
5
2A6
100
AcDbEntity
8
laenge
6
ByLayer
62
256
370
-1
100
AcDbLine
10
98.9000
20
-6.4000
11
98.9000
21
-5.4000
0
LINE
5
2A7
100
AcDbEntity
8
laenge
6
ByLayer
62
256
370
-1
100
AcDbLine
10
100
20
-6.4000
11
100
21
-5.4000
0
LWPOLYLINE
5
2A8
100
AcDbEntity
8
laenge
6
ByLayer
62
7
370
30
100
AcDbPolyline
90
4
70
1
10
105.2000
20
-5.4000
10
110.7000
20
-5.4000
10
110.7000
20
-6.4000
10
105.2000
20
-6.4000
0
LWPOLYLINE
5
2A9
100
AcDbEntity
8
laenge
6
ByLayer
62
7
370
30
100
AcDbPolyline
90
4
70
1
10
100
20
-5.4000
10
105.2000
20
-5.4000
10
105.2000
20
-6.4000
10
100
20
-6.4000
0
TEXT
5
2AA
100
AcDbEntity
8
laenge
6
ByLayer
62
7
100
AcDbText
7
Arial
10
110.5000
20
-5.9000
40
0.4500
41
0.7500
1
Abschlagslänge
7
Arial
72
2
11
110.5000
21
-5.9000
100
AcDbText
73
2
0
TEXT
5
2AB
100
AcDbEntity
8
laenge
6
ByLayer
62
7
100
AcDbText
7
Arial
10
100.2000
20
-5.9000
40
0.3600
41
0.7500
1
m
7
Arial
11
100.2000
21
-5.9000
100
AcDbText
73
2
0
LWPOLYLINE
5
2AC
100
AcDbEntity
8
laenge
6
ByLayer
62
7
370
30
100
AcDbPolyline
90
4
70
1
10
0
20
-5.4000
10
100
20
-5.4000
10
100
20
-6.4000
10
0
20
-6.4000
0
LWPOLYLINE
5
2AE
100
AcDbEntity
8
ausbruchsverhalten
6
ByLayer
62
7
370
30
100
AcDbPolyline
90
4
70
1
10
-10.7000
20
-6.4000
10
-5.2000
20
-6.4000
10
-5.2000
20
-7.4000
10
-10.7000
20
-7.4000
0
LWPOLYLINE
5
2AF
100
AcDbEntity
8
ausbruchsverhalten
6
ByLayer
62
7
370
30
100
AcDbPolyline
90
4
70
1
10
-5.2000
20
-6.4000
10
0
20
-6.4000
10
0
20
-7.4000
10
-5.2000
20
-7.4000
0
TEXT
5
2B0
100
AcDbEntity
8
ausbruchsverhalten
6
ByLayer
62
7
100
AcDbText
7
Arial
10
-10.5000
20
-6.9000
40
0.4500
41
0.7500
1
Ausbruchsverhalten
7
Arial
11
-10.5000
21
-6.9000
100
AcDbText
73
2
0
TEXT
5
2B1
100
AcDbEntity
8
ausbruchsverhalten
6
ByLayer
62
7
100
AcDbText
7
Arial
10
0.3500
20
-6.9000
40
0.3600
41
0.7500
1
A1
7
Arial
72
1
11
0.3500
21
-6.9000
100
AcDbText
73
2
0
TEXT
5
2B2
100
AcDbEntity
8
ausbruchsverhalten
6
ByLayer
62
7
100
AcDbText
7
Arial
10
6.3500
20
-6.9000
40
0.3600
41
0.7500
1
A1
7
Arial
72
1
11
6.3500
21
-6.9000
100
AcDbText
73
2
0
TEXT
5
2B3
100
AcDbEntity
8
ausbruchsverhalten
6
ByLayer
62
7
100
AcDbText
7
Arial
10
11.3500
20
-6.9000
40
0.3600
41
0.7500
1
A1
7
Arial
72
1
11
11.3500
21
-6.9000
100
AcDbText
73
2
0
TEXT
5
2B4
100
AcDbEntity
8
ausbruchsverhalten
6
ByLayer
62
7
100
AcDbText
7
Arial
10
16.3500
20
-6.9000
40
0.3600
41
0.7500
1
A1
7
Arial
72
1
11
16.3500
21
-6.9000
100
AcDbText
73
2
0
TEXT
5
2B5
100
AcDbEntity
8
ausbruchsverhalten
6
ByLayer
62
7
100
AcDbText
7
Arial
10
21.3500
20
-6.9000
40
0.3600
41
0.7500
1
A1
7
Arial
72
1
11
21.3500
21
-6.9000
100
AcDbText
73
2
0
TEXT
5
2B6
100
AcDbEntity
8
ausbruchsverhalten
6
ByLayer
62
7
100
AcDbText
7
Arial
10
24.3500
20
-6.9000
40
0.3600
41
0.7500
1
A1
7
Arial
72
1
11
24.3500
21
-6.9000
100
AcDbText
73
2
0
TEXT
5
2B7
100
AcDbEntity
8
ausbruchsverhalten
6
ByLayer
62
7
100
AcDbText
7
Arial
10
28.3500
20
-6.9000
40
0.3600
41
0.7500
1
A1
7
Arial
72
1
11
28.3500
21
-6.9000
100
AcDbText
73
2
0
TEXT
5
2B8
100
AcDbEntity
8
ausbruchsverhalten
6
ByLayer
62
7
100
AcDbText
7
Arial
10
32.3500
20
-6.9000
40
0.3600
41
0.7500
1
A1
7
Arial
72
1
11
32.3500
21
-6.9000
100
AcDbText
73
2
0
TEXT
5
2B9
100
AcDbEntity
8
ausbruchsverhalten
6
ByLayer
62
7
100
AcDbText
7
Arial
10
36.3500
20
-6.9000
40
0.3600
41
0.7500
1
A1
7
Arial
72
1
11
36.3500
21
-6.9000
100
AcDbText
73
2
0
TEXT
5
2BA
100
AcDbEntity
8
ausbruchsverhalten
6
ByLayer
62
7
100
AcDbText
7
Arial
10
39.3500
20
-6.9000
40
0.3600
41
0.7500
1
A1
7
Arial
72
1
11
39.3500
21
-6.9000
100
AcDbText
73
2
0
TEXT
5
2BB
100
AcDbEntity
8
ausbruchsverhalten
6
ByLayer
62
7
100
AcDbText
7
Arial
10
44.3500
20
-6.9000
40
0.3600
41
0.7500
1
A1
7
Arial
72
1
11
44.3500
21
-6.9000
100
AcDbText
73
2
0
TEXT
5
2BC
100
AcDbEntity
8
ausbruchsverhalten
6
ByLayer
62
7
100
AcDbText
7
Arial
10
47.3500
20
-6.9000
40
0.3600
41
0.7500
1
A1
7
Arial
72
1
11
47.3500
21
-6.9000
100
AcDbText
73
2
0
TEXT
5
2BD
100
AcDbEntity
8
ausbruchsverhalten
6
ByLayer
62
7
100
AcDbText
7
Arial
10
51.3500
20
-6.9000
40
0.3600
41
0.7500
1
A1
7
Arial
72
1
11
51.3500
21
-6.9000
100
AcDbText
73
2
0
TEXT
5
2BE
100
AcDbEntity
8
ausbruchsverhalten
6
ByLayer
62
7
100
AcDbText
7
Arial
10
55.3500
20
-6.9000
40
0.3600
41
0.7500
1
A1
7
Arial
72
1
11
55.3500
21
-6.9000
100
AcDbText
73
2
0
TEXT
5
2BF
100
AcDbEntity
8
ausbruchsverhalten
6
ByLayer
62
7
100
AcDbText
7
Arial
10
58.3500
20
-6.9000
40
0.3600
41
0.7500
1
A2
7
Arial
72
1
11
58.3500
21
-6.9000
100
AcDbText
73
2
0
TEXT
5
2C0
100
AcDbEntity
8
ausbruchsverhalten
6
ByLayer
62
7
100
AcDbText
7
Arial
10
62.3500
20
-6.9000
40
0.3600
41
0.7500
1
A2
7
Arial
72
1
11
62.3500
21
-6.9000
100
AcDbText
73
2
0
TEXT
5
2C1
100
AcDbEntity
8
ausbruchsverhalten
6
ByLayer
62
7
100
AcDbText
7
Arial
10
66.3500
20
-6.9000
40
0.3600
41
0.7500
1
A1
7
Arial
72
1
11
66.3500
21
-6.9000
100
AcDbText
73
2
0
TEXT
5
2C2
100
AcDbEntity
8
ausbruchsverhalten
6
ByLayer
62
7
100
AcDbText
7
Arial
10
70.3500
20
-6.9000
40
0.3600
41
0.7500
1
A1
7
Arial
72
1
11
70.3500
21
-6.9000
100
AcDbText
73
2
0
TEXT
5
2C3
100
AcDbEntity
8
ausbruchsverhalten
6
ByLayer
62
7
100
AcDbText
7
Arial
10
74.3500
20
-6.9000
40
0.3600
41
0.7500
1
A2
7
Arial
72
1
11
74.3500
21
-6.9000
100
AcDbText
73
2
0
TEXT
5
2C4
100
AcDbEntity
8
ausbruchsverhalten
6
ByLayer
62
7
100
AcDbText
7
Arial
10
78.3500
20
-6.9000
40
0.3600
41
0.7500
1
A1
7
Arial
72
1
11
78.3500
21
-6.9000
100
AcDbText
73
2
0
TEXT
5
2C5
100
AcDbEntity
8
ausbruchsverhalten
6
ByLayer
62
7
100
AcDbText
7
Arial
10
82.3500
20
-6.9000
40
0.3600
41
0.7500
1
A1
7
Arial
72
1
11
82.3500
21
-6.9000
100
AcDbText
73
2
0
TEXT
5
2C6
100
AcDbEntity
8
ausbruchsverhalten
6
ByLayer
62
7
100
AcDbText
7
Arial
10
86.3500
20
-6.9000
40
0.3600
41
0.7500
1
A1
7
Arial
72
1
11
86.3500
21
-6.9000
100
AcDbText
73
2
0
TEXT
5
2C7
100
AcDbEntity
8
ausbruchsverhalten
6
ByLayer
62
7
100
AcDbText
7
Arial
10
90.3500
20
-6.9000
40
0.3600
41
0.7500
1
B1
7
Arial
72
1
11
90.3500
21
-6.9000
100
AcDbText
73
2
0
TEXT
5
2C8
100
AcDbEntity
8
ausbruchsverhalten
6
ByLayer
62
7
100
AcDbText
7
Arial
10
94.3500
20
-6.9000
40
0.3600
41
0.7500
1
B1
7
Arial
72
1
11
94.3500
21
-6.9000
100
AcDbText
73
2
0
TEXT
5
2C9
100
AcDbEntity
8
ausbruchsverhalten
6
ByLayer
62
7
100
AcDbText
7
Arial
10
95.6500
20
-6.9000
40
0.3600
41
0.7500
1
B1
7
Arial
72
1
11
95.6500
21
-6.9000
100
AcDbText
73
2
0
TEXT
5
2CA
100
AcDbEntity
8
ausbruchsverhalten
6
ByLayer
62
7
100
AcDbText
7
Arial
10
96.9500
20
-6.9000
40
0.3600
41
0.7500
1
B1
7
Arial
72
1
11
96.9500
21
-6.9000
100
AcDbText
73
2
0
TEXT
5
2CB
100
AcDbEntity
8
ausbruchsverhalten
6
ByLayer
62
7
100
AcDbText
7
Arial
10
98.2500
20
-6.9000
40
0.3600
41
0.7500
1
B1
7
Arial
72
1
11
98.2500
21
-6.9000
100
AcDbText
73
2
0
TEXT
5
2CC
100
AcDbEntity
8
ausbruchsverhalten
6
ByLayer
62
7
100
AcDbText
7
Arial
10
99.3500
20
-6.9000
40
0.3600
41
0.7500
1
B1
7
Arial
72
1
11
99.3500
21
-6.9000
100
AcDbText
73
2
0
LINE
5
2CD
100
AcDbEntity
8
ausbruchsverhalten
6
ByLayer
62
256
370
-1
100
AcDbLine
10
-0.3000
20
-7.4000
11
-0.3000
21
-6.4000
0
LINE
5
2CE
100
AcDbEntity
8
ausbruchsverhalten
6
ByLayer
62
256
370
-1
100
AcDbLine
10
5.7000
20
-7.4000
11
5.7000
21
-6.4000
0
LINE
5
2CF
100
AcDbEntity
8
ausbruchsverhalten
6
ByLayer
62
256
370
-1
100
AcDbLine
10
10.7000
20
-7.4000
11
10.7000
21
-6.4000
0
LINE
5
2D0
100
AcDbEntity
8
ausbruchsverhalten
6
ByLayer
62
256
370
-1
100
AcDbLine
10
15.7000
20
-7.4000
11
15.7000
21
-6.4000
0
LINE
5
2D1
100
AcDbEntity
8
ausbruchsverhalten
6
ByLayer
62
256
370
-1
100
AcDbLine
10
20.7000
20
-7.4000
11
20.7000
21
-6.4000
0
LINE
5
2D2
100
AcDbEntity
8
ausbruchsverhalten
6
ByLayer
62
256
370
-1
100
AcDbLine
10
23.7000
20
-7.4000
11
23.7000
21
-6.4000
0
LINE
5
2D3
100
AcDbEntity
8
ausbruchsverhalten
6
ByLayer
62
256
370
-1
100
AcDbLine
10
27.7000
20
-7.4000
11
27.7000
21
-6.4000
0
LINE
5
2D4
100
AcDbEntity
8
ausbruchsverhalten
6
ByLayer
62
256
370
-1
100
AcDbLine
10
31.7000
20
-7.4000
11
31.7000
21
-6.4000
0
LINE
5
2D5
100
AcDbEntity
8
ausbruchsverhalten
6
ByLayer
62
256
370
-1
100
AcDbLine
10
35.7000
20
-7.4000
11
35.7000
21
-6.4000
0
LINE
5
2D6
100
AcDbEntity
8
ausbruchsverhalten
6
ByLayer
62
256
370
-1
100
AcDbLine
10
38.7000
20
-7.4000
11
38.7000
21
-6.4000
0
LINE
5
2D7
100
AcDbEntity
8
ausbruchsverhalten
6
ByLayer
62
256
370
-1
100
AcDbLine
10
43.7000
20
-7.4000
11
43.7000
21
-6.4000
0
LINE
5
2D8
100
AcDbEntity
8
ausbruchsverhalten
6
ByLayer
62
256
370
-1
100
AcDbLine
10
46.7000
20
-7.4000
11
46.7000
21
-6.4000
0
LINE
5
2D9
100
AcDbEntity
8
ausbruchsverhalten
6
ByLayer
62
256
370
-1
100
AcDbLine
10
50.7000
20
-7.4000
11
50.7000
21
-6.4000
0
LINE
5
2DA
100
AcDbEntity
8
ausbruchsverhalten
6
ByLayer
62
256
370
-1
100
AcDbLine
10
54.7000
20
-7.4000
11
54.7000
21
-6.4000
0
LINE
5
2DB
100
AcDbEntity
8
ausbruchsverhalten
6
ByLayer
62
256
370
-1
100
AcDbLine
10
57.7000
20
-7.4000
11
57.7000
21
-6.4000
0
LINE
5
2DC
100
AcDbEntity
8
ausbruchsverhalten
6
ByLayer
62
256
370
-1
100
AcDbLine
10
61.7000
20
-7.4000
11
61.7000
21
-6.4000
0
LINE
5
2DD
100
AcDbEntity
8
ausbruchsverhalten
6
ByLayer
62
256
370
-1
100
AcDbLine
10
65.7000
20
-7.4000
11
65.7000
21
-6.4000
0
LINE
5
2DE
100
AcDbEntity
8
ausbruchsverhalten
6
ByLayer
62
256
370
-1
100
AcDbLine
10
69.7000
20
-7.4000
11
69.7000
21
-6.4000
0
LINE
5
2DF
100
AcDbEntity
8
ausbruchsverhalten
6
ByLayer
62
256
370
-1
100
AcDbLine
10
73.7000
20
-7.4000
11
73.7000
21
-6.4000
0
LINE
5
2E0
100
AcDbEntity
8
ausbruchsverhalten
6
ByLayer
62
256
370
-1
100
AcDbLine
10
77.7000
20
-7.4000
11
77.7000
21
-6.4000
0
LINE
5
2E1
100
AcDbEntity
8
ausbruchsverhalten
6
ByLayer
62
256
370
-1
100
AcDbLine
10
81.7000
20
-7.4000
11
81.7000
21
-6.4000
0
LINE
5
2E2
100
AcDbEntity
8
ausbruchsverhalten
6
ByLayer
62
256
370
-1
100
AcDbLine
10
85.7000
20
-7.4000
11
85.7000
21
-6.4000
0
LINE
5
2E3
100
AcDbEntity
8
ausbruchsverhalten
6
ByLayer
62
256
370
-1
100
AcDbLine
10
89.7000
20
-7.4000
11
89.7000
21
-6.4000
0
LINE
5
2E4
100
AcDbEntity
8
ausbruchsverhalten
6
ByLayer
62
256
370
-1
100
AcDbLine
10
93.7000
20
-7.4000
11
93.7000
21
-6.4000
0
LINE
5
2E5
100
AcDbEntity
8
ausbruchsverhalten
6
ByLayer
62
256
370
-1
100
AcDbLine
10
95
20
-7.4000
11
95
21
-6.4000
0
LINE
5
2E6
100
AcDbEntity
8
ausbruchsverhalten
6
ByLayer
62
256
370
-1
100
AcDbLine
10
96.3000
20
-7.4000
11
96.3000
21
-6.4000
0
LINE
5
2E7
100
AcDbEntity
8
ausbruchsverhalten
6
ByLayer
62
256
370
-1
100
AcDbLine
10
97.6000
20
-7.4000
11
97.6000
21
-6.4000
0
LINE
5
2E8
100
AcDbEntity
8
ausbruchsverhalten
6
ByLayer
62
256
370
-1
100
AcDbLine
10
98.7000
20
-7.4000
11
98.7000
21
-6.4000
0
LINE
5
2E9
100
AcDbEntity
8
ausbruchsverhalten
6
ByLayer
62
256
370
-1
100
AcDbLine
10
1
20
-7.4000
11
1
21
-6.4000
0
LINE
5
2EA
100
AcDbEntity
8
ausbruchsverhalten
6
ByLayer
62
256
370
-1
100
AcDbLine
10
7
20
-7.4000
11
7
21
-6.4000
0
LINE
5
2EB
100
AcDbEntity
8
ausbruchsverhalten
6
ByLayer
62
256
370
-1
100
AcDbLine
10
12
20
-7.4000
11
12
21
-6.4000
0
LINE
5
2EC
100
AcDbEntity
8
ausbruchsverhalten
6
ByLayer
62
256
370
-1
100
AcDbLine
10
17
20
-7.4000
11
17
21
-6.4000
0
LINE
5
2ED
100
AcDbEntity
8
ausbruchsverhalten
6
ByLayer
62
256
370
-1
100
AcDbLine
10
22
20
-7.4000
11
22
21
-6.4000
0
LINE
5
2EE
100
AcDbEntity
8
ausbruchsverhalten
6
ByLayer
62
256
370
-1
100
AcDbLine
10
25
20
-7.4000
11
25
21
-6.4000
0
LINE
5
2EF
100
AcDbEntity
8
ausbruchsverhalten
6
ByLayer
62
256
370
-1
100
AcDbLine
10
29
20
-7.4000
11
29
21
-6.4000
0
LINE
5
2F0
100
AcDbEntity
8
ausbruchsverhalten
6
ByLayer
62
256
370
-1
100
AcDbLine
10
33
20
-7.4000
11
33
21
-6.4000
0
LINE
5
2F1
100
AcDbEntity
8
ausbruchsverhalten
6
ByLayer
62
256
370
-1
100
AcDbLine
10
37
20
-7.4000
11
37
21
-6.4000
0
LINE
5
2F2
100
AcDbEntity
8
ausbruchsverhalten
6
ByLayer
62
256
370
-1
100
AcDbLine
10
40
20
-7.4000
11
40
21
-6.4000
0
LINE
5
2F3
100
AcDbEntity
8
ausbruchsverhalten
6
ByLayer
62
256
370
-1
100
AcDbLine
10
45
20
-7.4000
11
45
21
-6.4000
0
LINE
5
2F4
100
AcDbEntity
8
ausbruchsverhalten
6
ByLayer
62
256
370
-1
100
AcDbLine
10
48
20
-7.4000
11
48
21
-6.4000
0
LINE
5
2F5
100
AcDbEntity
8
ausbruchsverhalten
6
ByLayer
62
256
370
-1
100
AcDbLine
10
52
20
-7.4000
11
52
21
-6.4000
0
LINE
5
2F6
100
AcDbEntity
8
ausbruchsverhalten
6
ByLayer
62
256
370
-1
100
AcDbLine
10
56
20
-7.4000
11
56
21
-6.4000
0
LINE
5
2F7
100
AcDbEntity
8
ausbruchsverhalten
6
ByLayer
62
256
370
-1
100
AcDbLine
10
59
20
-7.4000
11
59
21
-6.4000
0
LINE
5
2F8
100
AcDbEntity
8
ausbruchsverhalten
6
ByLayer
62
256
370
-1
100
AcDbLine
10
63
20
-7.4000
11
63
21
-6.4000
0
LINE
5
2F9
100
AcDbEntity
8
ausbruchsverhalten
6
ByLayer
62
256
370
-1
100
AcDbLine
10
67
20
-7.4000
11
67
21
-6.4000
0
LINE
5
2FA
100
AcDbEntity
8
ausbruchsverhalten
6
ByLayer
62
256
370
-1
100
AcDbLine
10
71
20
-7.4000
11
71
21
-6.4000
0
LINE
5
2FB
100
AcDbEntity
8
ausbruchsverhalten
6
ByLayer
62
256
370
-1
100
AcDbLine
10
75
20
-7.4000
11
75
21
-6.4000
0
LINE
5
2FC
100
AcDbEntity
8
ausbruchsverhalten
6
ByLayer
62
256
370
-1
100
AcDbLine
10
79
20
-7.4000
11
79
21
-6.4000
0
LINE
5
2FD
100
AcDbEntity
8
ausbruchsverhalten
6
ByLayer
62
256
370
-1
100
AcDbLine
10
83
20
-7.4000
11
83
21
-6.4000
0
LINE
5
2FE
100
AcDbEntity
8
ausbruchsverhalten
6
ByLayer
62
256
370
-1
100
AcDbLine
10
87
20
-7.4000
11
87
21
-6.4000
0
LINE
5
2FF
100
AcDbEntity
8
ausbruchsverhalten
6
ByLayer
62
256
370
-1
100
AcDbLine
10
91
20
-7.4000
11
91
21
-6.4000
0
LINE
5
300
100
AcDbEntity
8
ausbruchsverhalten
6
ByLayer
62
256
370
-1
100
AcDbLine
10
95
20
-7.4000
11
95
21
-6.4000
0
LINE
5
301
100
AcDbEntity
8
ausbruchsverhalten
6
ByLayer
62
256
370
-1
100
AcDbLine
10
96.3000
20
-7.4000
11
96.3000
21
-6.4000
0
LINE
5
302
100
AcDbEntity
8
ausbruchsverhalten
6
ByLayer
62
256
370
-1
100
AcDbLine
10
97.6000
20
-7.4000
11
97.6000
21
-6.4000
0
LINE
5
303
100
AcDbEntity
8
ausbruchsverhalten
6
ByLayer
62
256
370
-1
100
AcDbLine
10
98.9000
20
-7.4000
11
98.9000
21
-6.4000
0
LINE
5
304
100
AcDbEntity
8
ausbruchsverhalten
6
ByLayer
62
256
370
-1
100
AcDbLine
10
100
20
-7.4000
11
100
21
-6.4000
0
LWPOLYLINE
5
305
100
AcDbEntity
8
ausbruchsverhalten
6
ByLayer
62
7
370
30
100
AcDbPolyline
90
4
70
1
10
105.2000
20
-6.4000
10
110.7000
20
-6.4000
10
110.7000
20
-7.4000
10
105.2000
20
-7.4000
0
LWPOLYLINE
5
306
100
AcDbEntity
8
ausbruchsverhalten
6
ByLayer
62
7
370
30
100
AcDbPolyline
90
4
70
1
10
100
20
-6.4000
10
105.2000
20
-6.4000
10
105.2000
20
-7.4000
10
100
20
-7.4000
0
TEXT
5
307
100
AcDbEntity
8
ausbruchsverhalten
6
ByLayer
62
7
100
AcDbText
7
Arial
10
110.5000
20
-6.9000
40
0.4500
41
0.7500
1
Ausbruchsverhalten
7
Arial
72
2
11
110.5000
21
-6.9000
100
AcDbText
73
2
0
LWPOLYLINE
5
308
100
AcDbEntity
8
ausbruchsverhalten
6
ByLayer
62
7
370
30
100
AcDbPolyline
90
4
70
1
10
0
20
-6.4000
10
100
20
-6.4000
10
100
20
-7.4000
10
0
20
-7.4000
0
LWPOLYLINE
5
30A
100
AcDbEntity
8
loesemethode
6
ByLayer
62
7
370
30
100
AcDbPolyline
90
4
70
1
10
-10.7000
20
-7.4000
10
-5.2000
20
-7.4000
10
-5.2000
20
-9.6500
10
-10.7000
20
-9.6500
0
LWPOLYLINE
5
30B
100
AcDbEntity
8
loesemethode
6
ByLayer
62
7
370
30
100
AcDbPolyline
90
4
70
1
10
-5.2000
20
-7.4000
10
0
20
-7.4000
10
0
20
-9.6500
10
-5.2000
20
-9.6500
0
TEXT
5
30C
100
AcDbEntity
8
loesemethode
6
ByLayer
62
7
100
AcDbText
7
Arial
10
-10.5000
20
-8.5250
40
0.4500
41
0.7500
1
Lösemethode
7
Arial
11
-10.5000
21
-8.5250
100
AcDbText
73
2
0
TEXT
5
30D
100
AcDbEntity
8
loesemethode
6
ByLayer
62
7
100
AcDbText
7
Arial
10
-0.2000
20
-7.7750
40
0.2700
41
0.7500
1
Sprengen
7
Arial
72
2
11
-0.2000
21
-7.7750
100
AcDbText
73
2
0
LINE
5
30E
100
AcDbEntity
8
loesemethode
6
ByLayer
62
256
370
-1
100
AcDbLine
10
-5.2000
20
-8.1500
11
0
21
-8.1500
0
TEXT
5
30F
100
AcDbEntity
8
loesemethode
6
ByLayer
62
7
100
AcDbText
7
Arial
10
-0.2000
20
-8.5250
40
0.2700
41
0.7500
1
Bagger
7
Arial
72
2
11
-0.2000
21
-8.5250
100
AcDbText
73
2
0
LINE
5
310
100
AcDbEntity
8
loesemethode
6
ByLayer
62
256
370
-1
100
AcDbLine
10
-5.2000
20
-8.9000
11
0
21
-8.9000
0
TEXT
5
311
100
AcDbEntity
8
loesemethode
6
ByLayer
62
7
100
AcDbText
7
Arial
10
-0.2000
20
-9.2750
40
0.2700
41
0.7500
1
Hyprid
7
Arial
72
2
11
-0.2000
21
-9.2750
100
AcDbText
73
2
0
LINE
5
312
100
AcDbEntity
8
loesemethode
6
ByLayer
62
256
370
-1
100
AcDbLine
10
-5.2000
20
-9.6500
11
0
21
-9.6500
0
HATCH
5
313
100
AcDbEntity
8
loesemethode
6
ByLayer
62
42
100
AcDbHatch
10
0
20
0
30
0
210
0
220
0
230
1
2
SOLID
70
1
71
0
91
1
92
3
72
0
73
1
93
4
10
-0.3000
20
-7.4000
10
1
20
-7.4000
10
1
20
-8.1500
10
-0.3000
20
-8.1500
97
0
75
0
76
0
98
0
0
LWPOLYLINE
5
314
100
AcDbEntity
8
loesemethode
6
ByLayer
62
7
370
-1
100
AcDbPolyline
90
4
70
1
10
-0.3000
20
-7.4000
10
1
20
-7.4000
10
1
20
-8.1500
10
-0.3000
20
-8.1500
0
TEXT
5
315
100
AcDbEntity
8
loesemethode
6
ByLayer
62
7
100
AcDbText
7
Arial
10
0.3500
20
-7.7750
40
0.2700
41
0.7500
1
SP
7
Arial
72
1
11
0.3500
21
-7.7750
100
AcDbText
73
2
0
HATCH
5
316
100
AcDbEntity
8
loesemethode
6
ByLayer
62
42
100
AcDbHatch
10
0
20
0
30
0
210
0
220
0
230
1
2
SOLID
70
1
71
0
91
1
92
3
72
0
73
1
93
4
10
5.7000
20
-7.4000
10
6.9999
20
-7.4000
10
6.9999
20
-8.1500
10
5.7000
20
-8.1500
97
0
75
0
76
0
98
0
0
LWPOLYLINE
5
317
100
AcDbEntity
8
loesemethode
6
ByLayer
62
7
370
-1
100
AcDbPolyline
90
4
70
1
10
5.7000
20
-7.4000
10
6.9999
20
-7.4000
10
6.9999
20
-8.1500
10
5.7000
20
-8.1500
0
TEXT
5
318
100
AcDbEntity
8
loesemethode
6
ByLayer
62
7
100
AcDbText
7
Arial
10
6.3500
20
-7.7750
40
0.2700
41
0.7500
1
SP
7
Arial
72
1
11
6.3500
21
-7.7750
100
AcDbText
73
2
0
HATCH
5
319
100
AcDbEntity
8
loesemethode
6
ByLayer
62
42
100
AcDbHatch
10
0
20
0
30
0
210
0
220
0
230
1
2
SOLID
70
1
71
0
91
1
92
3
72
0
73
1
93
4
10
10.7000
20
-7.4000
10
12
20
-7.4000
10
12
20
-8.1500
10
10.7000
20
-8.1500
97
0
75
0
76
0
98
0
0
LWPOLYLINE
5
31A
100
AcDbEntity
8
loesemethode
6
ByLayer
62
7
370
-1
100
AcDbPolyline
90
4
70
1
10
10.7000
20
-7.4000
10
12
20
-7.4000
10
12
20
-8.1500
10
10.7000
20
-8.1500
0
TEXT
5
31B
100
AcDbEntity
8
loesemethode
6
ByLayer
62
7
100
AcDbText
7
Arial
10
11.3500
20
-7.7750
40
0.2700
41
0.7500
1
SP
7
Arial
72
1
11
11.3500
21
-7.7750
100
AcDbText
73
2
0
HATCH
5
31C
100
AcDbEntity
8
loesemethode
6
ByLayer
62
42
100
AcDbHatch
10
0
20
0
30
0
210
0
220
0
230
1
2
SOLID
70
1
71
0
91
1
92
3
72
0
73
1
93
4
10
15.7000
20
-7.4000
10
17
20
-7.4000
10
17
20
-8.1500
10
15.7000
20
-8.1500
97
0
75
0
76
0
98
0
0
LWPOLYLINE
5
31D
100
AcDbEntity
8
loesemethode
6
ByLayer
62
7
370
-1
100
AcDbPolyline
90
4
70
1
10
15.7000
20
-7.4000
10
17
20
-7.4000
10
17
20
-8.1500
10
15.7000
20
-8.1500
0
TEXT
5
31E
100
AcDbEntity
8
loesemethode
6
ByLayer
62
7
100
AcDbText
7
Arial
10
16.3500
20
-7.7750
40
0.2700
41
0.7500
1
SP
7
Arial
72
1
11
16.3500
21
-7.7750
100
AcDbText
73
2
0
HATCH
5
31F
100
AcDbEntity
8
loesemethode
6
ByLayer
62
42
100
AcDbHatch
10
0
20
0
30
0
210
0
220
0
230
1
2
SOLID
70
1
71
0
91
1
92
3
72
0
73
1
93
4
10
20.7000
20
-7.4000
10
22
20
-7.4000
10
22
20
-8.1500
10
20.7000
20
-8.1500
97
0
75
0
76
0
98
0
0
LWPOLYLINE
5
320
100
AcDbEntity
8
loesemethode
6
ByLayer
62
7
370
-1
100
AcDbPolyline
90
4
70
1
10
20.7000
20
-7.4000
10
22
20
-7.4000
10
22
20
-8.1500
10
20.7000
20
-8.1500
0
TEXT
5
321
100
AcDbEntity
8
loesemethode
6
ByLayer
62
7
100
AcDbText
7
Arial
10
21.3500
20
-7.7750
40
0.2700
41
0.7500
1
SP
7
Arial
72
1
11
21.3500
21
-7.7750
100
AcDbText
73
2
0
HATCH
5
322
100
AcDbEntity
8
loesemethode
6
ByLayer
62
42
100
AcDbHatch
10
0
20
0
30
0
210
0
220
0
230
1
2
SOLID
70
1
71
0
91
1
92
3
72
0
73
1
93
4
10
23.7000
20
-7.4000
10
25
20
-7.4000
10
25
20
-8.1500
10
23.7000
20
-8.1500
97
0
75
0
76
0
98
0
0
LWPOLYLINE
5
323
100
AcDbEntity
8
loesemethode
6
ByLayer
62
7
370
-1
100
AcDbPolyline
90
4
70
1
10
23.7000
20
-7.4000
10
25
20
-7.4000
10
25
20
-8.1500
10
23.7000
20
-8.1500
0
TEXT
5
324
100
AcDbEntity
8
loesemethode
6
ByLayer
62
7
100
AcDbText
7
Arial
10
24.3500
20
-7.7750
40
0.2700
41
0.7500
1
SP
7
Arial
72
1
11
24.3500
21
-7.7750
100
AcDbText
73
2
0
HATCH
5
325
100
AcDbEntity
8
loesemethode
6
ByLayer
62
42
100
AcDbHatch
10
0
20
0
30
0
210
0
220
0
230
1
2
SOLID
70
1
71
0
91
1
92
3
72
0
73
1
93
4
10
27.7000
20
-7.4000
10
29
20
-7.4000
10
29
20
-8.1500
10
27.7000
20
-8.1500
97
0
75
0
76
0
98
0
0
LWPOLYLINE
5
326
100
AcDbEntity
8
loesemethode
6
ByLayer
62
7
370
-1
100
AcDbPolyline
90
4
70
1
10
27.7000
20
-7.4000
10
29
20
-7.4000
10
29
20
-8.1500
10
27.7000
20
-8.1500
0
TEXT
5
327
100
AcDbEntity
8
loesemethode
6
ByLayer
62
7
100
AcDbText
7
Arial
10
28.3500
20
-7.7750
40
0.2700
41
0.7500
1
SP
7
Arial
72
1
11
28.3500
21
-7.7750
100
AcDbText
73
2
0
HATCH
5
328
100
AcDbEntity
8
loesemethode
6
ByLayer
62
42
100
AcDbHatch
10
0
20
0
30
0
210
0
220
0
230
1
2
SOLID
70
1
71
0
91
1
92
3
72
0
73
1
93
4
10
31.7000
20
-7.4000
10
33
20
-7.4000
10
33
20
-8.1500
10
31.7000
20
-8.1500
97
0
75
0
76
0
98
0
0
LWPOLYLINE
5
329
100
AcDbEntity
8
loesemethode
6
ByLayer
62
7
370
-1
100
AcDbPolyline
90
4
70
1
10
31.7000
20
-7.4000
10
33
20
-7.4000
10
33
20
-8.1500
10
31.7000
20
-8.1500
0
TEXT
5
32A
100
AcDbEntity
8
loesemethode
6
ByLayer
62
7
100
AcDbText
7
Arial
10
32.3500
20
-7.7750
40
0.2700
41
0.7500
1
SP
7
Arial
72
1
11
32.3500
21
-7.7750
100
AcDbText
73
2
0
HATCH
5
32B
100
AcDbEntity
8
loesemethode
6
ByLayer
62
42
100
AcDbHatch
10
0
20
0
30
0
210
0
220
0
230
1
2
SOLID
70
1
71
0
91
1
92
3
72
0
73
1
93
4
10
35.7000
20
-7.4000
10
37
20
-7.4000
10
37
20
-8.1500
10
35.7000
20
-8.1500
97
0
75
0
76
0
98
0
0
LWPOLYLINE
5
32C
100
AcDbEntity
8
loesemethode
6
ByLayer
62
7
370
-1
100
AcDbPolyline
90
4
70
1
10
35.7000
20
-7.4000
10
37
20
-7.4000
10
37
20
-8.1500
10
35.7000
20
-8.1500
0
TEXT
5
32D
100
AcDbEntity
8
loesemethode
6
ByLayer
62
7
100
AcDbText
7
Arial
10
36.3500
20
-7.7750
40
0.2700
41
0.7500
1
SP
7
Arial
72
1
11
36.3500
21
-7.7750
100
AcDbText
73
2
0
HATCH
5
32E
100
AcDbEntity
8
loesemethode
6
ByLayer
62
42
100
AcDbHatch
10
0
20
0
30
0
210
0
220
0
230
1
2
SOLID
70
1
71
0
91
1
92
3
72
0
73
1
93
4
10
38.7000
20
-7.4000
10
40
20
-7.4000
10
40
20
-8.1500
10
38.7000
20
-8.1500
97
0
75
0
76
0
98
0
0
LWPOLYLINE
5
32F
100
AcDbEntity
8
loesemethode
6
ByLayer
62
7
370
-1
100
AcDbPolyline
90
4
70
1
10
38.7000
20
-7.4000
10
40
20
-7.4000
10
40
20
-8.1500
10
38.7000
20
-8.1500
0
TEXT
5
330
100
AcDbEntity
8
loesemethode
6
ByLayer
62
7
100
AcDbText
7
Arial
10
39.3500
20
-7.7750
40
0.2700
41
0.7500
1
SP
7
Arial
72
1
11
39.3500
21
-7.7750
100
AcDbText
73
2
0
HATCH
5
331
100
AcDbEntity
8
loesemethode
6
ByLayer
62
42
100
AcDbHatch
10
0
20
0
30
0
210
0
220
0
230
1
2
SOLID
70
1
71
0
91
1
92
3
72
0
73
1
93
4
10
43.7000
20
-7.4000
10
45
20
-7.4000
10
45
20
-8.1500
10
43.7000
20
-8.1500
97
0
75
0
76
0
98
0
0
LWPOLYLINE
5
332
100
AcDbEntity
8
loesemethode
6
ByLayer
62
7
370
-1
100
AcDbPolyline
90
4
70
1
10
43.7000
20
-7.4000
10
45
20
-7.4000
10
45
20
-8.1500
10
43.7000
20
-8.1500
0
TEXT
5
333
100
AcDbEntity
8
loesemethode
6
ByLayer
62
7
100
AcDbText
7
Arial
10
44.3500
20
-7.7750
40
0.2700
41
0.7500
1
SP
7
Arial
72
1
11
44.3500
21
-7.7750
100
AcDbText
73
2
0
HATCH
5
334
100
AcDbEntity
8
loesemethode
6
ByLayer
62
42
100
AcDbHatch
10
0
20
0
30
0
210
0
220
0
230
1
2
SOLID
70
1
71
0
91
1
92
3
72
0
73
1
93
4
10
46.7000
20
-7.4000
10
48
20
-7.4000
10
48
20
-8.1500
10
46.7000
20
-8.1500
97
0
75
0
76
0
98
0
0
LWPOLYLINE
5
335
100
AcDbEntity
8
loesemethode
6
ByLayer
62
7
370
-1
100
AcDbPolyline
90
4
70
1
10
46.7000
20
-7.4000
10
48
20
-7.4000
10
48
20
-8.1500
10
46.7000
20
-8.1500
0
TEXT
5
336
100
AcDbEntity
8
loesemethode
6
ByLayer
62
7
100
AcDbText
7
Arial
10
47.3500
20
-7.7750
40
0.2700
41
0.7500
1
SP
7
Arial
72
1
11
47.3500
21
-7.7750
100
AcDbText
73
2
0
HATCH
5
337
100
AcDbEntity
8
loesemethode
6
ByLayer
62
42
100
AcDbHatch
10
0
20
0
30
0
210
0
220
0
230
1
2
SOLID
70
1
71
0
91
1
92
3
72
0
73
1
93
4
10
50.7000
20
-7.4000
10
52
20
-7.4000
10
52
20
-8.1500
10
50.7000
20
-8.1500
97
0
75
0
76
0
98
0
0
LWPOLYLINE
5
338
100
AcDbEntity
8
loesemethode
6
ByLayer
62
7
370
-1
100
AcDbPolyline
90
4
70
1
10
50.7000
20
-7.4000
10
52
20
-7.4000
10
52
20
-8.1500
10
50.7000
20
-8.1500
0
TEXT
5
339
100
AcDbEntity
8
loesemethode
6
ByLayer
62
7
100
AcDbText
7
Arial
10
51.3500
20
-7.7750
40
0.2700
41
0.7500
1
SP
7
Arial
72
1
11
51.3500
21
-7.7750
100
AcDbText
73
2
0
HATCH
5
33A
100
AcDbEntity
8
loesemethode
6
ByLayer
62
42
100
AcDbHatch
10
0
20
0
30
0
210
0
220
0
230
1
2
SOLID
70
1
71
0
91
1
92
3
72
0
73
1
93
4
10
54.7000
20
-7.4000
10
56
20
-7.4000
10
56
20
-8.1500
10
54.7000
20
-8.1500
97
0
75
0
76
0
98
0
0
LWPOLYLINE
5
33B
100
AcDbEntity
8
loesemethode
6
ByLayer
62
7
370
-1
100
AcDbPolyline
90
4
70
1
10
54.7000
20
-7.4000
10
56
20
-7.4000
10
56
20
-8.1500
10
54.7000
20
-8.1500
0
TEXT
5
33C
100
AcDbEntity
8
loesemethode
6
ByLayer
62
7
100
AcDbText
7
Arial
10
55.3500
20
-7.7750
40
0.2700
41
0.7500
1
SP
7
Arial
72
1
11
55.3500
21
-7.7750
100
AcDbText
73
2
0
HATCH
5
33D
100
AcDbEntity
8
loesemethode
6
ByLayer
62
42
100
AcDbHatch
10
0
20
0
30
0
210
0
220
0
230
1
2
SOLID
70
1
71
0
91
1
92
3
72
0
73
1
93
4
10
57.7000
20
-7.4000
10
59
20
-7.4000
10
59
20
-8.1500
10
57.7000
20
-8.1500
97
0
75
0
76
0
98
0
0
LWPOLYLINE
5
33E
100
AcDbEntity
8
loesemethode
6
ByLayer
62
7
370
-1
100
AcDbPolyline
90
4
70
1
10
57.7000
20
-7.4000
10
59
20
-7.4000
10
59
20
-8.1500
10
57.7000
20
-8.1500
0
TEXT
5
33F
100
AcDbEntity
8
loesemethode
6
ByLayer
62
7
100
AcDbText
7
Arial
10
58.3500
20
-7.7750
40
0.2700
41
0.7500
1
SP
7
Arial
72
1
11
58.3500
21
-7.7750
100
AcDbText
73
2
0
HATCH
5
340
100
AcDbEntity
8
loesemethode
6
ByLayer
62
42
100
AcDbHatch
10
0
20
0
30
0
210
0
220
0
230
1
2
SOLID
70
1
71
0
91
1
92
3
72
0
73
1
93
4
10
61.7000
20
-7.4000
10
63
20
-7.4000
10
63
20
-8.1500
10
61.7000
20
-8.1500
97
0
75
0
76
0
98
0
0
LWPOLYLINE
5
341
100
AcDbEntity
8
loesemethode
6
ByLayer
62
7
370
-1
100
AcDbPolyline
90
4
70
1
10
61.7000
20
-7.4000
10
63
20
-7.4000
10
63
20
-8.1500
10
61.7000
20
-8.1500
0
TEXT
5
342
100
AcDbEntity
8
loesemethode
6
ByLayer
62
7
100
AcDbText
7
Arial
10
62.3500
20
-7.7750
40
0.2700
41
0.7500
1
SP
7
Arial
72
1
11
62.3500
21
-7.7750
100
AcDbText
73
2
0
HATCH
5
343
100
AcDbEntity
8
loesemethode
6
ByLayer
62
42
100
AcDbHatch
10
0
20
0
30
0
210
0
220
0
230
1
2
SOLID
70
1
71
0
91
1
92
3
72
0
73
1
93
4
10
65.7000
20
-7.4000
10
67
20
-7.4000
10
67
20
-8.1500
10
65.7000
20
-8.1500
97
0
75
0
76
0
98
0
0
LWPOLYLINE
5
344
100
AcDbEntity
8
loesemethode
6
ByLayer
62
7
370
-1
100
AcDbPolyline
90
4
70
1
10
65.7000
20
-7.4000
10
67
20
-7.4000
10
67
20
-8.1500
10
65.7000
20
-8.1500
0
TEXT
5
345
100
AcDbEntity
8
loesemethode
6
ByLayer
62
7
100
AcDbText
7
Arial
10
66.3500
20
-7.7750
40
0.2700
41
0.7500
1
SP
7
Arial
72
1
11
66.3500
21
-7.7750
100
AcDbText
73
2
0
HATCH
5
346
100
AcDbEntity
8
loesemethode
6
ByLayer
62
42
100
AcDbHatch
10
0
20
0
30
0
210
0
220
0
230
1
2
SOLID
70
1
71
0
91
1
92
3
72
0
73
1
93
4
10
69.7000
20
-7.4000
10
71
20
-7.4000
10
71
20
-8.1500
10
69.7000
20
-8.1500
97
0
75
0
76
0
98
0
0
LWPOLYLINE
5
347
100
AcDbEntity
8
loesemethode
6
ByLayer
62
7
370
-1
100
AcDbPolyline
90
4
70
1
10
69.7000
20
-7.4000
10
71
20
-7.4000
10
71
20
-8.1500
10
69.7000
20
-8.1500
0
TEXT
5
348
100
AcDbEntity
8
loesemethode
6
ByLayer
62
7
100
AcDbText
7
Arial
10
70.3500
20
-7.7750
40
0.2700
41
0.7500
1
SP
7
Arial
72
1
11
70.3500
21
-7.7750
100
AcDbText
73
2
0
HATCH
5
349
100
AcDbEntity
8
loesemethode
6
ByLayer
62
42
100
AcDbHatch
10
0
20
0
30
0
210
0
220
0
230
1
2
SOLID
70
1
71
0
91
1
92
3
72
0
73
1
93
4
10
73.7000
20
-7.4000
10
75
20
-7.4000
10
75
20
-8.1500
10
73.7000
20
-8.1500
97
0
75
0
76
0
98
0
0
LWPOLYLINE
5
34A
100
AcDbEntity
8
loesemethode
6
ByLayer
62
7
370
-1
100
AcDbPolyline
90
4
70
1
10
73.7000
20
-7.4000
10
75
20
-7.4000
10
75
20
-8.1500
10
73.7000
20
-8.1500
0
TEXT
5
34B
100
AcDbEntity
8
loesemethode
6
ByLayer
62
7
100
AcDbText
7
Arial
10
74.3500
20
-7.7750
40
0.2700
41
0.7500
1
SP
7
Arial
72
1
11
74.3500
21
-7.7750
100
AcDbText
73
2
0
HATCH
5
34C
100
AcDbEntity
8
loesemethode
6
ByLayer
62
42
100
AcDbHatch
10
0
20
0
30
0
210
0
220
0
230
1
2
SOLID
70
1
71
0
91
1
92
3
72
0
73
1
93
4
10
77.7000
20
-7.4000
10
79
20
-7.4000
10
79
20
-8.1500
10
77.7000
20
-8.1500
97
0
75
0
76
0
98
0
0
LWPOLYLINE
5
34D
100
AcDbEntity
8
loesemethode
6
ByLayer
62
7
370
-1
100
AcDbPolyline
90
4
70
1
10
77.7000
20
-7.4000
10
79
20
-7.4000
10
79
20
-8.1500
10
77.7000
20
-8.1500
0
TEXT
5
34E
100
AcDbEntity
8
loesemethode
6
ByLayer
62
7
100
AcDbText
7
Arial
10
78.3500
20
-7.7750
40
0.2700
41
0.7500
1
SP
7
Arial
72
1
11
78.3500
21
-7.7750
100
AcDbText
73
2
0
HATCH
5
34F
100
AcDbEntity
8
loesemethode
6
ByLayer
62
42
100
AcDbHatch
10
0
20
0
30
0
210
0
220
0
230
1
2
SOLID
70
1
71
0
91
1
92
3
72
0
73
1
93
4
10
81.7000
20
-7.4000
10
83
20
-7.4000
10
83
20
-8.1500
10
81.7000
20
-8.1500
97
0
75
0
76
0
98
0
0
LWPOLYLINE
5
350
100
AcDbEntity
8
loesemethode
6
ByLayer
62
7
370
-1
100
AcDbPolyline
90
4
70
1
10
81.7000
20
-7.4000
10
83
20
-7.4000
10
83
20
-8.1500
10
81.7000
20
-8.1500
0
TEXT
5
351
100
AcDbEntity
8
loesemethode
6
ByLayer
62
7
100
AcDbText
7
Arial
10
82.3500
20
-7.7750
40
0.2700
41
0.7500
1
SP
7
Arial
72
1
11
82.3500
21
-7.7750
100
AcDbText
73
2
0
HATCH
5
352
100
AcDbEntity
8
loesemethode
6
ByLayer
62
42
100
AcDbHatch
10
0
20
0
30
0
210
0
220
0
230
1
2
SOLID
70
1
71
0
91
1
92
3
72
0
73
1
93
4
10
85.7000
20
-7.4000
10
87
20
-7.4000
10
87
20
-8.1500
10
85.7000
20
-8.1500
97
0
75
0
76
0
98
0
0
LWPOLYLINE
5
353
100
AcDbEntity
8
loesemethode
6
ByLayer
62
7
370
-1
100
AcDbPolyline
90
4
70
1
10
85.7000
20
-7.4000
10
87
20
-7.4000
10
87
20
-8.1500
10
85.7000
20
-8.1500
0
TEXT
5
354
100
AcDbEntity
8
loesemethode
6
ByLayer
62
7
100
AcDbText
7
Arial
10
86.3500
20
-7.7750
40
0.2700
41
0.7500
1
SP
7
Arial
72
1
11
86.3500
21
-7.7750
100
AcDbText
73
2
0
HATCH
5
355
100
AcDbEntity
8
loesemethode
6
ByLayer
62
42
100
AcDbHatch
10
0
20
0
30
0
210
0
220
0
230
1
2
SOLID
70
1
71
0
91
1
92
3
72
0
73
1
93
4
10
89.7000
20
-7.4000
10
91
20
-7.4000
10
91
20
-8.1500
10
89.7000
20
-8.1500
97
0
75
0
76
0
98
0
0
LWPOLYLINE
5
356
100
AcDbEntity
8
loesemethode
6
ByLayer
62
7
370
-1
100
AcDbPolyline
90
4
70
1
10
89.7000
20
-7.4000
10
91
20
-7.4000
10
91
20
-8.1500
10
89.7000
20
-8.1500
0
TEXT
5
357
100
AcDbEntity
8
loesemethode
6
ByLayer
62
7
100
AcDbText
7
Arial
10
90.3500
20
-7.7750
40
0.2700
41
0.7500
1
SP
7
Arial
72
1
11
90.3500
21
-7.7750
100
AcDbText
73
2
0
HATCH
5
358
100
AcDbEntity
8
loesemethode
6
ByLayer
62
42
100
AcDbHatch
10
0
20
0
30
0
210
0
220
0
230
1
2
SOLID
70
1
71
0
91
1
92
3
72
0
73
1
93
4
10
93.7000
20
-7.4000
10
95
20
-7.4000
10
95
20
-8.1500
10
93.7000
20
-8.1500
97
0
75
0
76
0
98
0
0
LWPOLYLINE
5
359
100
AcDbEntity
8
loesemethode
6
ByLayer
62
7
370
-1
100
AcDbPolyline
90
4
70
1
10
93.7000
20
-7.4000
10
95
20
-7.4000
10
95
20
-8.1500
10
93.7000
20
-8.1500
0
TEXT
5
35A
100
AcDbEntity
8
loesemethode
6
ByLayer
62
7
100
AcDbText
7
Arial
10
94.3500
20
-7.7750
40
0.2700
41
0.7500
1
SP
7
Arial
72
1
11
94.3500
21
-7.7750
100
AcDbText
73
2
0
HATCH
5
35B
100
AcDbEntity
8
loesemethode
6
ByLayer
62
42
100
AcDbHatch
10
0
20
0
30
0
210
0
220
0
230
1
2
SOLID
70
1
71
0
91
1
92
3
72
0
73
1
93
4
10
95
20
-7.4000
10
96.3000
20
-7.4000
10
96.3000
20
-8.1500
10
95
20
-8.1500
97
0
75
0
76
0
98
0
0
LWPOLYLINE
5
35C
100
AcDbEntity
8
loesemethode
6
ByLayer
62
7
370
-1
100
AcDbPolyline
90
4
70
1
10
95
20
-7.4000
10
96.3000
20
-7.4000
10
96.3000
20
-8.1500
10
95
20
-8.1500
0
TEXT
5
35D
100
AcDbEntity
8
loesemethode
6
ByLayer
62
7
100
AcDbText
7
Arial
10
95.6500
20
-7.7750
40
0.2700
41
0.7500
1
SP
7
Arial
72
1
11
95.6500
21
-7.7750
100
AcDbText
73
2
0
HATCH
5
35E
100
AcDbEntity
8
loesemethode
6
ByLayer
62
42
100
AcDbHatch
10
0
20
0
30
0
210
0
220
0
230
1
2
SOLID
70
1
71
0
91
1
92
3
72
0
73
1
93
4
10
96.3000
20
-7.4000
10
97.6000
20
-7.4000
10
97.6000
20
-8.1500
10
96.3000
20
-8.1500
97
0
75
0
76
0
98
0
0
LWPOLYLINE
5
35F
100
AcDbEntity
8
loesemethode
6
ByLayer
62
7
370
-1
100
AcDbPolyline
90
4
70
1
10
96.3000
20
-7.4000
10
97.6000
20
-7.4000
10
97.6000
20
-8.1500
10
96.3000
20
-8.1500
0
TEXT
5
360
100
AcDbEntity
8
loesemethode
6
ByLayer
62
7
100
AcDbText
7
Arial
10
96.9500
20
-7.7750
40
0.2700
41
0.7500
1
SP
7
Arial
72
1
11
96.9500
21
-7.7750
100
AcDbText
73
2
0
HATCH
5
361
100
AcDbEntity
8
loesemethode
6
ByLayer
62
42
100
AcDbHatch
10
0
20
0
30
0
210
0
220
0
230
1
2
SOLID
70
1
71
0
91
1
92
3
72
0
73
1
93
4
10
97.6000
20
-7.4000
10
98.9000
20
-7.4000
10
98.9000
20
-8.1500
10
97.6000
20
-8.1500
97
0
75
0
76
0
98
0
0
LWPOLYLINE
5
362
100
AcDbEntity
8
loesemethode
6
ByLayer
62
7
370
-1
100
AcDbPolyline
90
4
70
1
10
97.6000
20
-7.4000
10
98.9000
20
-7.4000
10
98.9000
20
-8.1500
10
97.6000
20
-8.1500
0
TEXT
5
363
100
AcDbEntity
8
loesemethode
6
ByLayer
62
7
100
AcDbText
7
Arial
10
98.2500
20
-7.7750
40
0.2700
41
0.7500
1
SP
7
Arial
72
1
11
98.2500
21
-7.7750
100
AcDbText
73
2
0
HATCH
5
364
100
AcDbEntity
8
loesemethode
6
ByLayer
62
42
100
AcDbHatch
10
0
20
0
30
0
210
0
220
0
230
1
2
SOLID
70
1
71
0
91
1
92
3
72
0
73
1
93
4
10
98.7000
20
-7.4000
10
100
20
-7.4000
10
100
20
-8.1500
10
98.7000
20
-8.1500
97
0
75
0
76
0
98
0
0
LWPOLYLINE
5
365
100
AcDbEntity
8
loesemethode
6
ByLayer
62
7
370
-1
100
AcDbPolyline
90
4
70
1
10
98.7000
20
-7.4000
10
100
20
-7.4000
10
100
20
-8.1500
10
98.7000
20
-8.1500
0
TEXT
5
366
100
AcDbEntity
8
loesemethode
6
ByLayer
62
7
100
AcDbText
7
Arial
10
99.3500
20
-7.7750
40
0.2700
41
0.7500
1
SP
7
Arial
72
1
11
99.3500
21
-7.7750
100
AcDbText
73
2
0
LINE
5
367
100
AcDbEntity
8
loesemethode
6
ByLayer
62
256
370
-1
100
AcDbLine
10
0
20
-8.1500
11
100
21
-8.1500
0
LINE
5
368
100
AcDbEntity
8
loesemethode
6
ByLayer
62
256
370
-1
100
AcDbLine
10
0
20
-8.9000
11
100
21
-8.9000
0
LINE
5
369
100
AcDbEntity
8
loesemethode
6
ByLayer
62
256
370
-1
100
AcDbLine
10
0
20
-9.6500
11
100
21
-9.6500
0
LWPOLYLINE
5
36A
100
AcDbEntity
8
loesemethode
6
ByLayer
62
7
370
30
100
AcDbPolyline
90
4
70
1
10
105.2000
20
-7.4000
10
110.7000
20
-7.4000
10
110.7000
20
-9.6500
10
105.2000
20
-9.6500
0
LWPOLYLINE
5
36B
100
AcDbEntity
8
loesemethode
6
ByLayer
62
7
370
30
100
AcDbPolyline
90
4
70
1
10
100
20
-7.4000
10
105.2000
20
-7.4000
10
105.2000
20
-9.6500
10
100
20
-9.6500
0
TEXT
5
36C
100
AcDbEntity
8
loesemethode
6
ByLayer
62
7
100
AcDbText
7
Arial
10
110.5000
20
-8.5250
40
0.4500
41
0.7500
1
Lösemethode
7
Arial
72
2
11
110.5000
21
-8.5250
100
AcDbText
73
2
0
TEXT
5
36D
100
AcDbEntity
8
loesemethode
6
ByLayer
62
7
100
AcDbText
7
Arial
10
100.2000
20
-7.7750
40
0.2700
41
0.7500
1
Sprengen
7
Arial
11
100.2000
21
-7.7750
100
AcDbText
73
2
0
LINE
5
36E
100
AcDbEntity
8
loesemethode
6
ByLayer
62
256
370
-1
100
AcDbLine
10
100
20
-8.1500
11
105.2000
21
-8.1500
0
TEXT
5
36F
100
AcDbEntity
8
loesemethode
6
ByLayer
62
7
100
AcDbText
7
Arial
10
100.2000
20
-8.5250
40
0.2700
41
0.7500
1
Bagger
7
Arial
11
100.2000
21
-8.5250
100
AcDbText
73
2
0
LINE
5
370
100
AcDbEntity
8
loesemethode
6
ByLayer
62
256
370
-1
100
AcDbLine
10
100
20
-8.9000
11
105.2000
21
-8.9000
0
TEXT
5
371
100
AcDbEntity
8
loesemethode
6
ByLayer
62
7
100
AcDbText
7
Arial
10
100.2000
20
-9.2750
40
0.2700
41
0.7500
1
Hyprid
7
Arial
11
100.2000
21
-9.2750
100
AcDbText
73
2
0
LINE
5
372
100
AcDbEntity
8
loesemethode
6
ByLayer
62
256
370
-1
100
AcDbLine
10
100
20
-9.6500
11
105.2000
21
-9.6500
0
LWPOLYLINE
5
373
100
AcDbEntity
8
loesemethode
6
ByLayer
62
7
370
30
100
AcDbPolyline
90
4
70
1
10
0
20
-7.4000
10
100
20
-7.4000
10
100
20
-9.6500
10
0
20
-9.6500
0
LWPOLYLINE
5
375
100
AcDbEntity
8
profilmasshaltigkeit
6
ByLayer
62
7
370
30
100
AcDbPolyline
90
4
70
1
10
-10.7000
20
-9.6500
10
-5.2000
20
-9.6500
10
-5.2000
20
-11.9000
10
-10.7000
20
-11.9000
0
LWPOLYLINE
5
376
100
AcDbEntity
8
profilmasshaltigkeit
6
ByLayer
62
7
370
30
100
AcDbPolyline
90
4
70
1
10
-5.2000
20
-9.6500
10
0
20
-9.6500
10
0
20
-11.9000
10
-5.2000
20
-11.9000
0
TEXT
5
377
100
AcDbEntity
8
profilmasshaltigkeit
6
ByLayer
62
7
100
AcDbText
7
Arial
10
-10.5000
20
-10.7750
40
0.4500
41
0.7500
1
Profilmasshaltigkeit
7
Arial
11
-10.5000
21
-10.7750
100
AcDbText
73
2
0
TEXT
5
378
100
AcDbEntity
8
profilmasshaltigkeit
6
ByLayer
62
7
100
AcDbText
7
Arial
10
-0.2000
20
-10.0250
40
0.2700
41
0.7500
1
Profilmasshaltigkeit1
7
Arial
72
2
11
-0.2000
21
-10.0250
100
AcDbText
73
2
0
LINE
5
379
100
AcDbEntity
8
profilmasshaltigkeit
6
ByLayer
62
256
370
-1
100
AcDbLine
10
-5.2000
20
-10.4000
11
0
21
-10.4000
0
TEXT
5
37A
100
AcDbEntity
8
profilmasshaltigkeit
6
ByLayer
62
7
100
AcDbText
7
Arial
10
-0.2000
20
-10.7750
40
0.2700
41
0.7500
1
Profilmasshaltigkeit2
7
Arial
72
2
11
-0.2000
21
-10.7750
100
AcDbText
73
2
0
LINE
5
37B
100
AcDbEntity
8
profilmasshaltigkeit
6
ByLayer
62
256
370
-1
100
AcDbLine
10
-5.2000
20
-11.1500
11
0
21
-11.1500
0
TEXT
5
37C
100
AcDbEntity
8
profilmasshaltigkeit
6
ByLayer
62
7
100
AcDbText
7
Arial
10
-0.2000
20
-11.5250
40
0.2700
41
0.7500
1
Profilmasshaltigkeit3
7
Arial
72
2
11
-0.2000
21
-11.5250
100
AcDbText
73
2
0
LINE
5
37D
100
AcDbEntity
8
profilmasshaltigkeit
6
ByLayer
62
256
370
-1
100
AcDbLine
10
-5.2000
20
-11.9000
11
0
21
-11.9000
0
HATCH
5
37E
100
AcDbEntity
8
profilmasshaltigkeit
6
ByLayer
62
3
100
AcDbHatch
10
0
20
0
30
0
210
0
220
0
230
1
2
SOLID
70
1
71
0
91
1
92
3
72
0
73
1
93
4
10
-0.3000
20
-9.6500
10
1
20
-9.6500
10
1
20
-10.4000
10
-0.3000
20
-10.4000
97
0
75
0
76
0
98
0
0
LWPOLYLINE
5
37F
100
AcDbEntity
8
profilmasshaltigkeit
6
ByLayer
62
7
370
-1
100
AcDbPolyline
90
4
70
1
10
-0.3000
20
-9.6500
10
1
20
-9.6500
10
1
20
-10.4000
10
-0.3000
20
-10.4000
0
TEXT
5
380
100
AcDbEntity
8
profilmasshaltigkeit
6
ByLayer
62
7
100
AcDbText
7
Arial
10
0.3500
20
-10.0250
40
0.2700
41
0.7500
1
Prof1
7
Arial
72
1
11
0.3500
21
-10.0250
100
AcDbText
73
2
0
HATCH
5
381
100
AcDbEntity
8
profilmasshaltigkeit
6
ByLayer
62
3
100
AcDbHatch
10
0
20
0
30
0
210
0
220
0
230
1
2
SOLID
70
1
71
0
91
1
92
3
72
0
73
1
93
4
10
5.7000
20
-9.6500
10
6.9999
20
-9.6500
10
6.9999
20
-10.4000
10
5.7000
20
-10.4000
97
0
75
0
76
0
98
0
0
LWPOLYLINE
5
382
100
AcDbEntity
8
profilmasshaltigkeit
6
ByLayer
62
7
370
-1
100
AcDbPolyline
90
4
70
1
10
5.7000
20
-9.6500
10
6.9999
20
-9.6500
10
6.9999
20
-10.4000
10
5.7000
20
-10.4000
0
TEXT
5
383
100
AcDbEntity
8
profilmasshaltigkeit
6
ByLayer
62
7
100
AcDbText
7
Arial
10
6.3500
20
-10.0250
40
0.2700
41
0.7500
1
Prof1
7
Arial
72
1
11
6.3500
21
-10.0250
100
AcDbText
73
2
0
HATCH
5
384
100
AcDbEntity
8
profilmasshaltigkeit
6
ByLayer
62
3
100
AcDbHatch
10
0
20
0
30
0
210
0
220
0
230
1
2
SOLID
70
1
71
0
91
1
92
3
72
0
73
1
93
4
10
10.7000
20
-9.6500
10
12
20
-9.6500
10
12
20
-10.4000
10
10.7000
20
-10.4000
97
0
75
0
76
0
98
0
0
LWPOLYLINE
5
385
100
AcDbEntity
8
profilmasshaltigkeit
6
ByLayer
62
7
370
-1
100
AcDbPolyline
90
4
70
1
10
10.7000
20
-9.6500
10
12
20
-9.6500
10
12
20
-10.4000
10
10.7000
20
-10.4000
0
TEXT
5
386
100
AcDbEntity
8
profilmasshaltigkeit
6
ByLayer
62
7
100
AcDbText
7
Arial
10
11.3500
20
-10.0250
40
0.2700
41
0.7500
1
Prof1
7
Arial
72
1
11
11.3500
21
-10.0250
100
AcDbText
73
2
0
HATCH
5
387
100
AcDbEntity
8
profilmasshaltigkeit
6
ByLayer
62
3
100
AcDbHatch
10
0
20
0
30
0
210
0
220
0
230
1
2
SOLID
70
1
71
0
91
1
92
3
72
0
73
1
93
4
10
15.7000
20
-9.6500
10
17
20
-9.6500
10
17
20
-10.4000
10
15.7000
20
-10.4000
97
0
75
0
76
0
98
0
0
LWPOLYLINE
5
388
100
AcDbEntity
8
profilmasshaltigkeit
6
ByLayer
62
7
370
-1
100
AcDbPolyline
90
4
70
1
10
15.7000
20
-9.6500
10
17
20
-9.6500
10
17
20
-10.4000
10
15.7000
20
-10.4000
0
TEXT
5
389
100
AcDbEntity
8
profilmasshaltigkeit
6
ByLayer
62
7
100
AcDbText
7
Arial
10
16.3500
20
-10.0250
40
0.2700
41
0.7500
1
Prof1
7
Arial
72
1
11
16.3500
21
-10.0250
100
AcDbText
73
2
0
HATCH
5
38A
100
AcDbEntity
8
profilmasshaltigkeit
6
ByLayer
62
3
100
AcDbHatch
10
0
20
0
30
0
210
0
220
0
230
1
2
SOLID
70
1
71
0
91
1
92
3
72
0
73
1
93
4
10
20.7000
20
-9.6500
10
22
20
-9.6500
10
22
20
-10.4000
10
20.7000
20
-10.4000
97
0
75
0
76
0
98
0
0
LWPOLYLINE
5
38B
100
AcDbEntity
8
profilmasshaltigkeit
6
ByLayer
62
7
370
-1
100
AcDbPolyline
90
4
70
1
10
20.7000
20
-9.6500
10
22
20
-9.6500
10
22
20
-10.4000
10
20.7000
20
-10.4000
0
TEXT
5
38C
100
AcDbEntity
8
profilmasshaltigkeit
6
ByLayer
62
7
100
AcDbText
7
Arial
10
21.3500
20
-10.0250
40
0.2700
41
0.7500
1
Prof1
7
Arial
72
1
11
21.3500
21
-10.0250
100
AcDbText
73
2
0
HATCH
5
38D
100
AcDbEntity
8
profilmasshaltigkeit
6
ByLayer
62
3
100
AcDbHatch
10
0
20
0
30
0
210
0
220
0
230
1
2
SOLID
70
1
71
0
91
1
92
3
72
0
73
1
93
4
10
23.7000
20
-9.6500
10
25
20
-9.6500
10
25
20
-10.4000
10
23.7000
20
-10.4000
97
0
75
0
76
0
98
0
0
LWPOLYLINE
5
38E
100
AcDbEntity
8
profilmasshaltigkeit
6
ByLayer
62
7
370
-1
100
AcDbPolyline
90
4
70
1
10
23.7000
20
-9.6500
10
25
20
-9.6500
10
25
20
-10.4000
10
23.7000
20
-10.4000
0
TEXT
5
38F
100
AcDbEntity
8
profilmasshaltigkeit
6
ByLayer
62
7
100
AcDbText
7
Arial
10
24.3500
20
-10.0250
40
0.2700
41
0.7500
1
Prof1
7
Arial
72
1
11
24.3500
21
-10.0250
100
AcDbText
73
2
0
HATCH
5
390
100
AcDbEntity
8
profilmasshaltigkeit
6
ByLayer
62
3
100
AcDbHatch
10
0
20
0
30
0
210
0
220
0
230
1
2
SOLID
70
1
71
0
91
1
92
3
72
0
73
1
93
4
10
27.7000
20
-9.6500
10
29
20
-9.6500
10
29
20
-10.4000
10
27.7000
20
-10.4000
97
0
75
0
76
0
98
0
0
LWPOLYLINE
5
391
100
AcDbEntity
8
profilmasshaltigkeit
6
ByLayer
62
7
370
-1
100
AcDbPolyline
90
4
70
1
10
27.7000
20
-9.6500
10
29
20
-9.6500
10
29
20
-10.4000
10
27.7000
20
-10.4000
0
TEXT
5
392
100
AcDbEntity
8
profilmasshaltigkeit
6
ByLayer
62
7
100
AcDbText
7
Arial
10
28.3500
20
-10.0250
40
0.2700
41
0.7500
1
Prof1
7
Arial
72
1
11
28.3500
21
-10.0250
100
AcDbText
73
2
0
HATCH
5
393
100
AcDbEntity
8
profilmasshaltigkeit
6
ByLayer
62
3
100
AcDbHatch
10
0
20
0
30
0
210
0
220
0
230
1
2
SOLID
70
1
71
0
91
1
92
3
72
0
73
1
93
4
10
31.7000
20
-9.6500
10
33
20
-9.6500
10
33
20
-10.4000
10
31.7000
20
-10.4000
97
0
75
0
76
0
98
0
0
LWPOLYLINE
5
394
100
AcDbEntity
8
profilmasshaltigkeit
6
ByLayer
62
7
370
-1
100
AcDbPolyline
90
4
70
1
10
31.7000
20
-9.6500
10
33
20
-9.6500
10
33
20
-10.4000
10
31.7000
20
-10.4000
0
TEXT
5
395
100
AcDbEntity
8
profilmasshaltigkeit
6
ByLayer
62
7
100
AcDbText
7
Arial
10
32.3500
20
-10.0250
40
0.2700
41
0.7500
1
Prof1
7
Arial
72
1
11
32.3500
21
-10.0250
100
AcDbText
73
2
0
HATCH
5
396
100
AcDbEntity
8
profilmasshaltigkeit
6
ByLayer
62
3
100
AcDbHatch
10
0
20
0
30
0
210
0
220
0
230
1
2
SOLID
70
1
71
0
91
1
92
3
72
0
73
1
93
4
10
35.7000
20
-9.6500
10
37
20
-9.6500
10
37
20
-10.4000
10
35.7000
20
-10.4000
97
0
75
0
76
0
98
0
0
LWPOLYLINE
5
397
100
AcDbEntity
8
profilmasshaltigkeit
6
ByLayer
62
7
370
-1
100
AcDbPolyline
90
4
70
1
10
35.7000
20
-9.6500
10
37
20
-9.6500
10
37
20
-10.4000
10
35.7000
20
-10.4000
0
TEXT
5
398
100
AcDbEntity
8
profilmasshaltigkeit
6
ByLayer
62
7
100
AcDbText
7
Arial
10
36.3500
20
-10.0250
40
0.2700
41
0.7500
1
Prof1
7
Arial
72
1
11
36.3500
21
-10.0250
100
AcDbText
73
2
0
HATCH
5
399
100
AcDbEntity
8
profilmasshaltigkeit
6
ByLayer
62
3
100
AcDbHatch
10
0
20
0
30
0
210
0
220
0
230
1
2
SOLID
70
1
71
0
91
1
92
3
72
0
73
1
93
4
10
38.7000
20
-9.6500
10
40
20
-9.6500
10
40
20
-10.4000
10
38.7000
20
-10.4000
97
0
75
0
76
0
98
0
0
LWPOLYLINE
5
39A
100
AcDbEntity
8
profilmasshaltigkeit
6
ByLayer
62
7
370
-1
100
AcDbPolyline
90
4
70
1
10
38.7000
20
-9.6500
10
40
20
-9.6500
10
40
20
-10.4000
10
38.7000
20
-10.4000
0
TEXT
5
39B
100
AcDbEntity
8
profilmasshaltigkeit
6
ByLayer
62
7
100
AcDbText
7
Arial
10
39.3500
20
-10.0250
40
0.2700
41
0.7500
1
Prof1
7
Arial
72
1
11
39.3500
21
-10.0250
100
AcDbText
73
2
0
HATCH
5
39C
100
AcDbEntity
8
profilmasshaltigkeit
6
ByLayer
62
3
100
AcDbHatch
10
0
20
0
30
0
210
0
220
0
230
1
2
SOLID
70
1
71
0
91
1
92
3
72
0
73
1
93
4
10
43.7000
20
-9.6500
10
45
20
-9.6500
10
45
20
-10.4000
10
43.7000
20
-10.4000
97
0
75
0
76
0
98
0
0
LWPOLYLINE
5
39D
100
AcDbEntity
8
profilmasshaltigkeit
6
ByLayer
62
7
370
-1
100
AcDbPolyline
90
4
70
1
10
43.7000
20
-9.6500
10
45
20
-9.6500
10
45
20
-10.4000
10
43.7000
20
-10.4000
0
TEXT
5
39E
100
AcDbEntity
8
profilmasshaltigkeit
6
ByLayer
62
7
100
AcDbText
7
Arial
10
44.3500
20
-10.0250
40
0.2700
41
0.7500
1
Prof1
7
Arial
72
1
11
44.3500
21
-10.0250
100
AcDbText
73
2
0
HATCH
5
39F
100
AcDbEntity
8
profilmasshaltigkeit
6
ByLayer
62
3
100
AcDbHatch
10
0
20
0
30
0
210
0
220
0
230
1
2
SOLID
70
1
71
0
91
1
92
3
72
0
73
1
93
4
10
46.7000
20
-9.6500
10
48
20
-9.6500
10
48
20
-10.4000
10
46.7000
20
-10.4000
97
0
75
0
76
0
98
0
0
LWPOLYLINE
5
3A0
100
AcDbEntity
8
profilmasshaltigkeit
6
ByLayer
62
7
370
-1
100
AcDbPolyline
90
4
70
1
10
46.7000
20
-9.6500
10
48
20
-9.6500
10
48
20
-10.4000
10
46.7000
20
-10.4000
0
TEXT
5
3A1
100
AcDbEntity
8
profilmasshaltigkeit
6
ByLayer
62
7
100
AcDbText
7
Arial
10
47.3500
20
-10.0250
40
0.2700
41
0.7500
1
Prof1
7
Arial
72
1
11
47.3500
21
-10.0250
100
AcDbText
73
2
0
HATCH
5
3A2
100
AcDbEntity
8
profilmasshaltigkeit
6
ByLayer
62
3
100
AcDbHatch
10
0
20
0
30
0
210
0
220
0
230
1
2
SOLID
70
1
71
0
91
1
92
3
72
0
73
1
93
4
10
50.7000
20
-9.6500
10
52
20
-9.6500
10
52
20
-10.4000
10
50.7000
20
-10.4000
97
0
75
0
76
0
98
0
0
LWPOLYLINE
5
3A3
100
AcDbEntity
8
profilmasshaltigkeit
6
ByLayer
62
7
370
-1
100
AcDbPolyline
90
4
70
1
10
50.7000
20
-9.6500
10
52
20
-9.6500
10
52
20
-10.4000
10
50.7000
20
-10.4000
0
TEXT
5
3A4
100
AcDbEntity
8
profilmasshaltigkeit
6
ByLayer
62
7
100
AcDbText
7
Arial
10
51.3500
20
-10.0250
40
0.2700
41
0.7500
1
Prof1
7
Arial
72
1
11
51.3500
21
-10.0250
100
AcDbText
73
2
0
HATCH
5
3A5
100
AcDbEntity
8
profilmasshaltigkeit
6
ByLayer
62
3
100
AcDbHatch
10
0
20
0
30
0
210
0
220
0
230
1
2
SOLID
70
1
71
0
91
1
92
3
72
0
73
1
93
4
10
54.7000
20
-9.6500
10
56
20
-9.6500
10
56
20
-10.4000
10
54.7000
20
-10.4000
97
0
75
0
76
0
98
0
0
LWPOLYLINE
5
3A6
100
AcDbEntity
8
profilmasshaltigkeit
6
ByLayer
62
7
370
-1
100
AcDbPolyline
90
4
70
1
10
54.7000
20
-9.6500
10
56
20
-9.6500
10
56
20
-10.4000
10
54.7000
20
-10.4000
0
TEXT
5
3A7
100
AcDbEntity
8
profilmasshaltigkeit
6
ByLayer
62
7
100
AcDbText
7
Arial
10
55.3500
20
-10.0250
40
0.2700
41
0.7500
1
Prof1
7
Arial
72
1
11
55.3500
21
-10.0250
100
AcDbText
73
2
0
HATCH
5
3A8
100
AcDbEntity
8
profilmasshaltigkeit
6
ByLayer
62
3
100
AcDbHatch
10
0
20
0
30
0
210
0
220
0
230
1
2
SOLID
70
1
71
0
91
1
92
3
72
0
73
1
93
4
10
61.7000
20
-9.6500
10
63
20
-9.6500
10
63
20
-10.4000
10
61.7000
20
-10.4000
97
0
75
0
76
0
98
0
0
LWPOLYLINE
5
3A9
100
AcDbEntity
8
profilmasshaltigkeit
6
ByLayer
62
7
370
-1
100
AcDbPolyline
90
4
70
1
10
61.7000
20
-9.6500
10
63
20
-9.6500
10
63
20
-10.4000
10
61.7000
20
-10.4000
0
TEXT
5
3AA
100
AcDbEntity
8
profilmasshaltigkeit
6
ByLayer
62
7
100
AcDbText
7
Arial
10
62.3500
20
-10.0250
40
0.2700
41
0.7500
1
Prof1
7
Arial
72
1
11
62.3500
21
-10.0250
100
AcDbText
73
2
0
HATCH
5
3AB
100
AcDbEntity
8
profilmasshaltigkeit
6
ByLayer
62
3
100
AcDbHatch
10
0
20
0
30
0
210
0
220
0
230
1
2
SOLID
70
1
71
0
91
1
92
3
72
0
73
1
93
4
10
65.7000
20
-9.6500
10
67
20
-9.6500
10
67
20
-10.4000
10
65.7000
20
-10.4000
97
0
75
0
76
0
98
0
0
LWPOLYLINE
5
3AC
100
AcDbEntity
8
profilmasshaltigkeit
6
ByLayer
62
7
370
-1
100
AcDbPolyline
90
4
70
1
10
65.7000
20
-9.6500
10
67
20
-9.6500
10
67
20
-10.4000
10
65.7000
20
-10.4000
0
TEXT
5
3AD
100
AcDbEntity
8
profilmasshaltigkeit
6
ByLayer
62
7
100
AcDbText
7
Arial
10
66.3500
20
-10.0250
40
0.2700
41
0.7500
1
Prof1
7
Arial
72
1
11
66.3500
21
-10.0250
100
AcDbText
73
2
0
HATCH
5
3AE
100
AcDbEntity
8
profilmasshaltigkeit
6
ByLayer
62
3
100
AcDbHatch
10
0
20
0
30
0
210
0
220
0
230
1
2
SOLID
70
1
71
0
91
1
92
3
72
0
73
1
93
4
10
69.7000
20
-9.6500
10
71
20
-9.6500
10
71
20
-10.4000
10
69.7000
20
-10.4000
97
0
75
0
76
0
98
0
0
LWPOLYLINE
5
3AF
100
AcDbEntity
8
profilmasshaltigkeit
6
ByLayer
62
7
370
-1
100
AcDbPolyline
90
4
70
1
10
69.7000
20
-9.6500
10
71
20
-9.6500
10
71
20
-10.4000
10
69.7000
20
-10.4000
0
TEXT
5
3B0
100
AcDbEntity
8
profilmasshaltigkeit
6
ByLayer
62
7
100
AcDbText
7
Arial
10
70.3500
20
-10.0250
40
0.2700
41
0.7500
1
Prof1
7
Arial
72
1
11
70.3500
21
-10.0250
100
AcDbText
73
2
0
HATCH
5
3B1
100
AcDbEntity
8
profilmasshaltigkeit
6
ByLayer
62
3
100
AcDbHatch
10
0
20
0
30
0
210
0
220
0
230
1
2
SOLID
70
1
71
0
91
1
92
3
72
0
73
1
93
4
10
73.7000
20
-9.6500
10
75
20
-9.6500
10
75
20
-10.4000
10
73.7000
20
-10.4000
97
0
75
0
76
0
98
0
0
LWPOLYLINE
5
3B2
100
AcDbEntity
8
profilmasshaltigkeit
6
ByLayer
62
7
370
-1
100
AcDbPolyline
90
4
70
1
10
73.7000
20
-9.6500
10
75
20
-9.6500
10
75
20
-10.4000
10
73.7000
20
-10.4000
0
TEXT
5
3B3
100
AcDbEntity
8
profilmasshaltigkeit
6
ByLayer
62
7
100
AcDbText
7
Arial
10
74.3500
20
-10.0250
40
0.2700
41
0.7500
1
Prof1
7
Arial
72
1
11
74.3500
21
-10.0250
100
AcDbText
73
2
0
HATCH
5
3B4
100
AcDbEntity
8
profilmasshaltigkeit
6
ByLayer
62
3
100
AcDbHatch
10
0
20
0
30
0
210
0
220
0
230
1
2
SOLID
70
1
71
0
91
1
92
3
72
0
73
1
93
4
10
96.3000
20
-9.6500
10
97.6000
20
-9.6500
10
97.6000
20
-10.4000
10
96.3000
20
-10.4000
97
0
75
0
76
0
98
0
0
LWPOLYLINE
5
3B5
100
AcDbEntity
8
profilmasshaltigkeit
6
ByLayer
62
7
370
-1
100
AcDbPolyline
90
4
70
1
10
96.3000
20
-9.6500
10
97.6000
20
-9.6500
10
97.6000
20
-10.4000
10
96.3000
20
-10.4000
0
TEXT
5
3B6
100
AcDbEntity
8
profilmasshaltigkeit
6
ByLayer
62
7
100
AcDbText
7
Arial
10
96.9500
20
-10.0250
40
0.2700
41
0.7500
1
Prof1
7
Arial
72
1
11
96.9500
21
-10.0250
100
AcDbText
73
2
0
HATCH
5
3B7
100
AcDbEntity
8
profilmasshaltigkeit
6
ByLayer
62
3
100
AcDbHatch
10
0
20
0
30
0
210
0
220
0
230
1
2
SOLID
70
1
71
0
91
1
92
3
72
0
73
1
93
4
10
97.6000
20
-9.6500
10
98.9000
20
-9.6500
10
98.9000
20
-10.4000
10
97.6000
20
-10.4000
97
0
75
0
76
0
98
0
0
LWPOLYLINE
5
3B8
100
AcDbEntity
8
profilmasshaltigkeit
6
ByLayer
62
7
370
-1
100
AcDbPolyline
90
4
70
1
10
97.6000
20
-9.6500
10
98.9000
20
-9.6500
10
98.9000
20
-10.4000
10
97.6000
20
-10.4000
0
TEXT
5
3B9
100
AcDbEntity
8
profilmasshaltigkeit
6
ByLayer
62
7
100
AcDbText
7
Arial
10
98.2500
20
-10.0250
40
0.2700
41
0.7500
1
Prof1
7
Arial
72
1
11
98.2500
21
-10.0250
100
AcDbText
73
2
0
HATCH
5
3BA
100
AcDbEntity
8
profilmasshaltigkeit
6
ByLayer
62
3
100
AcDbHatch
10
0
20
0
30
0
210
0
220
0
230
1
2
SOLID
70
1
71
0
91
1
92
3
72
0
73
1
93
4
10
98.7000
20
-9.6500
10
100
20
-9.6500
10
100
20
-10.4000
10
98.7000
20
-10.4000
97
0
75
0
76
0
98
0
0
LWPOLYLINE
5
3BB
100
AcDbEntity
8
profilmasshaltigkeit
6
ByLayer
62
7
370
-1
100
AcDbPolyline
90
4
70
1
10
98.7000
20
-9.6500
10
100
20
-9.6500
10
100
20
-10.4000
10
98.7000
20
-10.4000
0
TEXT
5
3BC
100
AcDbEntity
8
profilmasshaltigkeit
6
ByLayer
62
7
100
AcDbText
7
Arial
10
99.3500
20
-10.0250
40
0.2700
41
0.7500
1
Prof1
7
Arial
72
1
11
99.3500
21
-10.0250
100
AcDbText
73
2
0
LINE
5
3BD
100
AcDbEntity
8
profilmasshaltigkeit
6
ByLayer
62
256
370
-1
100
AcDbLine
10
0
20
-10.4000
11
100
21
-10.4000
0
HATCH
5
3BE
100
AcDbEntity
8
profilmasshaltigkeit
6
ByLayer
62
3
100
AcDbHatch
10
0
20
0
30
0
210
0
220
0
230
1
2
SOLID
70
1
71
0
91
1
92
3
72
0
73
1
93
4
10
57.7000
20
-10.4000
10
59
20
-10.4000
10
59
20
-11.1500
10
57.7000
20
-11.1500
97
0
75
0
76
0
98
0
0
LWPOLYLINE
5
3BF
100
AcDbEntity
8
profilmasshaltigkeit
6
ByLayer
62
7
370
-1
100
AcDbPolyline
90
4
70
1
10
57.7000
20
-10.4000
10
59
20
-10.4000
10
59
20
-11.1500
10
57.7000
20
-11.1500
0
TEXT
5
3C0
100
AcDbEntity
8
profilmasshaltigkeit
6
ByLayer
62
7
100
AcDbText
7
Arial
10
58.3500
20
-10.7750
40
0.2700
41
0.7500
1
Prof2
7
Arial
72
1
11
58.3500
21
-10.7750
100
AcDbText
73
2
0
HATCH
5
3C1
100
AcDbEntity
8
profilmasshaltigkeit
6
ByLayer
62
3
100
AcDbHatch
10
0
20
0
30
0
210
0
220
0
230
1
2
SOLID
70
1
71
0
91
1
92
3
72
0
73
1
93
4
10
77.7000
20
-10.4000
10
79
20
-10.4000
10
79
20
-11.1500
10
77.7000
20
-11.1500
97
0
75
0
76
0
98
0
0
LWPOLYLINE
5
3C2
100
AcDbEntity
8
profilmasshaltigkeit
6
ByLayer
62
7
370
-1
100
AcDbPolyline
90
4
70
1
10
77.7000
20
-10.4000
10
79
20
-10.4000
10
79
20
-11.1500
10
77.7000
20
-11.1500
0
TEXT
5
3C3
100
AcDbEntity
8
profilmasshaltigkeit
6
ByLayer
62
7
100
AcDbText
7
Arial
10
78.3500
20
-10.7750
40
0.2700
41
0.7500
1
Prof2
7
Arial
72
1
11
78.3500
21
-10.7750
100
AcDbText
73
2
0
HATCH
5
3C4
100
AcDbEntity
8
profilmasshaltigkeit
6
ByLayer
62
3
100
AcDbHatch
10
0
20
0
30
0
210
0
220
0
230
1
2
SOLID
70
1
71
0
91
1
92
3
72
0
73
1
93
4
10
81.7000
20
-10.4000
10
83
20
-10.4000
10
83
20
-11.1500
10
81.7000
20
-11.1500
97
0
75
0
76
0
98
0
0
LWPOLYLINE
5
3C5
100
AcDbEntity
8
profilmasshaltigkeit
6
ByLayer
62
7
370
-1
100
AcDbPolyline
90
4
70
1
10
81.7000
20
-10.4000
10
83
20
-10.4000
10
83
20
-11.1500
10
81.7000
20
-11.1500
0
TEXT
5
3C6
100
AcDbEntity
8
profilmasshaltigkeit
6
ByLayer
62
7
100
AcDbText
7
Arial
10
82.3500
20
-10.7750
40
0.2700
41
0.7500
1
Prof2
7
Arial
72
1
11
82.3500
21
-10.7750
100
AcDbText
73
2
0
HATCH
5
3C7
100
AcDbEntity
8
profilmasshaltigkeit
6
ByLayer
62
3
100
AcDbHatch
10
0
20
0
30
0
210
0
220
0
230
1
2
SOLID
70
1
71
0
91
1
92
3
72
0
73
1
93
4
10
85.7000
20
-10.4000
10
87
20
-10.4000
10
87
20
-11.1500
10
85.7000
20
-11.1500
97
0
75
0
76
0
98
0
0
LWPOLYLINE
5
3C8
100
AcDbEntity
8
profilmasshaltigkeit
6
ByLayer
62
7
370
-1
100
AcDbPolyline
90
4
70
1
10
85.7000
20
-10.4000
10
87
20
-10.4000
10
87
20
-11.1500
10
85.7000
20
-11.1500
0
TEXT
5
3C9
100
AcDbEntity
8
profilmasshaltigkeit
6
ByLayer
62
7
100
AcDbText
7
Arial
10
86.3500
20
-10.7750
40
0.2700
41
0.7500
1
Prof2
7
Arial
72
1
11
86.3500
21
-10.7750
100
AcDbText
73
2
0
HATCH
5
3CA
100
AcDbEntity
8
profilmasshaltigkeit
6
ByLayer
62
3
100
AcDbHatch
10
0
20
0
30
0
210
0
220
0
230
1
2
SOLID
70
1
71
0
91
1
92
3
72
0
73
1
93
4
10
89.7000
20
-10.4000
10
91
20
-10.4000
10
91
20
-11.1500
10
89.7000
20
-11.1500
97
0
75
0
76
0
98
0
0
LWPOLYLINE
5
3CB
100
AcDbEntity
8
profilmasshaltigkeit
6
ByLayer
62
7
370
-1
100
AcDbPolyline
90
4
70
1
10
89.7000
20
-10.4000
10
91
20
-10.4000
10
91
20
-11.1500
10
89.7000
20
-11.1500
0
TEXT
5
3CC
100
AcDbEntity
8
profilmasshaltigkeit
6
ByLayer
62
7
100
AcDbText
7
Arial
10
90.3500
20
-10.7750
40
0.2700
41
0.7500
1
Prof2
7
Arial
72
1
11
90.3500
21
-10.7750
100
AcDbText
73
2
0
HATCH
5
3CD
100
AcDbEntity
8
profilmasshaltigkeit
6
ByLayer
62
3
100
AcDbHatch
10
0
20
0
30
0
210
0
220
0
230
1
2
SOLID
70
1
71
0
91
1
92
3
72
0
73
1
93
4
10
93.7000
20
-10.4000
10
95
20
-10.4000
10
95
20
-11.1500
10
93.7000
20
-11.1500
97
0
75
0
76
0
98
0
0
LWPOLYLINE
5
3CE
100
AcDbEntity
8
profilmasshaltigkeit
6
ByLayer
62
7
370
-1
100
AcDbPolyline
90
4
70
1
10
93.7000
20
-10.4000
10
95
20
-10.4000
10
95
20
-11.1500
10
93.7000
20
-11.1500
0
TEXT
5
3CF
100
AcDbEntity
8
profilmasshaltigkeit
6
ByLayer
62
7
100
AcDbText
7
Arial
10
94.3500
20
-10.7750
40
0.2700
41
0.7500
1
Prof2
7
Arial
72
1
11
94.3500
21
-10.7750
100
AcDbText
73
2
0
HATCH
5
3D0
100
AcDbEntity
8
profilmasshaltigkeit
6
ByLayer
62
3
100
AcDbHatch
10
0
20
0
30
0
210
0
220
0
230
1
2
SOLID
70
1
71
0
91
1
92
3
72
0
73
1
93
4
10
95
20
-10.4000
10
96.3000
20
-10.4000
10
96.3000
20
-11.1500
10
95
20
-11.1500
97
0
75
0
76
0
98
0
0
LWPOLYLINE
5
3D1
100
AcDbEntity
8
profilmasshaltigkeit
6
ByLayer
62
7
370
-1
100
AcDbPolyline
90
4
70
1
10
95
20
-10.4000
10
96.3000
20
-10.4000
10
96.3000
20
-11.1500
10
95
20
-11.1500
0
TEXT
5
3D2
100
AcDbEntity
8
profilmasshaltigkeit
6
ByLayer
62
7
100
AcDbText
7
Arial
10
95.6500
20
-10.7750
40
0.2700
41
0.7500
1
Prof2
7
Arial
72
1
11
95.6500
21
-10.7750
100
AcDbText
73
2
0
LINE
5
3D3
100
AcDbEntity
8
profilmasshaltigkeit
6
ByLayer
62
256
370
-1
100
AcDbLine
10
0
20
-11.1500
11
100
21
-11.1500
0
LINE
5
3D4
100
AcDbEntity
8
profilmasshaltigkeit
6
ByLayer
62
256
370
-1
100
AcDbLine
10
0
20
-11.9000
11
100
21
-11.9000
0
LWPOLYLINE
5
3D5
100
AcDbEntity
8
profilmasshaltigkeit
6
ByLayer
62
7
370
30
100
AcDbPolyline
90
4
70
1
10
105.2000
20
-9.6500
10
110.7000
20
-9.6500
10
110.7000
20
-11.9000
10
105.2000
20
-11.9000
0
LWPOLYLINE
5
3D6
100
AcDbEntity
8
profilmasshaltigkeit
6
ByLayer
62
7
370
30
100
AcDbPolyline
90
4
70
1
10
100
20
-9.6500
10
105.2000
20
-9.6500
10
105.2000
20
-11.9000
10
100
20
-11.9000
0
TEXT
5
3D7
100
AcDbEntity
8
profilmasshaltigkeit
6
ByLayer
62
7
100
AcDbText
7
Arial
10
110.5000
20
-10.7750
40
0.4500
41
0.7500
1
Profilmasshaltigkeit
7
Arial
72
2
11
110.5000
21
-10.7750
100
AcDbText
73
2
0
TEXT
5
3D8
100
AcDbEntity
8
profilmasshaltigkeit
6
ByLayer
62
7
100
AcDbText
7
Arial
10
100.2000
20
-10.0250
40
0.2700
41
0.7500
1
Profilmasshaltigkeit1
7
Arial
11
100.2000
21
-10.0250
100
AcDbText
73
2
0
LINE
5
3D9
100
AcDbEntity
8
profilmasshaltigkeit
6
ByLayer
62
256
370
-1
100
AcDbLine
10
100
20
-10.4000
11
105.2000
21
-10.4000
0
TEXT
5
3DA
100
AcDbEntity
8
profilmasshaltigkeit
6
ByLayer
62
7
100
AcDbText
7
Arial
10
100.2000
20
-10.7750
40
0.2700
41
0.7500
1
Profilmasshaltigkeit2
7
Arial
11
100.2000
21
-10.7750
100
AcDbText
73
2
0
LINE
5
3DB
100
AcDbEntity
8
profilmasshaltigkeit
6
ByLayer
62
256
370
-1
100
AcDbLine
10
100
20
-11.1500
11
105.2000
21
-11.1500
0
TEXT
5
3DC
100
AcDbEntity
8
profilmasshaltigkeit
6
ByLayer
62
7
100
AcDbText
7
Arial
10
100.2000
20
-11.5250
40
0.2700
41
0.7500
1
Profilmasshaltigkeit3
7
Arial
11
100.2000
21
-11.5250
100
AcDbText
73
2
0
LINE
5
3DD
100
AcDbEntity
8
profilmasshaltigkeit
6
ByLayer
62
256
370
-1
100
AcDbLine
10
100
20
-11.9000
11
105.2000
21
-11.9000
0
LWPOLYLINE
5
3DE
100
AcDbEntity
8
profilmasshaltigkeit
6
ByLayer
62
7
370
30
100
AcDbPolyline
90
4
70
1
10
0
20
-9.6500
10
100
20
-9.6500
10
100
20
-11.9000
10
0
20
-11.9000
0
LWPOLYLINE
5
3E0
100
AcDbEntity
8
bergwasserverhaeltnis
6
ByLayer
62
7
370
30
100
AcDbPolyline
90
4
70
1
10
-10.7000
20
-11.9000
10
-5.2000
20
-11.9000
10
-5.2000
20
-14.1500
10
-10.7000
20
-14.1500
0
LWPOLYLINE
5
3E1
100
AcDbEntity
8
bergwasserverhaeltnis
6
ByLayer
62
7
370
30
100
AcDbPolyline
90
4
70
1
10
-5.2000
20
-11.9000
10
0
20
-11.9000
10
0
20
-14.1500
10
-5.2000
20
-14.1500
0
TEXT
5
3E2
100
AcDbEntity
8
bergwasserverhaeltnis
6
ByLayer
62
7
100
AcDbText
7
Arial
10
-10.5000
20
-13.0250
40
0.4500
41
0.7500
1
Bergwasserverhältnisse
7
Arial
11
-10.5000
21
-13.0250
100
AcDbText
73
2
0
TEXT
5
3E3
100
AcDbEntity
8
bergwasserverhaeltnis
6
ByLayer
62
7
100
AcDbText
7
Arial
10
-0.2000
20
-12.2750
40
0.2700
41
0.7500
1
feucht/nass
7
Arial
72
2
11
-0.2000
21
-12.2750
100
AcDbText
73
2
0
LINE
5
3E4
100
AcDbEntity
8
bergwasserverhaeltnis
6
ByLayer
62
256
370
-1
100
AcDbLine
10
-5.2000
20
-12.6500
11
0
21
-12.6500
0
TEXT
5
3E5
100
AcDbEntity
8
bergwasserverhaeltnis
6
ByLayer
62
7
100
AcDbText
7
Arial
10
-0.2000
20
-13.0250
40
0.2700
41
0.7500
1
rinnend - nass
7
Arial
72
2
11
-0.2000
21
-13.0250
100
AcDbText
73
2
0
LINE
5
3E6
100
AcDbEntity
8
bergwasserverhaeltnis
6
ByLayer
62
256
370
-1
100
AcDbLine
10
-5.2000
20
-13.4000
11
0
21
-13.4000
0
TEXT
5
3E7
100
AcDbEntity
8
bergwasserverhaeltnis
6
ByLayer
62
7
100
AcDbText
7
Arial
10
-0.2000
20
-13.7750
40
0.2700
41
0.7500
1
rinnend
7
Arial
72
2
11
-0.2000
21
-13.7750
100
AcDbText
73
2
0
LINE
5
3E8
100
AcDbEntity
8
bergwasserverhaeltnis
6
ByLayer
62
256
370
-1
100
AcDbLine
10
-5.2000
20
-14.1500
11
0
21
-14.1500
0
HATCH
5
3E9
100
AcDbEntity
8
bergwasserverhaeltnis
6
ByLayer
62
5
100
AcDbHatch
10
0
20
0
30
0
210
0
220
0
230
1
2
SOLID
70
1
71
0
91
1
92
3
72
0
73
1
93
4
10
57.7000
20
-11.9000
10
59
20
-11.9000
10
59
20
-12.6500
10
57.7000
20
-12.6500
97
0
75
0
76
0
98
0
0
LWPOLYLINE
5
3EA
100
AcDbEntity
8
bergwasserverhaeltnis
6
ByLayer
62
7
370
-1
100
AcDbPolyline
90
4
70
1
10
57.7000
20
-11.9000
10
59
20
-11.9000
10
59
20
-12.6500
10
57.7000
20
-12.6500
0
TEXT
5
3EB
100
AcDbEntity
8
bergwasserverhaeltnis
6
ByLayer
62
7
100
AcDbText
7
Arial
10
58.3500
20
-12.2750
40
0.2700
41
0.7500
1
f
7
Arial
72
1
11
58.3500
21
-12.2750
100
AcDbText
73
2
0
HATCH
5
3EC
100
AcDbEntity
8
bergwasserverhaeltnis
6
ByLayer
62
5
100
AcDbHatch
10
0
20
0
30
0
210
0
220
0
230
1
2
SOLID
70
1
71
0
91
1
92
3
72
0
73
1
93
4
10
61.7000
20
-11.9000
10
63
20
-11.9000
10
63
20
-12.6500
10
61.7000
20
-12.6500
97
0
75
0
76
0
98
0
0
LWPOLYLINE
5
3ED
100
AcDbEntity
8
bergwasserverhaeltnis
6
ByLayer
62
7
370
-1
100
AcDbPolyline
90
4
70
1
10
61.7000
20
-11.9000
10
63
20
-11.9000
10
63
20
-12.6500
10
61.7000
20
-12.6500
0
TEXT
5
3EE
100
AcDbEntity
8
bergwasserverhaeltnis
6
ByLayer
62
7
100
AcDbText
7
Arial
10
62.3500
20
-12.2750
40
0.2700
41
0.7500
1
f
7
Arial
72
1
11
62.3500
21
-12.2750
100
AcDbText
73
2
0
HATCH
5
3EF
100
AcDbEntity
8
bergwasserverhaeltnis
6
ByLayer
62
5
100
AcDbHatch
10
0
20
0
30
0
210
0
220
0
230
1
2
SOLID
70
1
71
0
91
1
92
3
72
0
73
1
93
4
10
65.7000
20
-11.9000
10
67
20
-11.9000
10
67
20
-12.6500
10
65.7000
20
-12.6500
97
0
75
0
76
0
98
0
0
LWPOLYLINE
5
3F0
100
AcDbEntity
8
bergwasserverhaeltnis
6
ByLayer
62
7
370
-1
100
AcDbPolyline
90
4
70
1
10
65.7000
20
-11.9000
10
67
20
-11.9000
10
67
20
-12.6500
10
65.7000
20
-12.6500
0
TEXT
5
3F1
100
AcDbEntity
8
bergwasserverhaeltnis
6
ByLayer
62
7
100
AcDbText
7
Arial
10
66.3500
20
-12.2750
40
0.2700
41
0.7500
1
f
7
Arial
72
1
11
66.3500
21
-12.2750
100
AcDbText
73
2
0
HATCH
5
3F2
100
AcDbEntity
8
bergwasserverhaeltnis
6
ByLayer
62
5
100
AcDbHatch
10
0
20
0
30
0
210
0
220
0
230
1
2
SOLID
70
1
71
0
91
1
92
3
72
0
73
1
93
4
10
69.7000
20
-11.9000
10
71
20
-11.9000
10
71
20
-12.6500
10
69.7000
20
-12.6500
97
0
75
0
76
0
98
0
0
LWPOLYLINE
5
3F3
100
AcDbEntity
8
bergwasserverhaeltnis
6
ByLayer
62
7
370
-1
100
AcDbPolyline
90
4
70
1
10
69.7000
20
-11.9000
10
71
20
-11.9000
10
71
20
-12.6500
10
69.7000
20
-12.6500
0
TEXT
5
3F4
100
AcDbEntity
8
bergwasserverhaeltnis
6
ByLayer
62
7
100
AcDbText
7
Arial
10
70.3500
20
-12.2750
40
0.2700
41
0.7500
1
f
7
Arial
72
1
11
70.3500
21
-12.2750
100
AcDbText
73
2
0
HATCH
5
3F5
100
AcDbEntity
8
bergwasserverhaeltnis
6
ByLayer
62
5
100
AcDbHatch
10
0
20
0
30
0
210
0
220
0
230
1
2
SOLID
70
1
71
0
91
1
92
3
72
0
73
1
93
4
10
73.7000
20
-11.9000
10
75
20
-11.9000
10
75
20
-12.6500
10
73.7000
20
-12.6500
97
0
75
0
76
0
98
0
0
LWPOLYLINE
5
3F6
100
AcDbEntity
8
bergwasserverhaeltnis
6
ByLayer
62
7
370
-1
100
AcDbPolyline
90
4
70
1
10
73.7000
20
-11.9000
10
75
20
-11.9000
10
75
20
-12.6500
10
73.7000
20
-12.6500
0
TEXT
5
3F7
100
AcDbEntity
8
bergwasserverhaeltnis
6
ByLayer
62
7
100
AcDbText
7
Arial
10
74.3500
20
-12.2750
40
0.2700
41
0.7500
1
f
7
Arial
72
1
11
74.3500
21
-12.2750
100
AcDbText
73
2
0
HATCH
5
3F8
100
AcDbEntity
8
bergwasserverhaeltnis
6
ByLayer
62
5
100
AcDbHatch
10
0
20
0
30
0
210
0
220
0
230
1
2
SOLID
70
1
71
0
91
1
92
3
72
0
73
1
93
4
10
77.7000
20
-11.9000
10
79
20
-11.9000
10
79
20
-12.6500
10
77.7000
20
-12.6500
97
0
75
0
76
0
98
0
0
LWPOLYLINE
5
3F9
100
AcDbEntity
8
bergwasserverhaeltnis
6
ByLayer
62
7
370
-1
100
AcDbPolyline
90
4
70
1
10
77.7000
20
-11.9000
10
79
20
-11.9000
10
79
20
-12.6500
10
77.7000
20
-12.6500
0
TEXT
5
3FA
100
AcDbEntity
8
bergwasserverhaeltnis
6
ByLayer
62
7
100
AcDbText
7
Arial
10
78.3500
20
-12.2750
40
0.2700
41
0.7500
1
f
7
Arial
72
1
11
78.3500
21
-12.2750
100
AcDbText
73
2
0
HATCH
5
3FB
100
AcDbEntity
8
bergwasserverhaeltnis
6
ByLayer
62
5
100
AcDbHatch
10
0
20
0
30
0
210
0
220
0
230
1
2
SOLID
70
1
71
0
91
1
92
3
72
0
73
1
93
4
10
81.7000
20
-11.9000
10
83
20
-11.9000
10
83
20
-12.6500
10
81.7000
20
-12.6500
97
0
75
0
76
0
98
0
0
LWPOLYLINE
5
3FC
100
AcDbEntity
8
bergwasserverhaeltnis
6
ByLayer
62
7
370
-1
100
AcDbPolyline
90
4
70
1
10
81.7000
20
-11.9000
10
83
20
-11.9000
10
83
20
-12.6500
10
81.7000
20
-12.6500
0
TEXT
5
3FD
100
AcDbEntity
8
bergwasserverhaeltnis
6
ByLayer
62
7
100
AcDbText
7
Arial
10
82.3500
20
-12.2750
40
0.2700
41
0.7500
1
f
7
Arial
72
1
11
82.3500
21
-12.2750
100
AcDbText
73
2
0
HATCH
5
3FE
100
AcDbEntity
8
bergwasserverhaeltnis
6
ByLayer
62
5
100
AcDbHatch
10
0
20
0
30
0
210
0
220
0
230
1
2
SOLID
70
1
71
0
91
1
92
3
72
0
73
1
93
4
10
85.7000
20
-11.9000
10
87
20
-11.9000
10
87
20
-12.6500
10
85.7000
20
-12.6500
97
0
75
0
76
0
98
0
0
LWPOLYLINE
5
3FF
100
AcDbEntity
8
bergwasserverhaeltnis
6
ByLayer
62
7
370
-1
100
AcDbPolyline
90
4
70
1
10
85.7000
20
-11.9000
10
87
20
-11.9000
10
87
20
-12.6500
10
85.7000
20
-12.6500
0
TEXT
5
400
100
AcDbEntity
8
bergwasserverhaeltnis
6
ByLayer
62
7
100
AcDbText
7
Arial
10
86.3500
20
-12.2750
40
0.2700
41
0.7500
1
f
7
Arial
72
1
11
86.3500
21
-12.2750
100
AcDbText
73
2
0
HATCH
5
401
100
AcDbEntity
8
bergwasserverhaeltnis
6
ByLayer
62
5
100
AcDbHatch
10
0
20
0
30
0
210
0
220
0
230
1
2
SOLID
70
1
71
0
91
1
92
3
72
0
73
1
93
4
10
89.7000
20
-11.9000
10
91
20
-11.9000
10
91
20
-12.6500
10
89.7000
20
-12.6500
97
0
75
0
76
0
98
0
0
LWPOLYLINE
5
402
100
AcDbEntity
8
bergwasserverhaeltnis
6
ByLayer
62
7
370
-1
100
AcDbPolyline
90
4
70
1
10
89.7000
20
-11.9000
10
91
20
-11.9000
10
91
20
-12.6500
10
89.7000
20
-12.6500
0
TEXT
5
403
100
AcDbEntity
8
bergwasserverhaeltnis
6
ByLayer
62
7
100
AcDbText
7
Arial
10
90.3500
20
-12.2750
40
0.2700
41
0.7500
1
f
7
Arial
72
1
11
90.3500
21
-12.2750
100
AcDbText
73
2
0
HATCH
5
404
100
AcDbEntity
8
bergwasserverhaeltnis
6
ByLayer
62
5
100
AcDbHatch
10
0
20
0
30
0
210
0
220
0
230
1
2
SOLID
70
1
71
0
91
1
92
3
72
0
73
1
93
4
10
93.7000
20
-11.9000
10
95
20
-11.9000
10
95
20
-12.6500
10
93.7000
20
-12.6500
97
0
75
0
76
0
98
0
0
LWPOLYLINE
5
405
100
AcDbEntity
8
bergwasserverhaeltnis
6
ByLayer
62
7
370
-1
100
AcDbPolyline
90
4
70
1
10
93.7000
20
-11.9000
10
95
20
-11.9000
10
95
20
-12.6500
10
93.7000
20
-12.6500
0
TEXT
5
406
100
AcDbEntity
8
bergwasserverhaeltnis
6
ByLayer
62
7
100
AcDbText
7
Arial
10
94.3500
20
-12.2750
40
0.2700
41
0.7500
1
f
7
Arial
72
1
11
94.3500
21
-12.2750
100
AcDbText
73
2
0
HATCH
5
407
100
AcDbEntity
8
bergwasserverhaeltnis
6
ByLayer
62
5
100
AcDbHatch
10
0
20
0
30
0
210
0
220
0
230
1
2
SOLID
70
1
71
0
91
1
92
3
72
0
73
1
93
4
10
95
20
-11.9000
10
96.3000
20
-11.9000
10
96.3000
20
-12.6500
10
95
20
-12.6500
97
0
75
0
76
0
98
0
0
LWPOLYLINE
5
408
100
AcDbEntity
8
bergwasserverhaeltnis
6
ByLayer
62
7
370
-1
100
AcDbPolyline
90
4
70
1
10
95
20
-11.9000
10
96.3000
20
-11.9000
10
96.3000
20
-12.6500
10
95
20
-12.6500
0
TEXT
5
409
100
AcDbEntity
8
bergwasserverhaeltnis
6
ByLayer
62
7
100
AcDbText
7
Arial
10
95.6500
20
-12.2750
40
0.2700
41
0.7500
1
f
7
Arial
72
1
11
95.6500
21
-12.2750
100
AcDbText
73
2
0
LINE
5
40A
100
AcDbEntity
8
bergwasserverhaeltnis
6
ByLayer
62
256
370
-1
100
AcDbLine
10
0
20
-12.6500
11
100
21
-12.6500
0
HATCH
5
40B
100
AcDbEntity
8
bergwasserverhaeltnis
6
ByLayer
62
5
100
AcDbHatch
10
0
20
0
30
0
210
0
220
0
230
1
2
SOLID
70
1
71
0
91
1
92
3
72
0
73
1
93
4
10
96.3000
20
-12.6500
10
97.6000
20
-12.6500
10
97.6000
20
-13.4000
10
96.3000
20
-13.4000
97
0
75
0
76
0
98
0
0
LWPOLYLINE
5
40C
100
AcDbEntity
8
bergwasserverhaeltnis
6
ByLayer
62
7
370
-1
100
AcDbPolyline
90
4
70
1
10
96.3000
20
-12.6500
10
97.6000
20
-12.6500
10
97.6000
20
-13.4000
10
96.3000
20
-13.4000
0
TEXT
5
40D
100
AcDbEntity
8
bergwasserverhaeltnis
6
ByLayer
62
7
100
AcDbText
7
Arial
10
96.9500
20
-13.0250
40
0.2700
41
0.7500
1
n
7
Arial
72
1
11
96.9500
21
-13.0250
100
AcDbText
73
2
0
HATCH
5
40E
100
AcDbEntity
8
bergwasserverhaeltnis
6
ByLayer
62
5
100
AcDbHatch
10
0
20
0
30
0
210
0
220
0
230
1
2
SOLID
70
1
71
0
91
1
92
3
72
0
73
1
93
4
10
97.6000
20
-12.6500
10
98.9000
20
-12.6500
10
98.9000
20
-13.4000
10
97.6000
20
-13.4000
97
0
75
0
76
0
98
0
0
LWPOLYLINE
5
40F
100
AcDbEntity
8
bergwasserverhaeltnis
6
ByLayer
62
7
370
-1
100
AcDbPolyline
90
4
70
1
10
97.6000
20
-12.6500
10
98.9000
20
-12.6500
10
98.9000
20
-13.4000
10
97.6000
20
-13.4000
0
TEXT
5
410
100
AcDbEntity
8
bergwasserverhaeltnis
6
ByLayer
62
7
100
AcDbText
7
Arial
10
98.2500
20
-13.0250
40
0.2700
41
0.7500
1
n
7
Arial
72
1
11
98.2500
21
-13.0250
100
AcDbText
73
2
0
HATCH
5
411
100
AcDbEntity
8
bergwasserverhaeltnis
6
ByLayer
62
5
100
AcDbHatch
10
0
20
0
30
0
210
0
220
0
230
1
2
SOLID
70
1
71
0
91
1
92
3
72
0
73
1
93
4
10
98.7000
20
-12.6500
10
100
20
-12.6500
10
100
20
-13.4000
10
98.7000
20
-13.4000
97
0
75
0
76
0
98
0
0
LWPOLYLINE
5
412
100
AcDbEntity
8
bergwasserverhaeltnis
6
ByLayer
62
7
370
-1
100
AcDbPolyline
90
4
70
1
10
98.7000
20
-12.6500
10
100
20
-12.6500
10
100
20
-13.4000
10
98.7000
20
-13.4000
0
TEXT
5
413
100
AcDbEntity
8
bergwasserverhaeltnis
6
ByLayer
62
7
100
AcDbText
7
Arial
10
99.3500
20
-13.0250
40
0.2700
41
0.7500
1
n
7
Arial
72
1
11
99.3500
21
-13.0250
100
AcDbText
73
2
0
LINE
5
414
100
AcDbEntity
8
bergwasserverhaeltnis
6
ByLayer
62
256
370
-1
100
AcDbLine
10
0
20
-13.4000
11
100
21
-13.4000
0
LINE
5
415
100
AcDbEntity
8
bergwasserverhaeltnis
6
ByLayer
62
256
370
-1
100
AcDbLine
10
0
20
-14.1500
11
100
21
-14.1500
0
LWPOLYLINE
5
416
100
AcDbEntity
8
bergwasserverhaeltnis
6
ByLayer
62
7
370
30
100
AcDbPolyline
90
4
70
1
10
105.2000
20
-11.9000
10
110.7000
20
-11.9000
10
110.7000
20
-14.1500
10
105.2000
20
-14.1500
0
LWPOLYLINE
5
417
100
AcDbEntity
8
bergwasserverhaeltnis
6
ByLayer
62
7
370
30
100
AcDbPolyline
90
4
70
1
10
100
20
-11.9000
10
105.2000
20
-11.9000
10
105.2000
20
-14.1500
10
100
20
-14.1500
0
TEXT
5
418
100
AcDbEntity
8
bergwasserverhaeltnis
6
ByLayer
62
7
100
AcDbText
7
Arial
10
110.5000
20
-13.0250
40
0.4500
41
0.7500
1
Bergwasserverhältnisse
7
Arial
72
2
11
110.5000
21
-13.0250
100
AcDbText
73
2
0
TEXT
5
419
100
AcDbEntity
8
bergwasserverhaeltnis
6
ByLayer
62
7
100
AcDbText
7
Arial
10
100.2000
20
-12.2750
40
0.2700
41
0.7500
1
feucht/nass
7
Arial
11
100.2000
21
-12.2750
100
AcDbText
73
2
0
LINE
5
41A
100
AcDbEntity
8
bergwasserverhaeltnis
6
ByLayer
62
256
370
-1
100
AcDbLine
10
100
20
-12.6500
11
105.2000
21
-12.6500
0
TEXT
5
41B
100
AcDbEntity
8
bergwasserverhaeltnis
6
ByLayer
62
7
100
AcDbText
7
Arial
10
100.2000
20
-13.0250
40
0.2700
41
0.7500
1
rinnend - nass
7
Arial
11
100.2000
21
-13.0250
100
AcDbText
73
2
0
LINE
5
41C
100
AcDbEntity
8
bergwasserverhaeltnis
6
ByLayer
62
256
370
-1
100
AcDbLine
10
100
20
-13.4000
11
105.2000
21
-13.4000
0
TEXT
5
41D
100
AcDbEntity
8
bergwasserverhaeltnis
6
ByLayer
62
7
100
AcDbText
7
Arial
10
100.2000
20
-13.7750
40
0.2700
41
0.7500
1
rinnend
7
Arial
11
100.2000
21
-13.7750
100
AcDbText
73
2
0
LINE
5
41E
100
AcDbEntity
8
bergwasserverhaeltnis
6
ByLayer
62
256
370
-1
100
AcDbLine
10
100
20
-14.1500
11
105.2000
21
-14.1500
0
LWPOLYLINE
5
41F
100
AcDbEntity
8
bergwasserverhaeltnis
6
ByLayer
62
7
370
30
100
AcDbPolyline
90
4
70
1
10
0
20
-11.9000
10
100
20
-11.9000
10
100
20
-14.1500
10
0
20
-14.1500
0
LWPOLYLINE
5
421
100
AcDbEntity
8
gebirgsart
6
ByLayer
62
7
370
30
100
AcDbPolyline
90
4
70
1
10
-10.7000
20
-14.1500
10
-5.2000
20
-14.1500
10
-5.2000
20
-16.4000
10
-10.7000
20
-16.4000
0
LWPOLYLINE
5
422
100
AcDbEntity
8
gebirgsart
6
ByLayer
62
7
370
30
100
AcDbPolyline
90
4
70
1
10
-5.2000
20
-14.1500
10
0
20
-14.1500
10
0
20
-16.4000
10
-5.2000
20
-16.4000
0
TEXT
5
423
100
AcDbEntity
8
gebirgsart
6
ByLayer
62
7
100
AcDbText
7
Arial
10
-10.5000
20
-15.2750
40
0.4500
41
0.7500
1
Gebirgsart
7
Arial
11
-10.5000
21
-15.2750
100
AcDbText
73
2
0
TEXT
5
424
100
AcDbEntity
8
gebirgsart
6
ByLayer
62
7
100
AcDbText
7
Arial
10
-0.2000
20
-14.5250
40
0.2700
41
0.7500
1
GA 1
7
Arial
72
2
11
-0.2000
21
-14.5250
100
AcDbText
73
2
0
LINE
5
425
100
AcDbEntity
8
gebirgsart
6
ByLayer
62
256
370
-1
100
AcDbLine
10
-5.2000
20
-14.9000
11
0
21
-14.9000
0
TEXT
5
426
100
AcDbEntity
8
gebirgsart
6
ByLayer
62
7
100
AcDbText
7
Arial
10
-0.2000
20
-15.2750
40
0.2700
41
0.7500
1
GA 2
7
Arial
72
2
11
-0.2000
21
-15.2750
100
AcDbText
73
2
0
LINE
5
427
100
AcDbEntity
8
gebirgsart
6
ByLayer
62
256
370
-1
100
AcDbLine
10
-5.2000
20
-15.6500
11
0
21
-15.6500
0
TEXT
5
428
100
AcDbEntity
8
gebirgsart
6
ByLayer
62
7
100
AcDbText
7
Arial
10
-0.2000
20
-16.0250
40
0.2700
41
0.7500
1
GA 3
7
Arial
72
2
11
-0.2000
21
-16.0250
100
AcDbText
73
2
0
LINE
5
429
100
AcDbEntity
8
gebirgsart
6
ByLayer
62
256
370
-1
100
AcDbLine
10
-5.2000
20
-16.4000
11
0
21
-16.4000
0
HATCH
5
42A
100
AcDbEntity
8
gebirgsart
6
ByLayer
62
28
100
AcDbHatch
10
0
20
0
30
0
210
0
220
0
230
1
2
SOLID
70
1
71
0
91
1
92
3
72
0
73
1
93
4
10
-0.3000
20
-14.1500
10
1
20
-14.1500
10
1
20
-14.9000
10
-0.3000
20
-14.9000
97
0
75
0
76
0
98
0
0
LWPOLYLINE
5
42B
100
AcDbEntity
8
gebirgsart
6
ByLayer
62
7
370
-1
100
AcDbPolyline
90
4
70
1
10
-0.3000
20
-14.1500
10
1
20
-14.1500
10
1
20
-14.9000
10
-0.3000
20
-14.9000
0
TEXT
5
42C
100
AcDbEntity
8
gebirgsart
6
ByLayer
62
7
100
AcDbText
7
Arial
10
0.3500
20
-14.5250
40
0.2700
41
0.7500
1
100%
7
Arial
72
1
11
0.3500
21
-14.5250
100
AcDbText
73
2
0
HATCH
5
42D
100
AcDbEntity
8
gebirgsart
6
ByLayer
62
28
100
AcDbHatch
10
0
20
0
30
0
210
0
220
0
230
1
2
SOLID
70
1
71
0
91
1
92
3
72
0
73
1
93
4
10
5.7000
20
-14.1500
10
6.9999
20
-14.1500
10
6.9999
20
-14.9000
10
5.7000
20
-14.9000
97
0
75
0
76
0
98
0
0
LWPOLYLINE
5
42E
100
AcDbEntity
8
gebirgsart
6
ByLayer
62
7
370
-1
100
AcDbPolyline
90
4
70
1
10
5.7000
20
-14.1500
10
6.9999
20
-14.1500
10
6.9999
20
-14.9000
10
5.7000
20
-14.9000
0
TEXT
5
42F
100
AcDbEntity
8
gebirgsart
6
ByLayer
62
7
100
AcDbText
7
Arial
10
6.3500
20
-14.5250
40
0.2700
41
0.7500
1
72%
7
Arial
72
1
11
6.3500
21
-14.5250
100
AcDbText
73
2
0
HATCH
5
430
100
AcDbEntity
8
gebirgsart
6
ByLayer
62
28
100
AcDbHatch
10
0
20
0
30
0
210
0
220
0
230
1
2
SOLID
70
1
71
0
91
1
92
3
72
0
73
1
93
4
10
10.7000
20
-14.1500
10
12
20
-14.1500
10
12
20
-14.9000
10
10.7000
20
-14.9000
97
0
75
0
76
0
98
0
0
LWPOLYLINE
5
431
100
AcDbEntity
8
gebirgsart
6
ByLayer
62
7
370
-1
100
AcDbPolyline
90
4
70
1
10
10.7000
20
-14.1500
10
12
20
-14.1500
10
12
20
-14.9000
10
10.7000
20
-14.9000
0
TEXT
5
432
100
AcDbEntity
8
gebirgsart
6
ByLayer
62
7
100
AcDbText
7
Arial
10
11.3500
20
-14.5250
40
0.2700
41
0.7500
1
60%
7
Arial
72
1
11
11.3500
21
-14.5250
100
AcDbText
73
2
0
HATCH
5
433
100
AcDbEntity
8
gebirgsart
6
ByLayer
62
28
100
AcDbHatch
10
0
20
0
30
0
210
0
220
0
230
1
2
SOLID
70
1
71
0
91
1
92
3
72
0
73
1
93
4
10
15.7000
20
-14.1500
10
17
20
-14.1500
10
17
20
-14.9000
10
15.7000
20
-14.9000
97
0
75
0
76
0
98
0
0
LWPOLYLINE
5
434
100
AcDbEntity
8
gebirgsart
6
ByLayer
62
7
370
-1
100
AcDbPolyline
90
4
70
1
10
15.7000
20
-14.1500
10
17
20
-14.1500
10
17
20
-14.9000
10
15.7000
20
-14.9000
0
TEXT
5
435
100
AcDbEntity
8
gebirgsart
6
ByLayer
62
7
100
AcDbText
7
Arial
10
16.3500
20
-14.5250
40
0.2700
41
0.7500
1
100%
7
Arial
72
1
11
16.3500
21
-14.5250
100
AcDbText
73
2
0
HATCH
5
436
100
AcDbEntity
8
gebirgsart
6
ByLayer
62
28
100
AcDbHatch
10
0
20
0
30
0
210
0
220
0
230
1
2
SOLID
70
1
71
0
91
1
92
3
72
0
73
1
93
4
10
20.7000
20
-14.1500
10
22
20
-14.1500
10
22
20
-14.9000
10
20.7000
20
-14.9000
97
0
75
0
76
0
98
0
0
LWPOLYLINE
5
437
100
AcDbEntity
8
gebirgsart
6
ByLayer
62
7
370
-1
100
AcDbPolyline
90
4
70
1
10
20.7000
20
-14.1500
10
22
20
-14.1500
10
22
20
-14.9000
10
20.7000
20
-14.9000
0
TEXT
5
438
100
AcDbEntity
8
gebirgsart
6
ByLayer
62
7
100
AcDbText
7
Arial
10
21.3500
20
-14.5250
40
0.2700
41
0.7500
1
100%
7
Arial
72
1
11
21.3500
21
-14.5250
100
AcDbText
73
2
0
HATCH
5
439
100
AcDbEntity
8
gebirgsart
6
ByLayer
62
28
100
AcDbHatch
10
0
20
0
30
0
210
0
220
0
230
1
2
SOLID
70
1
71
0
91
1
92
3
72
0
73
1
93
4
10
23.7000
20
-14.1500
10
25
20
-14.1500
10
25
20
-14.9000
10
23.7000
20
-14.9000
97
0
75
0
76
0
98
0
0
LWPOLYLINE
5
43A
100
AcDbEntity
8
gebirgsart
6
ByLayer
62
7
370
-1
100
AcDbPolyline
90
4
70
1
10
23.7000
20
-14.1500
10
25
20
-14.1500
10
25
20
-14.9000
10
23.7000
20
-14.9000
0
TEXT
5
43B
100
AcDbEntity
8
gebirgsart
6
ByLayer
62
7
100
AcDbText
7
Arial
10
24.3500
20
-14.5250
40
0.2700
41
0.7500
1
100%
7
Arial
72
1
11
24.3500
21
-14.5250
100
AcDbText
73
2
0
HATCH
5
43C
100
AcDbEntity
8
gebirgsart
6
ByLayer
62
28
100
AcDbHatch
10
0
20
0
30
0
210
0
220
0
230
1
2
SOLID
70
1
71
0
91
1
92
3
72
0
73
1
93
4
10
27.7000
20
-14.1500
10
29
20
-14.1500
10
29
20
-14.9000
10
27.7000
20
-14.9000
97
0
75
0
76
0
98
0
0
LWPOLYLINE
5
43D
100
AcDbEntity
8
gebirgsart
6
ByLayer
62
7
370
-1
100
AcDbPolyline
90
4
70
1
10
27.7000
20
-14.1500
10
29
20
-14.1500
10
29
20
-14.9000
10
27.7000
20
-14.9000
0
TEXT
5
43E
100
AcDbEntity
8
gebirgsart
6
ByLayer
62
7
100
AcDbText
7
Arial
10
28.3500
20
-14.5250
40
0.2700
41
0.7500
1
100%
7
Arial
72
1
11
28.3500
21
-14.5250
100
AcDbText
73
2
0
HATCH
5
43F
100
AcDbEntity
8
gebirgsart
6
ByLayer
62
28
100
AcDbHatch
10
0
20
0
30
0
210
0
220
0
230
1
2
SOLID
70
1
71
0
91
1
92
3
72
0
73
1
93
4
10
31.7000
20
-14.1500
10
33
20
-14.1500
10
33
20
-14.9000
10
31.7000
20
-14.9000
97
0
75
0
76
0
98
0
0
LWPOLYLINE
5
440
100
AcDbEntity
8
gebirgsart
6
ByLayer
62
7
370
-1
100
AcDbPolyline
90
4
70
1
10
31.7000
20
-14.1500
10
33
20
-14.1500
10
33
20
-14.9000
10
31.7000
20
-14.9000
0
TEXT
5
441
100
AcDbEntity
8
gebirgsart
6
ByLayer
62
7
100
AcDbText
7
Arial
10
32.3500
20
-14.5250
40
0.2700
41
0.7500
1
100%
7
Arial
72
1
11
32.3500
21
-14.5250
100
AcDbText
73
2
0
HATCH
5
442
100
AcDbEntity
8
gebirgsart
6
ByLayer
62
28
100
AcDbHatch
10
0
20
0
30
0
210
0
220
0
230
1
2
SOLID
70
1
71
0
91
1
92
3
72
0
73
1
93
4
10
35.7000
20
-14.1500
10
37
20
-14.1500
10
37
20
-14.9000
10
35.7000
20
-14.9000
97
0
75
0
76
0
98
0
0
LWPOLYLINE
5
443
100
AcDbEntity
8
gebirgsart
6
ByLayer
62
7
370
-1
100
AcDbPolyline
90
4
70
1
10
35.7000
20
-14.1500
10
37
20
-14.1500
10
37
20
-14.9000
10
35.7000
20
-14.9000
0
TEXT
5
444
100
AcDbEntity
8
gebirgsart
6
ByLayer
62
7
100
AcDbText
7
Arial
10
36.3500
20
-14.5250
40
0.2700
41
0.7500
1
100%
7
Arial
72
1
11
36.3500
21
-14.5250
100
AcDbText
73
2
0
HATCH
5
445
100
AcDbEntity
8
gebirgsart
6
ByLayer
62
28
100
AcDbHatch
10
0
20
0
30
0
210
0
220
0
230
1
2
SOLID
70
1
71
0
91
1
92
3
72
0
73
1
93
4
10
38.7000
20
-14.1500
10
40
20
-14.1500
10
40
20
-14.9000
10
38.7000
20
-14.9000
97
0
75
0
76
0
98
0
0
LWPOLYLINE
5
446
100
AcDbEntity
8
gebirgsart
6
ByLayer
62
7
370
-1
100
AcDbPolyline
90
4
70
1
10
38.7000
20
-14.1500
10
40
20
-14.1500
10
40
20
-14.9000
10
38.7000
20
-14.9000
0
TEXT
5
447
100
AcDbEntity
8
gebirgsart
6
ByLayer
62
7
100
AcDbText
7
Arial
10
39.3500
20
-14.5250
40
0.2700
41
0.7500
1
100%
7
Arial
72
1
11
39.3500
21
-14.5250
100
AcDbText
73
2
0
HATCH
5
448
100
AcDbEntity
8
gebirgsart
6
ByLayer
62
28
100
AcDbHatch
10
0
20
0
30
0
210
0
220
0
230
1
2
SOLID
70
1
71
0
91
1
92
3
72
0
73
1
93
4
10
43.7000
20
-14.1500
10
45
20
-14.1500
10
45
20
-14.9000
10
43.7000
20
-14.9000
97
0
75
0
76
0
98
0
0
LWPOLYLINE
5
449
100
AcDbEntity
8
gebirgsart
6
ByLayer
62
7
370
-1
100
AcDbPolyline
90
4
70
1
10
43.7000
20
-14.1500
10
45
20
-14.1500
10
45
20
-14.9000
10
43.7000
20
-14.9000
0
TEXT
5
44A
100
AcDbEntity
8
gebirgsart
6
ByLayer
62
7
100
AcDbText
7
Arial
10
44.3500
20
-14.5250
40
0.2700
41
0.7500
1
100%
7
Arial
72
1
11
44.3500
21
-14.5250
100
AcDbText
73
2
0
HATCH
5
44B
100
AcDbEntity
8
gebirgsart
6
ByLayer
62
28
100
AcDbHatch
10
0
20
0
30
0
210
0
220
0
230
1
2
SOLID
70
1
71
0
91
1
92
3
72
0
73
1
93
4
10
46.7000
20
-14.1500
10
48
20
-14.1500
10
48
20
-14.9000
10
46.7000
20
-14.9000
97
0
75
0
76
0
98
0
0
LWPOLYLINE
5
44C
100
AcDbEntity
8
gebirgsart
6
ByLayer
62
7
370
-1
100
AcDbPolyline
90
4
70
1
10
46.7000
20
-14.1500
10
48
20
-14.1500
10
48
20
-14.9000
10
46.7000
20
-14.9000
0
TEXT
5
44D
100
AcDbEntity
8
gebirgsart
6
ByLayer
62
7
100
AcDbText
7
Arial
10
47.3500
20
-14.5250
40
0.2700
41
0.7500
1
100%
7
Arial
72
1
11
47.3500
21
-14.5250
100
AcDbText
73
2
0
HATCH
5
44E
100
AcDbEntity
8
gebirgsart
6
ByLayer
62
28
100
AcDbHatch
10
0
20
0
30
0
210
0
220
0
230
1
2
SOLID
70
1
71
0
91
1
92
3
72
0
73
1
93
4
10
50.7000
20
-14.1500
10
52
20
-14.1500
10
52
20
-14.9000
10
50.7000
20
-14.9000
97
0
75
0
76
0
98
0
0
LWPOLYLINE
5
44F
100
AcDbEntity
8
gebirgsart
6
ByLayer
62
7
370
-1
100
AcDbPolyline
90
4
70
1
10
50.7000
20
-14.1500
10
52
20
-14.1500
10
52
20
-14.9000
10
50.7000
20
-14.9000
0
TEXT
5
450
100
AcDbEntity
8
gebirgsart
6
ByLayer
62
7
100
AcDbText
7
Arial
10
51.3500
20
-14.5250
40
0.2700
41
0.7500
1
100%
7
Arial
72
1
11
51.3500
21
-14.5250
100
AcDbText
73
2
0
HATCH
5
451
100
AcDbEntity
8
gebirgsart
6
ByLayer
62
28
100
AcDbHatch
10
0
20
0
30
0
210
0
220
0
230
1
2
SOLID
70
1
71
0
91
1
92
3
72
0
73
1
93
4
10
54.7000
20
-14.1500
10
56
20
-14.1500
10
56
20
-14.9000
10
54.7000
20
-14.9000
97
0
75
0
76
0
98
0
0
LWPOLYLINE
5
452
100
AcDbEntity
8
gebirgsart
6
ByLayer
62
7
370
-1
100
AcDbPolyline
90
4
70
1
10
54.7000
20
-14.1500
10
56
20
-14.1500
10
56
20
-14.9000
10
54.7000
20
-14.9000
0
TEXT
5
453
100
AcDbEntity
8
gebirgsart
6
ByLayer
62
7
100
AcDbText
7
Arial
10
55.3500
20
-14.5250
40
0.2700
41
0.7500
1
39%
7
Arial
72
1
11
55.3500
21
-14.5250
100
AcDbText
73
2
0
HATCH
5
454
100
AcDbEntity
8
gebirgsart
6
ByLayer
62
28
100
AcDbHatch
10
0
20
0
30
0
210
0
220
0
230
1
2
SOLID
70
1
71
0
91
1
92
3
72
0
73
1
93
4
10
57.7000
20
-14.1500
10
59
20
-14.1500
10
59
20
-14.9000
10
57.7000
20
-14.9000
97
0
75
0
76
0
98
0
0
LWPOLYLINE
5
455
100
AcDbEntity
8
gebirgsart
6
ByLayer
62
7
370
-1
100
AcDbPolyline
90
4
70
1
10
57.7000
20
-14.1500
10
59
20
-14.1500
10
59
20
-14.9000
10
57.7000
20
-14.9000
0
TEXT
5
456
100
AcDbEntity
8
gebirgsart
6
ByLayer
62
7
100
AcDbText
7
Arial
10
58.3500
20
-14.5250
40
0.2700
41
0.7500
1
43%
7
Arial
72
1
11
58.3500
21
-14.5250
100
AcDbText
73
2
0
HATCH
5
457
100
AcDbEntity
8
gebirgsart
6
ByLayer
62
28
100
AcDbHatch
10
0
20
0
30
0
210
0
220
0
230
1
2
SOLID
70
1
71
0
91
1
92
3
72
0
73
1
93
4
10
61.7000
20
-14.1500
10
63
20
-14.1500
10
63
20
-14.9000
10
61.7000
20
-14.9000
97
0
75
0
76
0
98
0
0
LWPOLYLINE
5
458
100
AcDbEntity
8
gebirgsart
6
ByLayer
62
7
370
-1
100
AcDbPolyline
90
4
70
1
10
61.7000
20
-14.1500
10
63
20
-14.1500
10
63
20
-14.9000
10
61.7000
20
-14.9000
0
TEXT
5
459
100
AcDbEntity
8
gebirgsart
6
ByLayer
62
7
100
AcDbText
7
Arial
10
62.3500
20
-14.5250
40
0.2700
41
0.7500
1
63%
7
Arial
72
1
11
62.3500
21
-14.5250
100
AcDbText
73
2
0
HATCH
5
45A
100
AcDbEntity
8
gebirgsart
6
ByLayer
62
28
100
AcDbHatch
10
0
20
0
30
0
210
0
220
0
230
1
2
SOLID
70
1
71
0
91
1
92
3
72
0
73
1
93
4
10
65.7000
20
-14.1500
10
67
20
-14.1500
10
67
20
-14.9000
10
65.7000
20
-14.9000
97
0
75
0
76
0
98
0
0
LWPOLYLINE
5
45B
100
AcDbEntity
8
gebirgsart
6
ByLayer
62
7
370
-1
100
AcDbPolyline
90
4
70
1
10
65.7000
20
-14.1500
10
67
20
-14.1500
10
67
20
-14.9000
10
65.7000
20
-14.9000
0
TEXT
5
45C
100
AcDbEntity
8
gebirgsart
6
ByLayer
62
7
100
AcDbText
7
Arial
10
66.3500
20
-14.5250
40
0.2700
41
0.7500
1
100%
7
Arial
72
1
11
66.3500
21
-14.5250
100
AcDbText
73
2
0
HATCH
5
45D
100
AcDbEntity
8
gebirgsart
6
ByLayer
62
28
100
AcDbHatch
10
0
20
0
30
0
210
0
220
0
230
1
2
SOLID
70
1
71
0
91
1
92
3
72
0
73
1
93
4
10
69.7000
20
-14.1500
10
71
20
-14.1500
10
71
20
-14.9000
10
69.7000
20
-14.9000
97
0
75
0
76
0
98
0
0
LWPOLYLINE
5
45E
100
AcDbEntity
8
gebirgsart
6
ByLayer
62
7
370
-1
100
AcDbPolyline
90
4
70
1
10
69.7000
20
-14.1500
10
71
20
-14.1500
10
71
20
-14.9000
10
69.7000
20
-14.9000
0
TEXT
5
45F
100
AcDbEntity
8
gebirgsart
6
ByLayer
62
7
100
AcDbText
7
Arial
10
70.3500
20
-14.5250
40
0.2700
41
0.7500
1
71%
7
Arial
72
1
11
70.3500
21
-14.5250
100
AcDbText
73
2
0
HATCH
5
460
100
AcDbEntity
8
gebirgsart
6
ByLayer
62
28
100
AcDbHatch
10
0
20
0
30
0
210
0
220
0
230
1
2
SOLID
70
1
71
0
91
1
92
3
72
0
73
1
93
4
10
73.7000
20
-14.1500
10
75
20
-14.1500
10
75
20
-14.9000
10
73.7000
20
-14.9000
97
0
75
0
76
0
98
0
0
LWPOLYLINE
5
461
100
AcDbEntity
8
gebirgsart
6
ByLayer
62
7
370
-1
100
AcDbPolyline
90
4
70
1
10
73.7000
20
-14.1500
10
75
20
-14.1500
10
75
20
-14.9000
10
73.7000
20
-14.9000
0
TEXT
5
462
100
AcDbEntity
8
gebirgsart
6
ByLayer
62
7
100
AcDbText
7
Arial
10
74.3500
20
-14.5250
40
0.2700
41
0.7500
1
35%
7
Arial
72
1
11
74.3500
21
-14.5250
100
AcDbText
73
2
0
HATCH
5
463
100
AcDbEntity
8
gebirgsart
6
ByLayer
62
28
100
AcDbHatch
10
0
20
0
30
0
210
0
220
0
230
1
2
SOLID
70
1
71
0
91
1
92
3
72
0
73
1
93
4
10
77.7000
20
-14.1500
10
79
20
-14.1500
10
79
20
-14.9000
10
77.7000
20
-14.9000
97
0
75
0
76
0
98
0
0
LWPOLYLINE
5
464
100
AcDbEntity
8
gebirgsart
6
ByLayer
62
7
370
-1
100
AcDbPolyline
90
4
70
1
10
77.7000
20
-14.1500
10
79
20
-14.1500
10
79
20
-14.9000
10
77.7000
20
-14.9000
0
TEXT
5
465
100
AcDbEntity
8
gebirgsart
6
ByLayer
62
7
100
AcDbText
7
Arial
10
78.3500
20
-14.5250
40
0.2700
41
0.7500
1
100%
7
Arial
72
1
11
78.3500
21
-14.5250
100
AcDbText
73
2
0
HATCH
5
466
100
AcDbEntity
8
gebirgsart
6
ByLayer
62
28
100
AcDbHatch
10
0
20
0
30
0
210
0
220
0
230
1
2
SOLID
70
1
71
0
91
1
92
3
72
0
73
1
93
4
10
81.7000
20
-14.1500
10
83
20
-14.1500
10
83
20
-14.9000
10
81.7000
20
-14.9000
97
0
75
0
76
0
98
0
0
LWPOLYLINE
5
467
100
AcDbEntity
8
gebirgsart
6
ByLayer
62
7
370
-1
100
AcDbPolyline
90
4
70
1
10
81.7000
20
-14.1500
10
83
20
-14.1500
10
83
20
-14.9000
10
81.7000
20
-14.9000
0
TEXT
5
468
100
AcDbEntity
8
gebirgsart
6
ByLayer
62
7
100
AcDbText
7
Arial
10
82.3500
20
-14.5250
40
0.2700
41
0.7500
1
100%
7
Arial
72
1
11
82.3500
21
-14.5250
100
AcDbText
73
2
0
HATCH
5
469
100
AcDbEntity
8
gebirgsart
6
ByLayer
62
28
100
AcDbHatch
10
0
20
0
30
0
210
0
220
0
230
1
2
SOLID
70
1
71
0
91
1
92
3
72
0
73
1
93
4
10
85.7000
20
-14.1500
10
87
20
-14.1500
10
87
20
-14.9000
10
85.7000
20
-14.9000
97
0
75
0
76
0
98
0
0
LWPOLYLINE
5
46A
100
AcDbEntity
8
gebirgsart
6
ByLayer
62
7
370
-1
100
AcDbPolyline
90
4
70
1
10
85.7000
20
-14.1500
10
87
20
-14.1500
10
87
20
-14.9000
10
85.7000
20
-14.9000
0
TEXT
5
46B
100
AcDbEntity
8
gebirgsart
6
ByLayer
62
7
100
AcDbText
7
Arial
10
86.3500
20
-14.5250
40
0.2700
41
0.7500
1
100%
7
Arial
72
1
11
86.3500
21
-14.5250
100
AcDbText
73
2
0
HATCH
5
46C
100
AcDbEntity
8
gebirgsart
6
ByLayer
62
28
100
AcDbHatch
10
0
20
0
30
0
210
0
220
0
230
1
2
SOLID
70
1
71
0
91
1
92
3
72
0
73
1
93
4
10
89.7000
20
-14.1500
10
91
20
-14.1500
10
91
20
-14.9000
10
89.7000
20
-14.9000
97
0
75
0
76
0
98
0
0
LWPOLYLINE
5
46D
100
AcDbEntity
8
gebirgsart
6
ByLayer
62
7
370
-1
100
AcDbPolyline
90
4
70
1
10
89.7000
20
-14.1500
10
91
20
-14.1500
10
91
20
-14.9000
10
89.7000
20
-14.9000
0
TEXT
5
46E
100
AcDbEntity
8
gebirgsart
6
ByLayer
62
7
100
AcDbText
7
Arial
10
90.3500
20
-14.5250
40
0.2700
41
0.7500
1
25%
7
Arial
72
1
11
90.3500
21
-14.5250
100
AcDbText
73
2
0
HATCH
5
46F
100
AcDbEntity
8
gebirgsart
6
ByLayer
62
28
100
AcDbHatch
10
0
20
0
30
0
210
0
220
0
230
1
2
SOLID
70
1
71
0
91
1
92
3
72
0
73
1
93
4
10
93.7000
20
-14.1500
10
95
20
-14.1500
10
95
20
-14.9000
10
93.7000
20
-14.9000
97
0
75
0
76
0
98
0
0
LWPOLYLINE
5
470
100
AcDbEntity
8
gebirgsart
6
ByLayer
62
7
370
-1
100
AcDbPolyline
90
4
70
1
10
93.7000
20
-14.1500
10
95
20
-14.1500
10
95
20
-14.9000
10
93.7000
20
-14.9000
0
TEXT
5
471
100
AcDbEntity
8
gebirgsart
6
ByLayer
62
7
100
AcDbText
7
Arial
10
94.3500
20
-14.5250
40
0.2700
41
0.7500
1
44%
7
Arial
72
1
11
94.3500
21
-14.5250
100
AcDbText
73
2
0
HATCH
5
472
100
AcDbEntity
8
gebirgsart
6
ByLayer
62
28
100
AcDbHatch
10
0
20
0
30
0
210
0
220
0
230
1
2
SOLID
70
1
71
0
91
1
92
3
72
0
73
1
93
4
10
95
20
-14.1500
10
96.3000
20
-14.1500
10
96.3000
20
-14.9000
10
95
20
-14.9000
97
0
75
0
76
0
98
0
0
LWPOLYLINE
5
473
100
AcDbEntity
8
gebirgsart
6
ByLayer
62
7
370
-1
100
AcDbPolyline
90
4
70
1
10
95
20
-14.1500
10
96.3000
20
-14.1500
10
96.3000
20
-14.9000
10
95
20
-14.9000
0
TEXT
5
474
100
AcDbEntity
8
gebirgsart
6
ByLayer
62
7
100
AcDbText
7
Arial
10
95.6500
20
-14.5250
40
0.2700
41
0.7500
1
34%
7
Arial
72
1
11
95.6500
21
-14.5250
100
AcDbText
73
2
0
HATCH
5
475
100
AcDbEntity
8
gebirgsart
6
ByLayer
62
28
100
AcDbHatch
10
0
20
0
30
0
210
0
220
0
230
1
2
SOLID
70
1
71
0
91
1
92
3
72
0
73
1
93
4
10
96.3000
20
-14.1500
10
97.6000
20
-14.1500
10
97.6000
20
-14.9000
10
96.3000
20
-14.9000
97
0
75
0
76
0
98
0
0
LWPOLYLINE
5
476
100
AcDbEntity
8
gebirgsart
6
ByLayer
62
7
370
-1
100
AcDbPolyline
90
4
70
1
10
96.3000
20
-14.1500
10
97.6000
20
-14.1500
10
97.6000
20
-14.9000
10
96.3000
20
-14.9000
0
TEXT
5
477
100
AcDbEntity
8
gebirgsart
6
ByLayer
62
7
100
AcDbText
7
Arial
10
96.9500
20
-14.5250
40
0.2700
41
0.7500
1
100%
7
Arial
72
1
11
96.9500
21
-14.5250
100
AcDbText
73
2
0
HATCH
5
478
100
AcDbEntity
8
gebirgsart
6
ByLayer
62
28
100
AcDbHatch
10
0
20
0
30
0
210
0
220
0
230
1
2
SOLID
70
1
71
0
91
1
92
3
72
0
73
1
93
4
10
97.6000
20
-14.1500
10
98.9000
20
-14.1500
10
98.9000
20
-14.9000
10
97.6000
20
-14.9000
97
0
75
0
76
0
98
0
0
LWPOLYLINE
5
479
100
AcDbEntity
8
gebirgsart
6
ByLayer
62
7
370
-1
100
AcDbPolyline
90
4
70
1
10
97.6000
20
-14.1500
10
98.9000
20
-14.1500
10
98.9000
20
-14.9000
10
97.6000
20
-14.9000
0
TEXT
5
47A
100
AcDbEntity
8
gebirgsart
6
ByLayer
62
7
100
AcDbText
7
Arial
10
98.2500
20
-14.5250
40
0.2700
41
0.7500
1
100%
7
Arial
72
1
11
98.2500
21
-14.5250
100
AcDbText
73
2
0
HATCH
5
47B
100
AcDbEntity
8
gebirgsart
6
ByLayer
62
28
100
AcDbHatch
10
0
20
0
30
0
210
0
220
0
230
1
2
SOLID
70
1
71
0
91
1
92
3
72
0
73
1
93
4
10
98.7000
20
-14.1500
10
100
20
-14.1500
10
100
20
-14.9000
10
98.7000
20
-14.9000
97
0
75
0
76
0
98
0
0
LWPOLYLINE
5
47C
100
AcDbEntity
8
gebirgsart
6
ByLayer
62
7
370
-1
100
AcDbPolyline
90
4
70
1
10
98.7000
20
-14.1500
10
100
20
-14.1500
10
100
20
-14.9000
10
98.7000
20
-14.9000
0
TEXT
5
47D
100
AcDbEntity
8
gebirgsart
6
ByLayer
62
7
100
AcDbText
7
Arial
10
99.3500
20
-14.5250
40
0.2700
41
0.7500
1
100%
7
Arial
72
1
11
99.3500
21
-14.5250
100
AcDbText
73
2
0
LINE
5
47E
100
AcDbEntity
8
gebirgsart
6
ByLayer
62
256
370
-1
100
AcDbLine
10
0
20
-14.9000
11
100
21
-14.9000
0
HATCH
5
47F
100
AcDbEntity
8
gebirgsart
6
ByLayer
62
28
100
AcDbHatch
10
0
20
0
30
0
210
0
220
0
230
1
2
SOLID
70
1
71
0
91
1
92
3
72
0
73
1
93
4
10
5.7000
20
-14.9000
10
6.9999
20
-14.9000
10
6.9999
20
-15.6500
10
5.7000
20
-15.6500
97
0
75
0
76
0
98
0
0
LWPOLYLINE
5
480
100
AcDbEntity
8
gebirgsart
6
ByLayer
62
7
370
-1
100
AcDbPolyline
90
4
70
1
10
5.7000
20
-14.9000
10
6.9999
20
-14.9000
10
6.9999
20
-15.6500
10
5.7000
20
-15.6500
0
TEXT
5
481
100
AcDbEntity
8
gebirgsart
6
ByLayer
62
7
100
AcDbText
7
Arial
10
6.3500
20
-15.2750
40
0.2700
41
0.7500
1
28%
7
Arial
72
1
11
6.3500
21
-15.2750
100
AcDbText
73
2
0
HATCH
5
482
100
AcDbEntity
8
gebirgsart
6
ByLayer
62
28
100
AcDbHatch
10
0
20
0
30
0
210
0
220
0
230
1
2
SOLID
70
1
71
0
91
1
92
3
72
0
73
1
93
4
10
10.7000
20
-14.9000
10
12
20
-14.9000
10
12
20
-15.6500
10
10.7000
20
-15.6500
97
0
75
0
76
0
98
0
0
LWPOLYLINE
5
483
100
AcDbEntity
8
gebirgsart
6
ByLayer
62
7
370
-1
100
AcDbPolyline
90
4
70
1
10
10.7000
20
-14.9000
10
12
20
-14.9000
10
12
20
-15.6500
10
10.7000
20
-15.6500
0
TEXT
5
484
100
AcDbEntity
8
gebirgsart
6
ByLayer
62
7
100
AcDbText
7
Arial
10
11.3500
20
-15.2750
40
0.2700
41
0.7500
1
40%
7
Arial
72
1
11
11.3500
21
-15.2750
100
AcDbText
73
2
0
HATCH
5
485
100
AcDbEntity
8
gebirgsart
6
ByLayer
62
28
100
AcDbHatch
10
0
20
0
30
0
210
0
220
0
230
1
2
SOLID
70
1
71
0
91
1
92
3
72
0
73
1
93
4
10
54.7000
20
-14.9000
10
56
20
-14.9000
10
56
20
-15.6500
10
54.7000
20
-15.6500
97
0
75
0
76
0
98
0
0
LWPOLYLINE
5
486
100
AcDbEntity
8
gebirgsart
6
ByLayer
62
7
370
-1
100
AcDbPolyline
90
4
70
1
10
54.7000
20
-14.9000
10
56
20
-14.9000
10
56
20
-15.6500
10
54.7000
20
-15.6500
0
TEXT
5
487
100
AcDbEntity
8
gebirgsart
6
ByLayer
62
7
100
AcDbText
7
Arial
10
55.3500
20
-15.2750
40
0.2700
41
0.7500
1
61%
7
Arial
72
1
11
55.3500
21
-15.2750
100
AcDbText
73
2
0
HATCH
5
488
100
AcDbEntity
8
gebirgsart
6
ByLayer
62
28
100
AcDbHatch
10
0
20
0
30
0
210
0
220
0
230
1
2
SOLID
70
1
71
0
91
1
92
3
72
0
73
1
93
4
10
57.7000
20
-14.9000
10
59
20
-14.9000
10
59
20
-15.6500
10
57.7000
20
-15.6500
97
0
75
0
76
0
98
0
0
LWPOLYLINE
5
489
100
AcDbEntity
8
gebirgsart
6
ByLayer
62
7
370
-1
100
AcDbPolyline
90
4
70
1
10
57.7000
20
-14.9000
10
59
20
-14.9000
10
59
20
-15.6500
10
57.7000
20
-15.6500
0
TEXT
5
48A
100
AcDbEntity
8
gebirgsart
6
ByLayer
62
7
100
AcDbText
7
Arial
10
58.3500
20
-15.2750
40
0.2700
41
0.7500
1
57%
7
Arial
72
1
11
58.3500
21
-15.2750
100
AcDbText
73
2
0
HATCH
5
48B
100
AcDbEntity
8
gebirgsart
6
ByLayer
62
28
100
AcDbHatch
10
0
20
0
30
0
210
0
220
0
230
1
2
SOLID
70
1
71
0
91
1
92
3
72
0
73
1
93
4
10
61.7000
20
-14.9000
10
63
20
-14.9000
10
63
20
-15.6500
10
61.7000
20
-15.6500
97
0
75
0
76
0
98
0
0
LWPOLYLINE
5
48C
100
AcDbEntity
8
gebirgsart
6
ByLayer
62
7
370
-1
100
AcDbPolyline
90
4
70
1
10
61.7000
20
-14.9000
10
63
20
-14.9000
10
63
20
-15.6500
10
61.7000
20
-15.6500
0
TEXT
5
48D
100
AcDbEntity
8
gebirgsart
6
ByLayer
62
7
100
AcDbText
7
Arial
10
62.3500
20
-15.2750
40
0.2700
41
0.7500
1
37%
7
Arial
72
1
11
62.3500
21
-15.2750
100
AcDbText
73
2
0
HATCH
5
48E
100
AcDbEntity
8
gebirgsart
6
ByLayer
62
28
100
AcDbHatch
10
0
20
0
30
0
210
0
220
0
230
1
2
SOLID
70
1
71
0
91
1
92
3
72
0
73
1
93
4
10
69.7000
20
-14.9000
10
71
20
-14.9000
10
71
20
-15.6500
10
69.7000
20
-15.6500
97
0
75
0
76
0
98
0
0
LWPOLYLINE
5
48F
100
AcDbEntity
8
gebirgsart
6
ByLayer
62
7
370
-1
100
AcDbPolyline
90
4
70
1
10
69.7000
20
-14.9000
10
71
20
-14.9000
10
71
20
-15.6500
10
69.7000
20
-15.6500
0
TEXT
5
490
100
AcDbEntity
8
gebirgsart
6
ByLayer
62
7
100
AcDbText
7
Arial
10
70.3500
20
-15.2750
40
0.2700
41
0.7500
1
29%
7
Arial
72
1
11
70.3500
21
-15.2750
100
AcDbText
73
2
0
HATCH
5
491
100
AcDbEntity
8
gebirgsart
6
ByLayer
62
28
100
AcDbHatch
10
0
20
0
30
0
210
0
220
0
230
1
2
SOLID
70
1
71
0
91
1
92
3
72
0
73
1
93
4
10
73.7000
20
-14.9000
10
75
20
-14.9000
10
75
20
-15.6500
10
73.7000
20
-15.6500
97
0
75
0
76
0
98
0
0
LWPOLYLINE
5
492
100
AcDbEntity
8
gebirgsart
6
ByLayer
62
7
370
-1
100
AcDbPolyline
90
4
70
1
10
73.7000
20
-14.9000
10
75
20
-14.9000
10
75
20
-15.6500
10
73.7000
20
-15.6500
0
TEXT
5
493
100
AcDbEntity
8
gebirgsart
6
ByLayer
62
7
100
AcDbText
7
Arial
10
74.3500
20
-15.2750
40
0.2700
41
0.7500
1
65%
7
Arial
72
1
11
74.3500
21
-15.2750
100
AcDbText
73
2
0
HATCH
5
494
100
AcDbEntity
8
gebirgsart
6
ByLayer
62
28
100
AcDbHatch
10
0
20
0
30
0
210
0
220
0
230
1
2
SOLID
70
1
71
0
91
1
92
3
72
0
73
1
93
4
10
89.7000
20
-14.9000
10
91
20
-14.9000
10
91
20
-15.6500
10
89.7000
20
-15.6500
97
0
75
0
76
0
98
0
0
LWPOLYLINE
5
495
100
AcDbEntity
8
gebirgsart
6
ByLayer
62
7
370
-1
100
AcDbPolyline
90
4
70
1
10
89.7000
20
-14.9000
10
91
20
-14.9000
10
91
20
-15.6500
10
89.7000
20
-15.6500
0
TEXT
5
496
100
AcDbEntity
8
gebirgsart
6
ByLayer
62
7
100
AcDbText
7
Arial
10
90.3500
20
-15.2750
40
0.2700
41
0.7500
1
22%
7
Arial
72
1
11
90.3500
21
-15.2750
100
AcDbText
73
2
0
HATCH
5
497
100
AcDbEntity
8
gebirgsart
6
ByLayer
62
28
100
AcDbHatch
10
0
20
0
30
0
210
0
220
0
230
1
2
SOLID
70
1
71
0
91
1
92
3
72
0
73
1
93
4
10
93.7000
20
-14.9000
10
95
20
-14.9000
10
95
20
-15.6500
10
93.7000
20
-15.6500
97
0
75
0
76
0
98
0
0
LWPOLYLINE
5
498
100
AcDbEntity
8
gebirgsart
6
ByLayer
62
7
370
-1
100
AcDbPolyline
90
4
70
1
10
93.7000
20
-14.9000
10
95
20
-14.9000
10
95
20
-15.6500
10
93.7000
20
-15.6500
0
TEXT
5
499
100
AcDbEntity
8
gebirgsart
6
ByLayer
62
7
100
AcDbText
7
Arial
10
94.3500
20
-15.2750
40
0.2700
41
0.7500
1
23%
7
Arial
72
1
11
94.3500
21
-15.2750
100
AcDbText
73
2
0
HATCH
5
49A
100
AcDbEntity
8
gebirgsart
6
ByLayer
62
28
100
AcDbHatch
10
0
20
0
30
0
210
0
220
0
230
1
2
SOLID
70
1
71
0
91
1
92
3
72
0
73
1
93
4
10
95
20
-14.9000
10
96.3000
20
-14.9000
10
96.3000
20
-15.6500
10
95
20
-15.6500
97
0
75
0
76
0
98
0
0
LWPOLYLINE
5
49B
100
AcDbEntity
8
gebirgsart
6
ByLayer
62
7
370
-1
100
AcDbPolyline
90
4
70
1
10
95
20
-14.9000
10
96.3000
20
-14.9000
10
96.3000
20
-15.6500
10
95
20
-15.6500
0
TEXT
5
49C
100
AcDbEntity
8
gebirgsart
6
ByLayer
62
7
100
AcDbText
7
Arial
10
95.6500
20
-15.2750
40
0.2700
41
0.7500
1
40%
7
Arial
72
1
11
95.6500
21
-15.2750
100
AcDbText
73
2
0
LINE
5
49D
100
AcDbEntity
8
gebirgsart
6
ByLayer
62
256
370
-1
100
AcDbLine
10
0
20
-15.6500
11
100
21
-15.6500
0
HATCH
5
49E
100
AcDbEntity
8
gebirgsart
6
ByLayer
62
28
100
AcDbHatch
10
0
20
0
30
0
210
0
220
0
230
1
2
SOLID
70
1
71
0
91
1
92
3
72
0
73
1
93
4
10
89.7000
20
-15.6500
10
91
20
-15.6500
10
91
20
-16.4000
10
89.7000
20
-16.4000
97
0
75
0
76
0
98
0
0
LWPOLYLINE
5
49F
100
AcDbEntity
8
gebirgsart
6
ByLayer
62
7
370
-1
100
AcDbPolyline
90
4
70
1
10
89.7000
20
-15.6500
10
91
20
-15.6500
10
91
20
-16.4000
10
89.7000
20
-16.4000
0
TEXT
5
4A0
100
AcDbEntity
8
gebirgsart
6
ByLayer
62
7
100
AcDbText
7
Arial
10
90.3500
20
-16.0250
40
0.2700
41
0.7500
1
53%
7
Arial
72
1
11
90.3500
21
-16.0250
100
AcDbText
73
2
0
HATCH
5
4A1
100
AcDbEntity
8
gebirgsart
6
ByLayer
62
28
100
AcDbHatch
10
0
20
0
30
0
210
0
220
0
230
1
2
SOLID
70
1
71
0
91
1
92
3
72
0
73
1
93
4
10
93.7000
20
-15.6500
10
95
20
-15.6500
10
95
20
-16.4000
10
93.7000
20
-16.4000
97
0
75
0
76
0
98
0
0
LWPOLYLINE
5
4A2
100
AcDbEntity
8
gebirgsart
6
ByLayer
62
7
370
-1
100
AcDbPolyline
90
4
70
1
10
93.7000
20
-15.6500
10
95
20
-15.6500
10
95
20
-16.4000
10
93.7000
20
-16.4000
0
TEXT
5
4A3
100
AcDbEntity
8
gebirgsart
6
ByLayer
62
7
100
AcDbText
7
Arial
10
94.3500
20
-16.0250
40
0.2700
41
0.7500
1
33%
7
Arial
72
1
11
94.3500
21
-16.0250
100
AcDbText
73
2
0
HATCH
5
4A4
100
AcDbEntity
8
gebirgsart
6
ByLayer
62
28
100
AcDbHatch
10
0
20
0
30
0
210
0
220
0
230
1
2
SOLID
70
1
71
0
91
1
92
3
72
0
73
1
93
4
10
95
20
-15.6500
10
96.3000
20
-15.6500
10
96.3000
20
-16.4000
10
95
20
-16.4000
97
0
75
0
76
0
98
0
0
LWPOLYLINE
5
4A5
100
AcDbEntity
8
gebirgsart
6
ByLayer
62
7
370
-1
100
AcDbPolyline
90
4
70
1
10
95
20
-15.6500
10
96.3000
20
-15.6500
10
96.3000
20
-16.4000
10
95
20
-16.4000
0
TEXT
5
4A6
100
AcDbEntity
8
gebirgsart
6
ByLayer
62
7
100
AcDbText
7
Arial
10
95.6500
20
-16.0250
40
0.2700
41
0.7500
1
26%
7
Arial
72
1
11
95.6500
21
-16.0250
100
AcDbText
73
2
0
LINE
5
4A7
100
AcDbEntity
8
gebirgsart
6
ByLayer
62
256
370
-1
100
AcDbLine
10
0
20
-16.4000
11
100
21
-16.4000
0
LWPOLYLINE
5
4A8
100
AcDbEntity
8
gebirgsart
6
ByLayer
62
7
370
30
100
AcDbPolyline
90
4
70
1
10
105.2000
20
-14.1500
10
110.7000
20
-14.1500
10
110.7000
20
-16.4000
10
105.2000
20
-16.4000
0
LWPOLYLINE
5
4A9
100
AcDbEntity
8
gebirgsart
6
ByLayer
62
7
370
30
100
AcDbPolyline
90
4
70
1
10
100
20
-14.1500
10
105.2000
20
-14.1500
10
105.2000
20
-16.4000
10
100
20
-16.4000
0
TEXT
5
4AA
100
AcDbEntity
8
gebirgsart
6
ByLayer
62
7
100
AcDbText
7
Arial
10
110.5000
20
-15.2750
40
0.4500
41
0.7500
1
Gebirgsart
7
Arial
72
2
11
110.5000
21
-15.2750
100
AcDbText
73
2
0
TEXT
5
4AB
100
AcDbEntity
8
gebirgsart
6
ByLayer
62
7
100
AcDbText
7
Arial
10
100.2000
20
-14.5250
40
0.2700
41
0.7500
1
GA 1
7
Arial
11
100.2000
21
-14.5250
100
AcDbText
73
2
0
LINE
5
4AC
100
AcDbEntity
8
gebirgsart
6
ByLayer
62
256
370
-1
100
AcDbLine
10
100
20
-14.9000
11
105.2000
21
-14.9000
0
TEXT
5
4AD
100
AcDbEntity
8
gebirgsart
6
ByLayer
62
7
100
AcDbText
7
Arial
10
100.2000
20
-15.2750
40
0.2700
41
0.7500
1
GA 2
7
Arial
11
100.2000
21
-15.2750
100
AcDbText
73
2
0
LINE
5
4AE
100
AcDbEntity
8
gebirgsart
6
ByLayer
62
256
370
-1
100
AcDbLine
10
100
20
-15.6500
11
105.2000
21
-15.6500
0
TEXT
5
4AF
100
AcDbEntity
8
gebirgsart
6
ByLayer
62
7
100
AcDbText
7
Arial
10
100.2000
20
-16.0250
40
0.2700
41
0.7500
1
GA 3
7
Arial
11
100.2000
21
-16.0250
100
AcDbText
73
2
0
LINE
5
4B0
100
AcDbEntity
8
gebirgsart
6
ByLayer
62
256
370
-1
100
AcDbLine
10
100
20
-16.4000
11
105.2000
21
-16.4000
0
LWPOLYLINE
5
4B1
100
AcDbEntity
8
gebirgsart
6
ByLayer
62
7
370
30
100
AcDbPolyline
90
4
70
1
10
0
20
-14.1500
10
100
20
-14.1500
10
100
20
-16.4000
10
0
20
-16.4000
0
LWPOLYLINE
5
4B3
100
AcDbEntity
8
festigkeit
6
ByLayer
62
7
370
30
100
AcDbPolyline
90
4
70
1
10
-10.7000
20
-16.4000
10
-5.2000
20
-16.4000
10
-5.2000
20
-20.1500
10
-10.7000
20
-20.1500
0
LWPOLYLINE
5
4B4
100
AcDbEntity
8
festigkeit
6
ByLayer
62
7
370
30
100
AcDbPolyline
90
4
70
1
10
-5.2000
20
-16.4000
10
0
20
-16.4000
10
0
20
-20.1500
10
-5.2000
20
-20.1500
0
TEXT
5
4B5
100
AcDbEntity
8
festigkeit
6
ByLayer
62
7
100
AcDbText
7
Arial
10
-10.5000
20
-18.2750
40
0.4500
41
0.7500
1
Festigkeit
7
Arial
11
-10.5000
21
-18.2750
100
AcDbText
73
2
0
TEXT
5
4B6
100
AcDbEntity
8
festigkeit
6
ByLayer
62
7
100
AcDbText
7
Arial
10
-0.2000
20
-16.7750
40
0.2700
41
0.7500
1
entfestigt
7
Arial
72
2
11
-0.2000
21
-16.7750
100
AcDbText
73
2
0
LINE
5
4B7
100
AcDbEntity
8
festigkeit
6
ByLayer
62
256
370
-1
100
AcDbLine
10
-5.2000
20
-17.1500
11
0
21
-17.1500
0
TEXT
5
4B8
100
AcDbEntity
8
festigkeit
6
ByLayer
62
7
100
AcDbText
7
Arial
10
-0.2000
20
-17.5250
40
0.2700
41
0.7500
1
mürbe
7
Arial
72
2
11
-0.2000
21
-17.5250
100
AcDbText
73
2
0
LINE
5
4B9
100
AcDbEntity
8
festigkeit
6
ByLayer
62
256
370
-1
100
AcDbLine
10
-5.2000
20
-17.9000
11
0
21
-17.9000
0
TEXT
5
4BA
100
AcDbEntity
8
festigkeit
6
ByLayer
62
7
100
AcDbText
7
Arial
10
-0.2000
20
-18.2750
40
0.2700
41
0.7500
1
mäßig hart
7
Arial
72
2
11
-0.2000
21
-18.2750
100
AcDbText
73
2
0
LINE
5
4BB
100
AcDbEntity
8
festigkeit
6
ByLayer
62
256
370
-1
100
AcDbLine
10
-5.2000
20
-18.6500
11
0
21
-18.6500
0
TEXT
5
4BC
100
AcDbEntity
8
festigkeit
6
ByLayer
62
7
100
AcDbText
7
Arial
10
-0.2000
20
-19.0250
40
0.2700
41
0.7500
1
hart
7
Arial
72
2
11
-0.2000
21
-19.0250
100
AcDbText
73
2
0
LINE
5
4BD
100
AcDbEntity
8
festigkeit
6
ByLayer
62
256
370
-1
100
AcDbLine
10
-5.2000
20
-19.4000
11
0
21
-19.4000
0
TEXT
5
4BE
100
AcDbEntity
8
festigkeit
6
ByLayer
62
7
100
AcDbText
7
Arial
10
-0.2000
20
-19.7750
40
0.2700
41
0.7500
1
sehr hart
7
Arial
72
2
11
-0.2000
21
-19.7750
100
AcDbText
73
2
0
LINE
5
4BF
100
AcDbEntity
8
festigkeit
6
ByLayer
62
256
370
-1
100
AcDbLine
10
-5.2000
20
-20.1500
11
0
21
-20.1500
0
HATCH
5
4C0
100
AcDbEntity
8
festigkeit
6
ByLayer
62
4
100
AcDbHatch
10
0
20
0
30
0
210
0
220
0
230
1
2
SOLID
70
1
71
0
91
1
92
3
72
0
73
1
93
4
10
57.7000
20
-16.4000
10
59
20
-16.4000
10
59
20
-17.1500
10
57.7000
20
-17.1500
97
0
75
0
76
0
98
0
0
LWPOLYLINE
5
4C1
100
AcDbEntity
8
festigkeit
6
ByLayer
62
7
370
-1
100
AcDbPolyline
90
4
70
1
10
57.7000
20
-16.4000
10
59
20
-16.4000
10
59
20
-17.1500
10
57.7000
20
-17.1500
0
TEXT
5
4C2
100
AcDbEntity
8
festigkeit
6
ByLayer
62
7
100
AcDbText
7
Arial
10
58.3500
20
-16.7750
40
0.2700
41
0.7500
1
100%
7
Arial
72
1
11
58.3500
21
-16.7750
100
AcDbText
73
2
0
HATCH
5
4C3
100
AcDbEntity
8
festigkeit
6
ByLayer
62
4
100
AcDbHatch
10
0
20
0
30
0
210
0
220
0
230
1
2
SOLID
70
1
71
0
91
1
92
3
72
0
73
1
93
4
10
61.7000
20
-16.4000
10
63
20
-16.4000
10
63
20
-17.1500
10
61.7000
20
-17.1500
97
0
75
0
76
0
98
0
0
LWPOLYLINE
5
4C4
100
AcDbEntity
8
festigkeit
6
ByLayer
62
7
370
-1
100
AcDbPolyline
90
4
70
1
10
61.7000
20
-16.4000
10
63
20
-16.4000
10
63
20
-17.1500
10
61.7000
20
-17.1500
0
TEXT
5
4C5
100
AcDbEntity
8
festigkeit
6
ByLayer
62
7
100
AcDbText
7
Arial
10
62.3500
20
-16.7750
40
0.2700
41
0.7500
1
100%
7
Arial
72
1
11
62.3500
21
-16.7750
100
AcDbText
73
2
0
HATCH
5
4C6
100
AcDbEntity
8
festigkeit
6
ByLayer
62
4
100
AcDbHatch
10
0
20
0
30
0
210
0
220
0
230
1
2
SOLID
70
1
71
0
91
1
92
3
72
0
73
1
93
4
10
65.7000
20
-16.4000
10
67
20
-16.4000
10
67
20
-17.1500
10
65.7000
20
-17.1500
97
0
75
0
76
0
98
0
0
LWPOLYLINE
5
4C7
100
AcDbEntity
8
festigkeit
6
ByLayer
62
7
370
-1
100
AcDbPolyline
90
4
70
1
10
65.7000
20
-16.4000
10
67
20
-16.4000
10
67
20
-17.1500
10
65.7000
20
-17.1500
0
TEXT
5
4C8
100
AcDbEntity
8
festigkeit
6
ByLayer
62
7
100
AcDbText
7
Arial
10
66.3500
20
-16.7750
40
0.2700
41
0.7500
1
100%
7
Arial
72
1
11
66.3500
21
-16.7750
100
AcDbText
73
2
0
HATCH
5
4C9
100
AcDbEntity
8
festigkeit
6
ByLayer
62
4
100
AcDbHatch
10
0
20
0
30
0
210
0
220
0
230
1
2
SOLID
70
1
71
0
91
1
92
3
72
0
73
1
93
4
10
69.7000
20
-16.4000
10
71
20
-16.4000
10
71
20
-17.1500
10
69.7000
20
-17.1500
97
0
75
0
76
0
98
0
0
LWPOLYLINE
5
4CA
100
AcDbEntity
8
festigkeit
6
ByLayer
62
7
370
-1
100
AcDbPolyline
90
4
70
1
10
69.7000
20
-16.4000
10
71
20
-16.4000
10
71
20
-17.1500
10
69.7000
20
-17.1500
0
TEXT
5
4CB
100
AcDbEntity
8
festigkeit
6
ByLayer
62
7
100
AcDbText
7
Arial
10
70.3500
20
-16.7750
40
0.2700
41
0.7500
1
71%
7
Arial
72
1
11
70.3500
21
-16.7750
100
AcDbText
73
2
0
HATCH
5
4CC
100
AcDbEntity
8
festigkeit
6
ByLayer
62
4
100
AcDbHatch
10
0
20
0
30
0
210
0
220
0
230
1
2
SOLID
70
1
71
0
91
1
92
3
72
0
73
1
93
4
10
73.7000
20
-16.4000
10
75
20
-16.4000
10
75
20
-17.1500
10
73.7000
20
-17.1500
97
0
75
0
76
0
98
0
0
LWPOLYLINE
5
4CD
100
AcDbEntity
8
festigkeit
6
ByLayer
62
7
370
-1
100
AcDbPolyline
90
4
70
1
10
73.7000
20
-16.4000
10
75
20
-16.4000
10
75
20
-17.1500
10
73.7000
20
-17.1500
0
TEXT
5
4CE
100
AcDbEntity
8
festigkeit
6
ByLayer
62
7
100
AcDbText
7
Arial
10
74.3500
20
-16.7750
40
0.2700
41
0.7500
1
100%
7
Arial
72
1
11
74.3500
21
-16.7750
100
AcDbText
73
2
0
HATCH
5
4CF
100
AcDbEntity
8
festigkeit
6
ByLayer
62
4
100
AcDbHatch
10
0
20
0
30
0
210
0
220
0
230
1
2
SOLID
70
1
71
0
91
1
92
3
72
0
73
1
93
4
10
77.7000
20
-16.4000
10
79
20
-16.4000
10
79
20
-17.1500
10
77.7000
20
-17.1500
97
0
75
0
76
0
98
0
0
LWPOLYLINE
5
4D0
100
AcDbEntity
8
festigkeit
6
ByLayer
62
7
370
-1
100
AcDbPolyline
90
4
70
1
10
77.7000
20
-16.4000
10
79
20
-16.4000
10
79
20
-17.1500
10
77.7000
20
-17.1500
0
TEXT
5
4D1
100
AcDbEntity
8
festigkeit
6
ByLayer
62
7
100
AcDbText
7
Arial
10
78.3500
20
-16.7750
40
0.2700
41
0.7500
1
100%
7
Arial
72
1
11
78.3500
21
-16.7750
100
AcDbText
73
2
0
HATCH
5
4D2
100
AcDbEntity
8
festigkeit
6
ByLayer
62
4
100
AcDbHatch
10
0
20
0
30
0
210
0
220
0
230
1
2
SOLID
70
1
71
0
91
1
92
3
72
0
73
1
93
4
10
81.7000
20
-16.4000
10
83
20
-16.4000
10
83
20
-17.1500
10
81.7000
20
-17.1500
97
0
75
0
76
0
98
0
0
LWPOLYLINE
5
4D3
100
AcDbEntity
8
festigkeit
6
ByLayer
62
7
370
-1
100
AcDbPolyline
90
4
70
1
10
81.7000
20
-16.4000
10
83
20
-16.4000
10
83
20
-17.1500
10
81.7000
20
-17.1500
0
TEXT
5
4D4
100
AcDbEntity
8
festigkeit
6
ByLayer
62
7
100
AcDbText
7
Arial
10
82.3500
20
-16.7750
40
0.2700
41
0.7500
1
100%
7
Arial
72
1
11
82.3500
21
-16.7750
100
AcDbText
73
2
0
HATCH
5
4D5
100
AcDbEntity
8
festigkeit
6
ByLayer
62
4
100
AcDbHatch
10
0
20
0
30
0
210
0
220
0
230
1
2
SOLID
70
1
71
0
91
1
92
3
72
0
73
1
93
4
10
85.7000
20
-16.4000
10
87
20
-16.4000
10
87
20
-17.1500
10
85.7000
20
-17.1500
97
0
75
0
76
0
98
0
0
LWPOLYLINE
5
4D6
100
AcDbEntity
8
festigkeit
6
ByLayer
62
7
370
-1
100
AcDbPolyline
90
4
70
1
10
85.7000
20
-16.4000
10
87
20
-16.4000
10
87
20
-17.1500
10
85.7000
20
-17.1500
0
TEXT
5
4D7
100
AcDbEntity
8
festigkeit
6
ByLayer
62
7
100
AcDbText
7
Arial
10
86.3500
20
-16.7750
40
0.2700
41
0.7500
1
100%
7
Arial
72
1
11
86.3500
21
-16.7750
100
AcDbText
73
2
0
LINE
5
4D8
100
AcDbEntity
8
festigkeit
6
ByLayer
62
256
370
-1
100
AcDbLine
10
0
20
-17.1500
11
100
21
-17.1500
0
HATCH
5
4D9
100
AcDbEntity
8
festigkeit
6
ByLayer
62
4
100
AcDbHatch
10
0
20
0
30
0
210
0
220
0
230
1
2
SOLID
70
1
71
0
91
1
92
3
72
0
73
1
93
4
10
69.7000
20
-17.1500
10
71
20
-17.1500
10
71
20
-17.9000
10
69.7000
20
-17.9000
97
0
75
0
76
0
98
0
0
LWPOLYLINE
5
4DA
100
AcDbEntity
8
festigkeit
6
ByLayer
62
7
370
-1
100
AcDbPolyline
90
4
70
1
10
69.7000
20
-17.1500
10
71
20
-17.1500
10
71
20
-17.9000
10
69.7000
20
-17.9000
0
TEXT
5
4DB
100
AcDbEntity
8
festigkeit
6
ByLayer
62
7
100
AcDbText
7
Arial
10
70.3500
20
-17.5250
40
0.2700
41
0.7500
1
29%
7
Arial
72
1
11
70.3500
21
-17.5250
100
AcDbText
73
2
0
LINE
5
4DC
100
AcDbEntity
8
festigkeit
6
ByLayer
62
256
370
-1
100
AcDbLine
10
0
20
-17.9000
11
100
21
-17.9000
0
HATCH
5
4DD
100
AcDbEntity
8
festigkeit
6
ByLayer
62
4
100
AcDbHatch
10
0
20
0
30
0
210
0
220
0
230
1
2
SOLID
70
1
71
0
91
1
92
3
72
0
73
1
93
4
10
-0.3000
20
-17.9000
10
1
20
-17.9000
10
1
20
-18.6500
10
-0.3000
20
-18.6500
97
0
75
0
76
0
98
0
0
LWPOLYLINE
5
4DE
100
AcDbEntity
8
festigkeit
6
ByLayer
62
7
370
-1
100
AcDbPolyline
90
4
70
1
10
-0.3000
20
-17.9000
10
1
20
-17.9000
10
1
20
-18.6500
10
-0.3000
20
-18.6500
0
TEXT
5
4DF
100
AcDbEntity
8
festigkeit
6
ByLayer
62
7
100
AcDbText
7
Arial
10
0.3500
20
-18.2750
40
0.2700
41
0.7500
1
100%
7
Arial
72
1
11
0.3500
21
-18.2750
100
AcDbText
73
2
0
HATCH
5
4E0
100
AcDbEntity
8
festigkeit
6
ByLayer
62
4
100
AcDbHatch
10
0
20
0
30
0
210
0
220
0
230
1
2
SOLID
70
1
71
0
91
1
92
3
72
0
73
1
93
4
10
5.7000
20
-17.9000
10
6.9999
20
-17.9000
10
6.9999
20
-18.6500
10
5.7000
20
-18.6500
97
0
75
0
76
0
98
0
0
LWPOLYLINE
5
4E1
100
AcDbEntity
8
festigkeit
6
ByLayer
62
7
370
-1
100
AcDbPolyline
90
4
70
1
10
5.7000
20
-17.9000
10
6.9999
20
-17.9000
10
6.9999
20
-18.6500
10
5.7000
20
-18.6500
0
TEXT
5
4E2
100
AcDbEntity
8
festigkeit
6
ByLayer
62
7
100
AcDbText
7
Arial
10
6.3500
20
-18.2750
40
0.2700
41
0.7500
1
100%
7
Arial
72
1
11
6.3500
21
-18.2750
100
AcDbText
73
2
0
HATCH
5
4E3
100
AcDbEntity
8
festigkeit
6
ByLayer
62
4
100
AcDbHatch
10
0
20
0
30
0
210
0
220
0
230
1
2
SOLID
70
1
71
0
91
1
92
3
72
0
73
1
93
4
10
10.7000
20
-17.9000
10
12
20
-17.9000
10
12
20
-18.6500
10
10.7000
20
-18.6500
97
0
75
0
76
0
98
0
0
LWPOLYLINE
5
4E4
100
AcDbEntity
8
festigkeit
6
ByLayer
62
7
370
-1
100
AcDbPolyline
90
4
70
1
10
10.7000
20
-17.9000
10
12
20
-17.9000
10
12
20
-18.6500
10
10.7000
20
-18.6500
0
TEXT
5
4E5
100
AcDbEntity
8
festigkeit
6
ByLayer
62
7
100
AcDbText
7
Arial
10
11.3500
20
-18.2750
40
0.2700
41
0.7500
1
100%
7
Arial
72
1
11
11.3500
21
-18.2750
100
AcDbText
73
2
0
HATCH
5
4E6
100
AcDbEntity
8
festigkeit
6
ByLayer
62
4
100
AcDbHatch
10
0
20
0
30
0
210
0
220
0
230
1
2
SOLID
70
1
71
0
91
1
92
3
72
0
73
1
93
4
10
15.7000
20
-17.9000
10
17
20
-17.9000
10
17
20
-18.6500
10
15.7000
20
-18.6500
97
0
75
0
76
0
98
0
0
LWPOLYLINE
5
4E7
100
AcDbEntity
8
festigkeit
6
ByLayer
62
7
370
-1
100
AcDbPolyline
90
4
70
1
10
15.7000
20
-17.9000
10
17
20
-17.9000
10
17
20
-18.6500
10
15.7000
20
-18.6500
0
TEXT
5
4E8
100
AcDbEntity
8
festigkeit
6
ByLayer
62
7
100
AcDbText
7
Arial
10
16.3500
20
-18.2750
40
0.2700
41
0.7500
1
100%
7
Arial
72
1
11
16.3500
21
-18.2750
100
AcDbText
73
2
0
HATCH
5
4E9
100
AcDbEntity
8
festigkeit
6
ByLayer
62
4
100
AcDbHatch
10
0
20
0
30
0
210
0
220
0
230
1
2
SOLID
70
1
71
0
91
1
92
3
72
0
73
1
93
4
10
20.7000
20
-17.9000
10
22
20
-17.9000
10
22
20
-18.6500
10
20.7000
20
-18.6500
97
0
75
0
76
0
98
0
0
LWPOLYLINE
5
4EA
100
AcDbEntity
8
festigkeit
6
ByLayer
62
7
370
-1
100
AcDbPolyline
90
4
70
1
10
20.7000
20
-17.9000
10
22
20
-17.9000
10
22
20
-18.6500
10
20.7000
20
-18.6500
0
TEXT
5
4EB
100
AcDbEntity
8
festigkeit
6
ByLayer
62
7
100
AcDbText
7
Arial
10
21.3500
20
-18.2750
40
0.2700
41
0.7500
1
100%
7
Arial
72
1
11
21.3500
21
-18.2750
100
AcDbText
73
2
0
HATCH
5
4EC
100
AcDbEntity
8
festigkeit
6
ByLayer
62
4
100
AcDbHatch
10
0
20
0
30
0
210
0
220
0
230
1
2
SOLID
70
1
71
0
91
1
92
3
72
0
73
1
93
4
10
23.7000
20
-17.9000
10
25
20
-17.9000
10
25
20
-18.6500
10
23.7000
20
-18.6500
97
0
75
0
76
0
98
0
0
LWPOLYLINE
5
4ED
100
AcDbEntity
8
festigkeit
6
ByLayer
62
7
370
-1
100
AcDbPolyline
90
4
70
1
10
23.7000
20
-17.9000
10
25
20
-17.9000
10
25
20
-18.6500
10
23.7000
20
-18.6500
0
TEXT
5
4EE
100
AcDbEntity
8
festigkeit
6
ByLayer
62
7
100
AcDbText
7
Arial
10
24.3500
20
-18.2750
40
0.2700
41
0.7500
1
100%
7
Arial
72
1
11
24.3500
21
-18.2750
100
AcDbText
73
2
0
HATCH
5
4EF
100
AcDbEntity
8
festigkeit
6
ByLayer
62
4
100
AcDbHatch
10
0
20
0
30
0
210
0
220
0
230
1
2
SOLID
70
1
71
0
91
1
92
3
72
0
73
1
93
4
10
27.7000
20
-17.9000
10
29
20
-17.9000
10
29
20
-18.6500
10
27.7000
20
-18.6500
97
0
75
0
76
0
98
0
0
LWPOLYLINE
5
4F0
100
AcDbEntity
8
festigkeit
6
ByLayer
62
7
370
-1
100
AcDbPolyline
90
4
70
1
10
27.7000
20
-17.9000
10
29
20
-17.9000
10
29
20
-18.6500
10
27.7000
20
-18.6500
0
TEXT
5
4F1
100
AcDbEntity
8
festigkeit
6
ByLayer
62
7
100
AcDbText
7
Arial
10
28.3500
20
-18.2750
40
0.2700
41
0.7500
1
100%
7
Arial
72
1
11
28.3500
21
-18.2750
100
AcDbText
73
2
0
HATCH
5
4F2
100
AcDbEntity
8
festigkeit
6
ByLayer
62
4
100
AcDbHatch
10
0
20
0
30
0
210
0
220
0
230
1
2
SOLID
70
1
71
0
91
1
92
3
72
0
73
1
93
4
10
31.7000
20
-17.9000
10
33
20
-17.9000
10
33
20
-18.6500
10
31.7000
20
-18.6500
97
0
75
0
76
0
98
0
0
LWPOLYLINE
5
4F3
100
AcDbEntity
8
festigkeit
6
ByLayer
62
7
370
-1
100
AcDbPolyline
90
4
70
1
10
31.7000
20
-17.9000
10
33
20
-17.9000
10
33
20
-18.6500
10
31.7000
20
-18.6500
0
TEXT
5
4F4
100
AcDbEntity
8
festigkeit
6
ByLayer
62
7
100
AcDbText
7
Arial
10
32.3500
20
-18.2750
40
0.2700
41
0.7500
1
100%
7
Arial
72
1
11
32.3500
21
-18.2750
100
AcDbText
73
2
0
HATCH
5
4F5
100
AcDbEntity
8
festigkeit
6
ByLayer
62
4
100
AcDbHatch
10
0
20
0
30
0
210
0
220
0
230
1
2
SOLID
70
1
71
0
91
1
92
3
72
0
73
1
93
4
10
35.7000
20
-17.9000
10
37
20
-17.9000
10
37
20
-18.6500
10
35.7000
20
-18.6500
97
0
75
0
76
0
98
0
0
LWPOLYLINE
5
4F6
100
AcDbEntity
8
festigkeit
6
ByLayer
62
7
370
-1
100
AcDbPolyline
90
4
70
1
10
35.7000
20
-17.9000
10
37
20
-17.9000
10
37
20
-18.6500
10
35.7000
20
-18.6500
0
TEXT
5
4F7
100
AcDbEntity
8
festigkeit
6
ByLayer
62
7
100
AcDbText
7
Arial
10
36.3500
20
-18.2750
40
0.2700
41
0.7500
1
100%
7
Arial
72
1
11
36.3500
21
-18.2750
100
AcDbText
73
2
0
HATCH
5
4F8
100
AcDbEntity
8
festigkeit
6
ByLayer
62
4
100
AcDbHatch
10
0
20
0
30
0
210
0
220
0
230
1
2
SOLID
70
1
71
0
91
1
92
3
72
0
73
1
93
4
10
38.7000
20
-17.9000
10
40
20
-17.9000
10
40
20
-18.6500
10
38.7000
20
-18.6500
97
0
75
0
76
0
98
0
0
LWPOLYLINE
5
4F9
100
AcDbEntity
8
festigkeit
6
ByLayer
62
7
370
-1
100
AcDbPolyline
90
4
70
1
10
38.7000
20
-17.9000
10
40
20
-17.9000
10
40
20
-18.6500
10
38.7000
20
-18.6500
0
TEXT
5
4FA
100
AcDbEntity
8
festigkeit
6
ByLayer
62
7
100
AcDbText
7
Arial
10
39.3500
20
-18.2750
40
0.2700
41
0.7500
1
100%
7
Arial
72
1
11
39.3500
21
-18.2750
100
AcDbText
73
2
0
HATCH
5
4FB
100
AcDbEntity
8
festigkeit
6
ByLayer
62
4
100
AcDbHatch
10
0
20
0
30
0
210
0
220
0
230
1
2
SOLID
70
1
71
0
91
1
92
3
72
0
73
1
93
4
10
43.7000
20
-17.9000
10
45
20
-17.9000
10
45
20
-18.6500
10
43.7000
20
-18.6500
97
0
75
0
76
0
98
0
0
LWPOLYLINE
5
4FC
100
AcDbEntity
8
festigkeit
6
ByLayer
62
7
370
-1
100
AcDbPolyline
90
4
70
1
10
43.7000
20
-17.9000
10
45
20
-17.9000
10
45
20
-18.6500
10
43.7000
20
-18.6500
0
TEXT
5
4FD
100
AcDbEntity
8
festigkeit
6
ByLayer
62
7
100
AcDbText
7
Arial
10
44.3500
20
-18.2750
40
0.2700
41
0.7500
1
100%
7
Arial
72
1
11
44.3500
21
-18.2750
100
AcDbText
73
2
0
HATCH
5
4FE
100
AcDbEntity
8
festigkeit
6
ByLayer
62
4
100
AcDbHatch
10
0
20
0
30
0
210
0
220
0
230
1
2
SOLID
70
1
71
0
91
1
92
3
72
0
73
1
93
4
10
46.7000
20
-17.9000
10
48
20
-17.9000
10
48
20
-18.6500
10
46.7000
20
-18.6500
97
0
75
0
76
0
98
0
0
LWPOLYLINE
5
4FF
100
AcDbEntity
8
festigkeit
6
ByLayer
62
7
370
-1
100
AcDbPolyline
90
4
70
1
10
46.7000
20
-17.9000
10
48
20
-17.9000
10
48
20
-18.6500
10
46.7000
20
-18.6500
0
TEXT
5
500
100
AcDbEntity
8
festigkeit
6
ByLayer
62
7
100
AcDbText
7
Arial
10
47.3500
20
-18.2750
40
0.2700
41
0.7500
1
100%
7
Arial
72
1
11
47.3500
21
-18.2750
100
AcDbText
73
2
0
HATCH
5
501
100
AcDbEntity
8
festigkeit
6
ByLayer
62
4
100
AcDbHatch
10
0
20
0
30
0
210
0
220
0
230
1
2
SOLID
70
1
71
0
91
1
92
3
72
0
73
1
93
4
10
50.7000
20
-17.9000
10
52
20
-17.9000
10
52
20
-18.6500
10
50.7000
20
-18.6500
97
0
75
0
76
0
98
0
0
LWPOLYLINE
5
502
100
AcDbEntity
8
festigkeit
6
ByLayer
62
7
370
-1
100
AcDbPolyline
90
4
70
1
10
50.7000
20
-17.9000
10
52
20
-17.9000
10
52
20
-18.6500
10
50.7000
20
-18.6500
0
TEXT
5
503
100
AcDbEntity
8
festigkeit
6
ByLayer
62
7
100
AcDbText
7
Arial
10
51.3500
20
-18.2750
40
0.2700
41
0.7500
1
100%
7
Arial
72
1
11
51.3500
21
-18.2750
100
AcDbText
73
2
0
HATCH
5
504
100
AcDbEntity
8
festigkeit
6
ByLayer
62
4
100
AcDbHatch
10
0
20
0
30
0
210
0
220
0
230
1
2
SOLID
70
1
71
0
91
1
92
3
72
0
73
1
93
4
10
54.7000
20
-17.9000
10
56
20
-17.9000
10
56
20
-18.6500
10
54.7000
20
-18.6500
97
0
75
0
76
0
98
0
0
LWPOLYLINE
5
505
100
AcDbEntity
8
festigkeit
6
ByLayer
62
7
370
-1
100
AcDbPolyline
90
4
70
1
10
54.7000
20
-17.9000
10
56
20
-17.9000
10
56
20
-18.6500
10
54.7000
20
-18.6500
0
TEXT
5
506
100
AcDbEntity
8
festigkeit
6
ByLayer
62
7
100
AcDbText
7
Arial
10
55.3500
20
-18.2750
40
0.2700
41
0.7500
1
100%
7
Arial
72
1
11
55.3500
21
-18.2750
100
AcDbText
73
2
0
HATCH
5
507
100
AcDbEntity
8
festigkeit
6
ByLayer
62
4
100
AcDbHatch
10
0
20
0
30
0
210
0
220
0
230
1
2
SOLID
70
1
71
0
91
1
92
3
72
0
73
1
93
4
10
89.7000
20
-17.9000
10
91
20
-17.9000
10
91
20
-18.6500
10
89.7000
20
-18.6500
97
0
75
0
76
0
98
0
0
LWPOLYLINE
5
508
100
AcDbEntity
8
festigkeit
6
ByLayer
62
7
370
-1
100
AcDbPolyline
90
4
70
1
10
89.7000
20
-17.9000
10
91
20
-17.9000
10
91
20
-18.6500
10
89.7000
20
-18.6500
0
TEXT
5
509
100
AcDbEntity
8
festigkeit
6
ByLayer
62
7
100
AcDbText
7
Arial
10
90.3500
20
-18.2750
40
0.2700
41
0.7500
1
78%
7
Arial
72
1
11
90.3500
21
-18.2750
100
AcDbText
73
2
0
HATCH
5
50A
100
AcDbEntity
8
festigkeit
6
ByLayer
62
4
100
AcDbHatch
10
0
20
0
30
0
210
0
220
0
230
1
2
SOLID
70
1
71
0
91
1
92
3
72
0
73
1
93
4
10
93.7000
20
-17.9000
10
95
20
-17.9000
10
95
20
-18.6500
10
93.7000
20
-18.6500
97
0
75
0
76
0
98
0
0
LWPOLYLINE
5
50B
100
AcDbEntity
8
festigkeit
6
ByLayer
62
7
370
-1
100
AcDbPolyline
90
4
70
1
10
93.7000
20
-17.9000
10
95
20
-17.9000
10
95
20
-18.6500
10
93.7000
20
-18.6500
0
TEXT
5
50C
100
AcDbEntity
8
festigkeit
6
ByLayer
62
7
100
AcDbText
7
Arial
10
94.3500
20
-18.2750
40
0.2700
41
0.7500
1
77%
7
Arial
72
1
11
94.3500
21
-18.2750
100
AcDbText
73
2
0
HATCH
5
50D
100
AcDbEntity
8
festigkeit
6
ByLayer
62
4
100
AcDbHatch
10
0
20
0
30
0
210
0
220
0
230
1
2
SOLID
70
1
71
0
91
1
92
3
72
0
73
1
93
4
10
95
20
-17.9000
10
96.3000
20
-17.9000
10
96.3000
20
-18.6500
10
95
20
-18.6500
97
0
75
0
76
0
98
0
0
LWPOLYLINE
5
50E
100
AcDbEntity
8
festigkeit
6
ByLayer
62
7
370
-1
100
AcDbPolyline
90
4
70
1
10
95
20
-17.9000
10
96.3000
20
-17.9000
10
96.3000
20
-18.6500
10
95
20
-18.6500
0
TEXT
5
50F
100
AcDbEntity
8
festigkeit
6
ByLayer
62
7
100
AcDbText
7
Arial
10
95.6500
20
-18.2750
40
0.2700
41
0.7500
1
60%
7
Arial
72
1
11
95.6500
21
-18.2750
100
AcDbText
73
2
0
LINE
5
510
100
AcDbEntity
8
festigkeit
6
ByLayer
62
256
370
-1
100
AcDbLine
10
0
20
-18.6500
11
100
21
-18.6500
0
LINE
5
511
100
AcDbEntity
8
festigkeit
6
ByLayer
62
256
370
-1
100
AcDbLine
10
0
20
-19.4000
11
100
21
-19.4000
0
HATCH
5
512
100
AcDbEntity
8
festigkeit
6
ByLayer
62
4
100
AcDbHatch
10
0
20
0
30
0
210
0
220
0
230
1
2
SOLID
70
1
71
0
91
1
92
3
72
0
73
1
93
4
10
89.7000
20
-19.4000
10
91
20
-19.4000
10
91
20
-20.1500
10
89.7000
20
-20.1500
97
0
75
0
76
0
98
0
0
LWPOLYLINE
5
513
100
AcDbEntity
8
festigkeit
6
ByLayer
62
7
370
-1
100
AcDbPolyline
90
4
70
1
10
89.7000
20
-19.4000
10
91
20
-19.4000
10
91
20
-20.1500
10
89.7000
20
-20.1500
0
TEXT
5
514
100
AcDbEntity
8
festigkeit
6
ByLayer
62
7
100
AcDbText
7
Arial
10
90.3500
20
-19.7750
40
0.2700
41
0.7500
1
22%
7
Arial
72
1
11
90.3500
21
-19.7750
100
AcDbText
73
2
0
HATCH
5
515
100
AcDbEntity
8
festigkeit
6
ByLayer
62
4
100
AcDbHatch
10
0
20
0
30
0
210
0
220
0
230
1
2
SOLID
70
1
71
0
91
1
92
3
72
0
73
1
93
4
10
93.7000
20
-19.4000
10
95
20
-19.4000
10
95
20
-20.1500
10
93.7000
20
-20.1500
97
0
75
0
76
0
98
0
0
LWPOLYLINE
5
516
100
AcDbEntity
8
festigkeit
6
ByLayer
62
7
370
-1
100
AcDbPolyline
90
4
70
1
10
93.7000
20
-19.4000
10
95
20
-19.4000
10
95
20
-20.1500
10
93.7000
20
-20.1500
0
TEXT
5
517
100
AcDbEntity
8
festigkeit
6
ByLayer
62
7
100
AcDbText
7
Arial
10
94.3500
20
-19.7750
40
0.2700
41
0.7500
1
23%
7
Arial
72
1
11
94.3500
21
-19.7750
100
AcDbText
73
2
0
HATCH
5
518
100
AcDbEntity
8
festigkeit
6
ByLayer
62
4
100
AcDbHatch
10
0
20
0
30
0
210
0
220
0
230
1
2
SOLID
70
1
71
0
91
1
92
3
72
0
73
1
93
4
10
95
20
-19.4000
10
96.3000
20
-19.4000
10
96.3000
20
-20.1500
10
95
20
-20.1500
97
0
75
0
76
0
98
0
0
LWPOLYLINE
5
519
100
AcDbEntity
8
festigkeit
6
ByLayer
62
7
370
-1
100
AcDbPolyline
90
4
70
1
10
95
20
-19.4000
10
96.3000
20
-19.4000
10
96.3000
20
-20.1500
10
95
20
-20.1500
0
TEXT
5
51A
100
AcDbEntity
8
festigkeit
6
ByLayer
62
7
100
AcDbText
7
Arial
10
95.6500
20
-19.7750
40
0.2700
41
0.7500
1
40%
7
Arial
72
1
11
95.6500
21
-19.7750
100
AcDbText
73
2
0
LINE
5
51B
100
AcDbEntity
8
festigkeit
6
ByLayer
62
256
370
-1
100
AcDbLine
10
0
20
-20.1500
11
100
21
-20.1500
0
LWPOLYLINE
5
51C
100
AcDbEntity
8
festigkeit
6
ByLayer
62
7
370
30
100
AcDbPolyline
90
4
70
1
10
105.2000
20
-16.4000
10
110.7000
20
-16.4000
10
110.7000
20
-20.1500
10
105.2000
20
-20.1500
0
LWPOLYLINE
5
51D
100
AcDbEntity
8
festigkeit
6
ByLayer
62
7
370
30
100
AcDbPolyline
90
4
70
1
10
100
20
-16.4000
10
105.2000
20
-16.4000
10
105.2000
20
-20.1500
10
100
20
-20.1500
0
TEXT
5
51E
100
AcDbEntity
8
festigkeit
6
ByLayer
62
7
100
AcDbText
7
Arial
10
110.5000
20
-18.2750
40
0.4500
41
0.7500
1
Festigkeit
7
Arial
72
2
11
110.5000
21
-18.2750
100
AcDbText
73
2
0
TEXT
5
51F
100
AcDbEntity
8
festigkeit
6
ByLayer
62
7
100
AcDbText
7
Arial
10
100.2000
20
-16.7750
40
0.2700
41
0.7500
1
entfestigt
7
Arial
11
100.2000
21
-16.7750
100
AcDbText
73
2
0
LINE
5
520
100
AcDbEntity
8
festigkeit
6
ByLayer
62
256
370
-1
100
AcDbLine
10
100
20
-17.1500
11
105.2000
21
-17.1500
0
TEXT
5
521
100
AcDbEntity
8
festigkeit
6
ByLayer
62
7
100
AcDbText
7
Arial
10
100.2000
20
-17.5250
40
0.2700
41
0.7500
1
mürbe
7
Arial
11
100.2000
21
-17.5250
100
AcDbText
73
2
0
LINE
5
522
100
AcDbEntity
8
festigkeit
6
ByLayer
62
256
370
-1
100
AcDbLine
10
100
20
-17.9000
11
105.2000
21
-17.9000
0
TEXT
5
523
100
AcDbEntity
8
festigkeit
6
ByLayer
62
7
100
AcDbText
7
Arial
10
100.2000
20
-18.2750
40
0.2700
41
0.7500
1
mäßig hart
7
Arial
11
100.2000
21
-18.2750
100
AcDbText
73
2
0
LINE
5
524
100
AcDbEntity
8
festigkeit
6
ByLayer
62
256
370
-1
100
AcDbLine
10
100
20
-18.6500
11
105.2000
21
-18.6500
0
TEXT
5
525
100
AcDbEntity
8
festigkeit
6
ByLayer
62
7
100
AcDbText
7
Arial
10
100.2000
20
-19.0250
40
0.2700
41
0.7500
1
hart
7
Arial
11
100.2000
21
-19.0250
100
AcDbText
73
2
0
LINE
5
526
100
AcDbEntity
8
festigkeit
6
ByLayer
62
256
370
-1
100
AcDbLine
10
100
20
-19.4000
11
105.2000
21
-19.4000
0
TEXT
5
527
100
AcDbEntity
8
festigkeit
6
ByLayer
62
7
100
AcDbText
7
Arial
10
100.2000
20
-19.7750
40
0.2700
41
0.7500
1
sehr hart
7
Arial
11
100.2000
21
-19.7750
100
AcDbText
73
2
0
LINE
5
528
100
AcDbEntity
8
festigkeit
6
ByLayer
62
256
370
-1
100
AcDbLine
10
100
20
-20.1500
11
105.2000
21
-20.1500
0
LWPOLYLINE
5
529
100
AcDbEntity
8
festigkeit
6
ByLayer
62
7
370
30
100
AcDbPolyline
90
4
70
1
10
0
20
-16.4000
10
100
20
-16.4000
10
100
20
-20.1500
10
0
20
-20.1500
0
LWPOLYLINE
5
52B
100
AcDbEntity
8
verwitterung
6
ByLayer
62
7
370
30
100
AcDbPolyline
90
4
70
1
10
-10.7000
20
-20.1500
10
-5.2000
20
-20.1500
10
-5.2000
20
-23.1500
10
-10.7000
20
-23.1500
0
LWPOLYLINE
5
52C
100
AcDbEntity
8
verwitterung
6
ByLayer
62
7
370
30
100
AcDbPolyline
90
4
70
1
10
-5.2000
20
-20.1500
10
0
20
-20.1500
10
0
20
-23.1500
10
-5.2000
20
-23.1500
0
TEXT
5
52D
100
AcDbEntity
8
verwitterung
6
ByLayer
62
7
100
AcDbText
7
Arial
10
-10.5000
20
-21.6500
40
0.4500
41
0.7500
1
Verwitterung
7
Arial
11
-10.5000
21
-21.6500
100
AcDbText
73
2
0
TEXT
5
52E
100
AcDbEntity
8
verwitterung
6
ByLayer
62
7
100
AcDbText
7
Arial
10
-0.2000
20
-20.5250
40
0.2700
41
0.7500
1
unverwittert
7
Arial
72
2
11
-0.2000
21
-20.5250
100
AcDbText
73
2
0
LINE
5
52F
100
AcDbEntity
8
verwitterung
6
ByLayer
62
256
370
-1
100
AcDbLine
10
-5.2000
20
-20.9000
11
0
21
-20.9000
0
TEXT
5
530
100
AcDbEntity
8
verwitterung
6
ByLayer
62
7
100
AcDbText
7
Arial
10
-0.2000
20
-21.2750
40
0.2700
41
0.7500
1
leicht verwittert
7
Arial
72
2
11
-0.2000
21
-21.2750
100
AcDbText
73
2
0
LINE
5
531
100
AcDbEntity
8
verwitterung
6
ByLayer
62
256
370
-1
100
AcDbLine
10
-5.2000
20
-21.6500
11
0
21
-21.6500
0
TEXT
5
532
100
AcDbEntity
8
verwitterung
6
ByLayer
62
7
100
AcDbText
7
Arial
10
-0.2000
20
-22.0250
40
0.2700
41
0.7500
1
verwittert
7
Arial
72
2
11
-0.2000
21
-22.0250
100
AcDbText
73
2
0
LINE
5
533
100
AcDbEntity
8
verwitterung
6
ByLayer
62
256
370
-1
100
AcDbLine
10
-5.2000
20
-22.4000
11
0
21
-22.4000
0
TEXT
5
534
100
AcDbEntity
8
verwitterung
6
ByLayer
62
7
100
AcDbText
7
Arial
10
-0.2000
20
-22.7750
40
0.2700
41
0.7500
1
stark verwittert
7
Arial
72
2
11
-0.2000
21
-22.7750
100
AcDbText
73
2
0
LINE
5
535
100
AcDbEntity
8
verwitterung
6
ByLayer
62
256
370
-1
100
AcDbLine
10
-5.2000
20
-23.1500
11
0
21
-23.1500
0
HATCH
5
536
100
AcDbEntity
8
verwitterung
6
ByLayer
62
2
100
AcDbHatch
10
0
20
0
30
0
210
0
220
0
230
1
2
SOLID
70
1
71
0
91
1
92
3
72
0
73
1
93
4
10
-0.3000
20
-20.1500
10
1
20
-20.1500
10
1
20
-20.9000
10
-0.3000
20
-20.9000
97
0
75
0
76
0
98
0
0
LWPOLYLINE
5
537
100
AcDbEntity
8
verwitterung
6
ByLayer
62
7
370
-1
100
AcDbPolyline
90
4
70
1
10
-0.3000
20
-20.1500
10
1
20
-20.1500
10
1
20
-20.9000
10
-0.3000
20
-20.9000
0
TEXT
5
538
100
AcDbEntity
8
verwitterung
6
ByLayer
62
7
100
AcDbText
7
Arial
10
0.3500
20
-20.5250
40
0.2700
41
0.7500
1
100%
7
Arial
72
1
11
0.3500
21
-20.5250
100
AcDbText
73
2
0
HATCH
5
539
100
AcDbEntity
8
verwitterung
6
ByLayer
62
2
100
AcDbHatch
10
0
20
0
30
0
210
0
220
0
230
1
2
SOLID
70
1
71
0
91
1
92
3
72
0
73
1
93
4
10
5.7000
20
-20.1500
10
6.9999
20
-20.1500
10
6.9999
20
-20.9000
10
5.7000
20
-20.9000
97
0
75
0
76
0
98
0
0
LWPOLYLINE
5
53A
100
AcDbEntity
8
verwitterung
6
ByLayer
62
7
370
-1
100
AcDbPolyline
90
4
70
1
10
5.7000
20
-20.1500
10
6.9999
20
-20.1500
10
6.9999
20
-20.9000
10
5.7000
20
-20.9000
0
TEXT
5
53B
100
AcDbEntity
8
verwitterung
6
ByLayer
62
7
100
AcDbText
7
Arial
10
6.3500
20
-20.5250
40
0.2700
41
0.7500
1
72%
7
Arial
72
1
11
6.3500
21
-20.5250
100
AcDbText
73
2
0
HATCH
5
53C
100
AcDbEntity
8
verwitterung
6
ByLayer
62
2
100
AcDbHatch
10
0
20
0
30
0
210
0
220
0
230
1
2
SOLID
70
1
71
0
91
1
92
3
72
0
73
1
93
4
10
10.7000
20
-20.1500
10
12
20
-20.1500
10
12
20
-20.9000
10
10.7000
20
-20.9000
97
0
75
0
76
0
98
0
0
LWPOLYLINE
5
53D
100
AcDbEntity
8
verwitterung
6
ByLayer
62
7
370
-1
100
AcDbPolyline
90
4
70
1
10
10.7000
20
-20.1500
10
12
20
-20.1500
10
12
20
-20.9000
10
10.7000
20
-20.9000
0
TEXT
5
53E
100
AcDbEntity
8
verwitterung
6
ByLayer
62
7
100
AcDbText
7
Arial
10
11.3500
20
-20.5250
40
0.2700
41
0.7500
1
60%
7
Arial
72
1
11
11.3500
21
-20.5250
100
AcDbText
73
2
0
HATCH
5
53F
100
AcDbEntity
8
verwitterung
6
ByLayer
62
2
100
AcDbHatch
10
0
20
0
30
0
210
0
220
0
230
1
2
SOLID
70
1
71
0
91
1
92
3
72
0
73
1
93
4
10
15.7000
20
-20.1500
10
17
20
-20.1500
10
17
20
-20.9000
10
15.7000
20
-20.9000
97
0
75
0
76
0
98
0
0
LWPOLYLINE
5
540
100
AcDbEntity
8
verwitterung
6
ByLayer
62
7
370
-1
100
AcDbPolyline
90
4
70
1
10
15.7000
20
-20.1500
10
17
20
-20.1500
10
17
20
-20.9000
10
15.7000
20
-20.9000
0
TEXT
5
541
100
AcDbEntity
8
verwitterung
6
ByLayer
62
7
100
AcDbText
7
Arial
10
16.3500
20
-20.5250
40
0.2700
41
0.7500
1
100%
7
Arial
72
1
11
16.3500
21
-20.5250
100
AcDbText
73
2
0
HATCH
5
542
100
AcDbEntity
8
verwitterung
6
ByLayer
62
2
100
AcDbHatch
10
0
20
0
30
0
210
0
220
0
230
1
2
SOLID
70
1
71
0
91
1
92
3
72
0
73
1
93
4
10
20.7000
20
-20.1500
10
22
20
-20.1500
10
22
20
-20.9000
10
20.7000
20
-20.9000
97
0
75
0
76
0
98
0
0
LWPOLYLINE
5
543
100
AcDbEntity
8
verwitterung
6
ByLayer
62
7
370
-1
100
AcDbPolyline
90
4
70
1
10
20.7000
20
-20.1500
10
22
20
-20.1500
10
22
20
-20.9000
10
20.7000
20
-20.9000
0
TEXT
5
544
100
AcDbEntity
8
verwitterung
6
ByLayer
62
7
100
AcDbText
7
Arial
10
21.3500
20
-20.5250
40
0.2700
41
0.7500
1
100%
7
Arial
72
1
11
21.3500
21
-20.5250
100
AcDbText
73
2
0
HATCH
5
545
100
AcDbEntity
8
verwitterung
6
ByLayer
62
2
100
AcDbHatch
10
0
20
0
30
0
210
0
220
0
230
1
2
SOLID
70
1
71
0
91
1
92
3
72
0
73
1
93
4
10
23.7000
20
-20.1500
10
25
20
-20.1500
10
25
20
-20.9000
10
23.7000
20
-20.9000
97
0
75
0
76
0
98
0
0
LWPOLYLINE
5
546
100
AcDbEntity
8
verwitterung
6
ByLayer
62
7
370
-1
100
AcDbPolyline
90
4
70
1
10
23.7000
20
-20.1500
10
25
20
-20.1500
10
25
20
-20.9000
10
23.7000
20
-20.9000
0
TEXT
5
547
100
AcDbEntity
8
verwitterung
6
ByLayer
62
7
100
AcDbText
7
Arial
10
24.3500
20
-20.5250
40
0.2700
41
0.7500
1
100%
7
Arial
72
1
11
24.3500
21
-20.5250
100
AcDbText
73
2
0
HATCH
5
548
100
AcDbEntity
8
verwitterung
6
ByLayer
62
2
100
AcDbHatch
10
0
20
0
30
0
210
0
220
0
230
1
2
SOLID
70
1
71
0
91
1
92
3
72
0
73
1
93
4
10
27.7000
20
-20.1500
10
29
20
-20.1500
10
29
20
-20.9000
10
27.7000
20
-20.9000
97
0
75
0
76
0
98
0
0
LWPOLYLINE
5
549
100
AcDbEntity
8
verwitterung
6
ByLayer
62
7
370
-1
100
AcDbPolyline
90
4
70
1
10
27.7000
20
-20.1500
10
29
20
-20.1500
10
29
20
-20.9000
10
27.7000
20
-20.9000
0
TEXT
5
54A
100
AcDbEntity
8
verwitterung
6
ByLayer
62
7
100
AcDbText
7
Arial
10
28.3500
20
-20.5250
40
0.2700
41
0.7500
1
100%
7
Arial
72
1
11
28.3500
21
-20.5250
100
AcDbText
73
2
0
HATCH
5
54B
100
AcDbEntity
8
verwitterung
6
ByLayer
62
2
100
AcDbHatch
10
0
20
0
30
0
210
0
220
0
230
1
2
SOLID
70
1
71
0
91
1
92
3
72
0
73
1
93
4
10
31.7000
20
-20.1500
10
33
20
-20.1500
10
33
20
-20.9000
10
31.7000
20
-20.9000
97
0
75
0
76
0
98
0
0
LWPOLYLINE
5
54C
100
AcDbEntity
8
verwitterung
6
ByLayer
62
7
370
-1
100
AcDbPolyline
90
4
70
1
10
31.7000
20
-20.1500
10
33
20
-20.1500
10
33
20
-20.9000
10
31.7000
20
-20.9000
0
TEXT
5
54D
100
AcDbEntity
8
verwitterung
6
ByLayer
62
7
100
AcDbText
7
Arial
10
32.3500
20
-20.5250
40
0.2700
41
0.7500
1
100%
7
Arial
72
1
11
32.3500
21
-20.5250
100
AcDbText
73
2
0
HATCH
5
54E
100
AcDbEntity
8
verwitterung
6
ByLayer
62
2
100
AcDbHatch
10
0
20
0
30
0
210
0
220
0
230
1
2
SOLID
70
1
71
0
91
1
92
3
72
0
73
1
93
4
10
35.7000
20
-20.1500
10
37
20
-20.1500
10
37
20
-20.9000
10
35.7000
20
-20.9000
97
0
75
0
76
0
98
0
0
LWPOLYLINE
5
54F
100
AcDbEntity
8
verwitterung
6
ByLayer
62
7
370
-1
100
AcDbPolyline
90
4
70
1
10
35.7000
20
-20.1500
10
37
20
-20.1500
10
37
20
-20.9000
10
35.7000
20
-20.9000
0
TEXT
5
550
100
AcDbEntity
8
verwitterung
6
ByLayer
62
7
100
AcDbText
7
Arial
10
36.3500
20
-20.5250
40
0.2700
41
0.7500
1
100%
7
Arial
72
1
11
36.3500
21
-20.5250
100
AcDbText
73
2
0
HATCH
5
551
100
AcDbEntity
8
verwitterung
6
ByLayer
62
2
100
AcDbHatch
10
0
20
0
30
0
210
0
220
0
230
1
2
SOLID
70
1
71
0
91
1
92
3
72
0
73
1
93
4
10
38.7000
20
-20.1500
10
40
20
-20.1500
10
40
20
-20.9000
10
38.7000
20
-20.9000
97
0
75
0
76
0
98
0
0
LWPOLYLINE
5
552
100
AcDbEntity
8
verwitterung
6
ByLayer
62
7
370
-1
100
AcDbPolyline
90
4
70
1
10
38.7000
20
-20.1500
10
40
20
-20.1500
10
40
20
-20.9000
10
38.7000
20
-20.9000
0
TEXT
5
553
100
AcDbEntity
8
verwitterung
6
ByLayer
62
7
100
AcDbText
7
Arial
10
39.3500
20
-20.5250
40
0.2700
41
0.7500
1
100%
7
Arial
72
1
11
39.3500
21
-20.5250
100
AcDbText
73
2
0
HATCH
5
554
100
AcDbEntity
8
verwitterung
6
ByLayer
62
2
100
AcDbHatch
10
0
20
0
30
0
210
0
220
0
230
1
2
SOLID
70
1
71
0
91
1
92
3
72
0
73
1
93
4
10
43.7000
20
-20.1500
10
45
20
-20.1500
10
45
20
-20.9000
10
43.7000
20
-20.9000
97
0
75
0
76
0
98
0
0
LWPOLYLINE
5
555
100
AcDbEntity
8
verwitterung
6
ByLayer
62
7
370
-1
100
AcDbPolyline
90
4
70
1
10
43.7000
20
-20.1500
10
45
20
-20.1500
10
45
20
-20.9000
10
43.7000
20
-20.9000
0
TEXT
5
556
100
AcDbEntity
8
verwitterung
6
ByLayer
62
7
100
AcDbText
7
Arial
10
44.3500
20
-20.5250
40
0.2700
41
0.7500
1
100%
7
Arial
72
1
11
44.3500
21
-20.5250
100
AcDbText
73
2
0
HATCH
5
557
100
AcDbEntity
8
verwitterung
6
ByLayer
62
2
100
AcDbHatch
10
0
20
0
30
0
210
0
220
0
230
1
2
SOLID
70
1
71
0
91
1
92
3
72
0
73
1
93
4
10
46.7000
20
-20.1500
10
48
20
-20.1500
10
48
20
-20.9000
10
46.7000
20
-20.9000
97
0
75
0
76
0
98
0
0
LWPOLYLINE
5
558
100
AcDbEntity
8
verwitterung
6
ByLayer
62
7
370
-1
100
AcDbPolyline
90
4
70
1
10
46.7000
20
-20.1500
10
48
20
-20.1500
10
48
20
-20.9000
10
46.7000
20
-20.9000
0
TEXT
5
559
100
AcDbEntity
8
verwitterung
6
ByLayer
62
7
100
AcDbText
7
Arial
10
47.3500
20
-20.5250
40
0.2700
41
0.7500
1
100%
7
Arial
72
1
11
47.3500
21
-20.5250
100
AcDbText
73
2
0
HATCH
5
55A
100
AcDbEntity
8
verwitterung
6
ByLayer
62
2
100
AcDbHatch
10
0
20
0
30
0
210
0
220
0
230
1
2
SOLID
70
1
71
0
91
1
92
3
72
0
73
1
93
4
10
50.7000
20
-20.1500
10
52
20
-20.1500
10
52
20
-20.9000
10
50.7000
20
-20.9000
97
0
75
0
76
0
98
0
0
LWPOLYLINE
5
55B
100
AcDbEntity
8
verwitterung
6
ByLayer
62
7
370
-1
100
AcDbPolyline
90
4
70
1
10
50.7000
20
-20.1500
10
52
20
-20.1500
10
52
20
-20.9000
10
50.7000
20
-20.9000
0
TEXT
5
55C
100
AcDbEntity
8
verwitterung
6
ByLayer
62
7
100
AcDbText
7
Arial
10
51.3500
20
-20.5250
40
0.2700
41
0.7500
1
100%
7
Arial
72
1
11
51.3500
21
-20.5250
100
AcDbText
73
2
0
HATCH
5
55D
100
AcDbEntity
8
verwitterung
6
ByLayer
62
2
100
AcDbHatch
10
0
20
0
30
0
210
0
220
0
230
1
2
SOLID
70
1
71
0
91
1
92
3
72
0
73
1
93
4
10
54.7000
20
-20.1500
10
56
20
-20.1500
10
56
20
-20.9000
10
54.7000
20
-20.9000
97
0
75
0
76
0
98
0
0
LWPOLYLINE
5
55E
100
AcDbEntity
8
verwitterung
6
ByLayer
62
7
370
-1
100
AcDbPolyline
90
4
70
1
10
54.7000
20
-20.1500
10
56
20
-20.1500
10
56
20
-20.9000
10
54.7000
20
-20.9000
0
TEXT
5
55F
100
AcDbEntity
8
verwitterung
6
ByLayer
62
7
100
AcDbText
7
Arial
10
55.3500
20
-20.5250
40
0.2700
41
0.7500
1
100%
7
Arial
72
1
11
55.3500
21
-20.5250
100
AcDbText
73
2
0
HATCH
5
560
100
AcDbEntity
8
verwitterung
6
ByLayer
62
2
100
AcDbHatch
10
0
20
0
30
0
210
0
220
0
230
1
2
SOLID
70
1
71
0
91
1
92
3
72
0
73
1
93
4
10
65.7000
20
-20.1500
10
67
20
-20.1500
10
67
20
-20.9000
10
65.7000
20
-20.9000
97
0
75
0
76
0
98
0
0
LWPOLYLINE
5
561
100
AcDbEntity
8
verwitterung
6
ByLayer
62
7
370
-1
100
AcDbPolyline
90
4
70
1
10
65.7000
20
-20.1500
10
67
20
-20.1500
10
67
20
-20.9000
10
65.7000
20
-20.9000
0
TEXT
5
562
100
AcDbEntity
8
verwitterung
6
ByLayer
62
7
100
AcDbText
7
Arial
10
66.3500
20
-20.5250
40
0.2700
41
0.7500
1
100%
7
Arial
72
1
11
66.3500
21
-20.5250
100
AcDbText
73
2
0
HATCH
5
563
100
AcDbEntity
8
verwitterung
6
ByLayer
62
2
100
AcDbHatch
10
0
20
0
30
0
210
0
220
0
230
1
2
SOLID
70
1
71
0
91
1
92
3
72
0
73
1
93
4
10
69.7000
20
-20.1500
10
71
20
-20.1500
10
71
20
-20.9000
10
69.7000
20
-20.9000
97
0
75
0
76
0
98
0
0
LWPOLYLINE
5
564
100
AcDbEntity
8
verwitterung
6
ByLayer
62
7
370
-1
100
AcDbPolyline
90
4
70
1
10
69.7000
20
-20.1500
10
71
20
-20.1500
10
71
20
-20.9000
10
69.7000
20
-20.9000
0
TEXT
5
565
100
AcDbEntity
8
verwitterung
6
ByLayer
62
7
100
AcDbText
7
Arial
10
70.3500
20
-20.5250
40
0.2700
41
0.7500
1
71%
7
Arial
72
1
11
70.3500
21
-20.5250
100
AcDbText
73
2
0
HATCH
5
566
100
AcDbEntity
8
verwitterung
6
ByLayer
62
2
100
AcDbHatch
10
0
20
0
30
0
210
0
220
0
230
1
2
SOLID
70
1
71
0
91
1
92
3
72
0
73
1
93
4
10
77.7000
20
-20.1500
10
79
20
-20.1500
10
79
20
-20.9000
10
77.7000
20
-20.9000
97
0
75
0
76
0
98
0
0
LWPOLYLINE
5
567
100
AcDbEntity
8
verwitterung
6
ByLayer
62
7
370
-1
100
AcDbPolyline
90
4
70
1
10
77.7000
20
-20.1500
10
79
20
-20.1500
10
79
20
-20.9000
10
77.7000
20
-20.9000
0
TEXT
5
568
100
AcDbEntity
8
verwitterung
6
ByLayer
62
7
100
AcDbText
7
Arial
10
78.3500
20
-20.5250
40
0.2700
41
0.7500
1
25%
7
Arial
72
1
11
78.3500
21
-20.5250
100
AcDbText
73
2
0
HATCH
5
569
100
AcDbEntity
8
verwitterung
6
ByLayer
62
2
100
AcDbHatch
10
0
20
0
30
0
210
0
220
0
230
1
2
SOLID
70
1
71
0
91
1
92
3
72
0
73
1
93
4
10
81.7000
20
-20.1500
10
83
20
-20.1500
10
83
20
-20.9000
10
81.7000
20
-20.9000
97
0
75
0
76
0
98
0
0
LWPOLYLINE
5
56A
100
AcDbEntity
8
verwitterung
6
ByLayer
62
7
370
-1
100
AcDbPolyline
90
4
70
1
10
81.7000
20
-20.1500
10
83
20
-20.1500
10
83
20
-20.9000
10
81.7000
20
-20.9000
0
TEXT
5
56B
100
AcDbEntity
8
verwitterung
6
ByLayer
62
7
100
AcDbText
7
Arial
10
82.3500
20
-20.5250
40
0.2700
41
0.7500
1
100%
7
Arial
72
1
11
82.3500
21
-20.5250
100
AcDbText
73
2
0
HATCH
5
56C
100
AcDbEntity
8
verwitterung
6
ByLayer
62
2
100
AcDbHatch
10
0
20
0
30
0
210
0
220
0
230
1
2
SOLID
70
1
71
0
91
1
92
3
72
0
73
1
93
4
10
85.7000
20
-20.1500
10
87
20
-20.1500
10
87
20
-20.9000
10
85.7000
20
-20.9000
97
0
75
0
76
0
98
0
0
LWPOLYLINE
5
56D
100
AcDbEntity
8
verwitterung
6
ByLayer
62
7
370
-1
100
AcDbPolyline
90
4
70
1
10
85.7000
20
-20.1500
10
87
20
-20.1500
10
87
20
-20.9000
10
85.7000
20
-20.9000
0
TEXT
5
56E
100
AcDbEntity
8
verwitterung
6
ByLayer
62
7
100
AcDbText
7
Arial
10
86.3500
20
-20.5250
40
0.2700
41
0.7500
1
100%
7
Arial
72
1
11
86.3500
21
-20.5250
100
AcDbText
73
2
0
HATCH
5
56F
100
AcDbEntity
8
verwitterung
6
ByLayer
62
2
100
AcDbHatch
10
0
20
0
30
0
210
0
220
0
230
1
2
SOLID
70
1
71
0
91
1
92
3
72
0
73
1
93
4
10
89.7000
20
-20.1500
10
91
20
-20.1500
10
91
20
-20.9000
10
89.7000
20
-20.9000
97
0
75
0
76
0
98
0
0
LWPOLYLINE
5
570
100
AcDbEntity
8
verwitterung
6
ByLayer
62
7
370
-1
100
AcDbPolyline
90
4
70
1
10
89.7000
20
-20.1500
10
91
20
-20.1500
10
91
20
-20.9000
10
89.7000
20
-20.9000
0
TEXT
5
571
100
AcDbEntity
8
verwitterung
6
ByLayer
62
7
100
AcDbText
7
Arial
10
90.3500
20
-20.5250
40
0.2700
41
0.7500
1
25%
7
Arial
72
1
11
90.3500
21
-20.5250
100
AcDbText
73
2
0
HATCH
5
572
100
AcDbEntity
8
verwitterung
6
ByLayer
62
2
100
AcDbHatch
10
0
20
0
30
0
210
0
220
0
230
1
2
SOLID
70
1
71
0
91
1
92
3
72
0
73
1
93
4
10
93.7000
20
-20.1500
10
95
20
-20.1500
10
95
20
-20.9000
10
93.7000
20
-20.9000
97
0
75
0
76
0
98
0
0
LWPOLYLINE
5
573
100
AcDbEntity
8
verwitterung
6
ByLayer
62
7
370
-1
100
AcDbPolyline
90
4
70
1
10
93.7000
20
-20.1500
10
95
20
-20.1500
10
95
20
-20.9000
10
93.7000
20
-20.9000
0
TEXT
5
574
100
AcDbEntity
8
verwitterung
6
ByLayer
62
7
100
AcDbText
7
Arial
10
94.3500
20
-20.5250
40
0.2700
41
0.7500
1
44%
7
Arial
72
1
11
94.3500
21
-20.5250
100
AcDbText
73
2
0
HATCH
5
575
100
AcDbEntity
8
verwitterung
6
ByLayer
62
2
100
AcDbHatch
10
0
20
0
30
0
210
0
220
0
230
1
2
SOLID
70
1
71
0
91
1
92
3
72
0
73
1
93
4
10
95
20
-20.1500
10
96.3000
20
-20.1500
10
96.3000
20
-20.9000
10
95
20
-20.9000
97
0
75
0
76
0
98
0
0
LWPOLYLINE
5
576
100
AcDbEntity
8
verwitterung
6
ByLayer
62
7
370
-1
100
AcDbPolyline
90
4
70
1
10
95
20
-20.1500
10
96.3000
20
-20.1500
10
96.3000
20
-20.9000
10
95
20
-20.9000
0
TEXT
5
577
100
AcDbEntity
8
verwitterung
6
ByLayer
62
7
100
AcDbText
7
Arial
10
95.6500
20
-20.5250
40
0.2700
41
0.7500
1
34%
7
Arial
72
1
11
95.6500
21
-20.5250
100
AcDbText
73
2
0
LINE
5
578
100
AcDbEntity
8
verwitterung
6
ByLayer
62
256
370
-1
100
AcDbLine
10
0
20
-20.9000
11
100
21
-20.9000
0
HATCH
5
579
100
AcDbEntity
8
verwitterung
6
ByLayer
62
2
100
AcDbHatch
10
0
20
0
30
0
210
0
220
0
230
1
2
SOLID
70
1
71
0
91
1
92
3
72
0
73
1
93
4
10
5.7000
20
-20.9000
10
6.9999
20
-20.9000
10
6.9999
20
-21.6500
10
5.7000
20
-21.6500
97
0
75
0
76
0
98
0
0
LWPOLYLINE
5
57A
100
AcDbEntity
8
verwitterung
6
ByLayer
62
7
370
-1
100
AcDbPolyline
90
4
70
1
10
5.7000
20
-20.9000
10
6.9999
20
-20.9000
10
6.9999
20
-21.6500
10
5.7000
20
-21.6500
0
TEXT
5
57B
100
AcDbEntity
8
verwitterung
6
ByLayer
62
7
100
AcDbText
7
Arial
10
6.3500
20
-21.2750
40
0.2700
41
0.7500
1
28%
7
Arial
72
1
11
6.3500
21
-21.2750
100
AcDbText
73
2
0
HATCH
5
57C
100
AcDbEntity
8
verwitterung
6
ByLayer
62
2
100
AcDbHatch
10
0
20
0
30
0
210
0
220
0
230
1
2
SOLID
70
1
71
0
91
1
92
3
72
0
73
1
93
4
10
10.7000
20
-20.9000
10
12
20
-20.9000
10
12
20
-21.6500
10
10.7000
20
-21.6500
97
0
75
0
76
0
98
0
0
LWPOLYLINE
5
57D
100
AcDbEntity
8
verwitterung
6
ByLayer
62
7
370
-1
100
AcDbPolyline
90
4
70
1
10
10.7000
20
-20.9000
10
12
20
-20.9000
10
12
20
-21.6500
10
10.7000
20
-21.6500
0
TEXT
5
57E
100
AcDbEntity
8
verwitterung
6
ByLayer
62
7
100
AcDbText
7
Arial
10
11.3500
20
-21.2750
40
0.2700
41
0.7500
1
40%
7
Arial
72
1
11
11.3500
21
-21.2750
100
AcDbText
73
2
0
HATCH
5
57F
100
AcDbEntity
8
verwitterung
6
ByLayer
62
2
100
AcDbHatch
10
0
20
0
30
0
210
0
220
0
230
1
2
SOLID
70
1
71
0
91
1
92
3
72
0
73
1
93
4
10
57.7000
20
-20.9000
10
59
20
-20.9000
10
59
20
-21.6500
10
57.7000
20
-21.6500
97
0
75
0
76
0
98
0
0
LWPOLYLINE
5
580
100
AcDbEntity
8
verwitterung
6
ByLayer
62
7
370
-1
100
AcDbPolyline
90
4
70
1
10
57.7000
20
-20.9000
10
59
20
-20.9000
10
59
20
-21.6500
10
57.7000
20
-21.6500
0
TEXT
5
581
100
AcDbEntity
8
verwitterung
6
ByLayer
62
7
100
AcDbText
7
Arial
10
58.3500
20
-21.2750
40
0.2700
41
0.7500
1
100%
7
Arial
72
1
11
58.3500
21
-21.2750
100
AcDbText
73
2
0
HATCH
5
582
100
AcDbEntity
8
verwitterung
6
ByLayer
62
2
100
AcDbHatch
10
0
20
0
30
0
210
0
220
0
230
1
2
SOLID
70
1
71
0
91
1
92
3
72
0
73
1
93
4
10
61.7000
20
-20.9000
10
63
20
-20.9000
10
63
20
-21.6500
10
61.7000
20
-21.6500
97
0
75
0
76
0
98
0
0
LWPOLYLINE
5
583
100
AcDbEntity
8
verwitterung
6
ByLayer
62
7
370
-1
100
AcDbPolyline
90
4
70
1
10
61.7000
20
-20.9000
10
63
20
-20.9000
10
63
20
-21.6500
10
61.7000
20
-21.6500
0
TEXT
5
584
100
AcDbEntity
8
verwitterung
6
ByLayer
62
7
100
AcDbText
7
Arial
10
62.3500
20
-21.2750
40
0.2700
41
0.7500
1
100%
7
Arial
72
1
11
62.3500
21
-21.2750
100
AcDbText
73
2
0
HATCH
5
585
100
AcDbEntity
8
verwitterung
6
ByLayer
62
2
100
AcDbHatch
10
0
20
0
30
0
210
0
220
0
230
1
2
SOLID
70
1
71
0
91
1
92
3
72
0
73
1
93
4
10
73.7000
20
-20.9000
10
75
20
-20.9000
10
75
20
-21.6500
10
73.7000
20
-21.6500
97
0
75
0
76
0
98
0
0
LWPOLYLINE
5
586
100
AcDbEntity
8
verwitterung
6
ByLayer
62
7
370
-1
100
AcDbPolyline
90
4
70
1
10
73.7000
20
-20.9000
10
75
20
-20.9000
10
75
20
-21.6500
10
73.7000
20
-21.6500
0
TEXT
5
587
100
AcDbEntity
8
verwitterung
6
ByLayer
62
7
100
AcDbText
7
Arial
10
74.3500
20
-21.2750
40
0.2700
41
0.7500
1
100%
7
Arial
72
1
11
74.3500
21
-21.2750
100
AcDbText
73
2
0
HATCH
5
588
100
AcDbEntity
8
verwitterung
6
ByLayer
62
2
100
AcDbHatch
10
0
20
0
30
0
210
0
220
0
230
1
2
SOLID
70
1
71
0
91
1
92
3
72
0
73
1
93
4
10
89.7000
20
-20.9000
10
91
20
-20.9000
10
91
20
-21.6500
10
89.7000
20
-21.6500
97
0
75
0
76
0
98
0
0
LWPOLYLINE
5
589
100
AcDbEntity
8
verwitterung
6
ByLayer
62
7
370
-1
100
AcDbPolyline
90
4
70
1
10
89.7000
20
-20.9000
10
91
20
-20.9000
10
91
20
-21.6500
10
89.7000
20
-21.6500
0
TEXT
5
58A
100
AcDbEntity
8
verwitterung
6
ByLayer
62
7
100
AcDbText
7
Arial
10
90.3500
20
-21.2750
40
0.2700
41
0.7500
1
53%
7
Arial
72
1
11
90.3500
21
-21.2750
100
AcDbText
73
2
0
HATCH
5
58B
100
AcDbEntity
8
verwitterung
6
ByLayer
62
2
100
AcDbHatch
10
0
20
0
30
0
210
0
220
0
230
1
2
SOLID
70
1
71
0
91
1
92
3
72
0
73
1
93
4
10
93.7000
20
-20.9000
10
95
20
-20.9000
10
95
20
-21.6500
10
93.7000
20
-21.6500
97
0
75
0
76
0
98
0
0
LWPOLYLINE
5
58C
100
AcDbEntity
8
verwitterung
6
ByLayer
62
7
370
-1
100
AcDbPolyline
90
4
70
1
10
93.7000
20
-20.9000
10
95
20
-20.9000
10
95
20
-21.6500
10
93.7000
20
-21.6500
0
TEXT
5
58D
100
AcDbEntity
8
verwitterung
6
ByLayer
62
7
100
AcDbText
7
Arial
10
94.3500
20
-21.2750
40
0.2700
41
0.7500
1
33%
7
Arial
72
1
11
94.3500
21
-21.2750
100
AcDbText
73
2
0
HATCH
5
58E
100
AcDbEntity
8
verwitterung
6
ByLayer
62
2
100
AcDbHatch
10
0
20
0
30
0
210
0
220
0
230
1
2
SOLID
70
1
71
0
91
1
92
3
72
0
73
1
93
4
10
95
20
-20.9000
10
96.3000
20
-20.9000
10
96.3000
20
-21.6500
10
95
20
-21.6500
97
0
75
0
76
0
98
0
0
LWPOLYLINE
5
58F
100
AcDbEntity
8
verwitterung
6
ByLayer
62
7
370
-1
100
AcDbPolyline
90
4
70
1
10
95
20
-20.9000
10
96.3000
20
-20.9000
10
96.3000
20
-21.6500
10
95
20
-21.6500
0
TEXT
5
590
100
AcDbEntity
8
verwitterung
6
ByLayer
62
7
100
AcDbText
7
Arial
10
95.6500
20
-21.2750
40
0.2700
41
0.7500
1
26%
7
Arial
72
1
11
95.6500
21
-21.2750
100
AcDbText
73
2
0
HATCH
5
591
100
AcDbEntity
8
verwitterung
6
ByLayer
62
2
100
AcDbHatch
10
0
20
0
30
0
210
0
220
0
230
1
2
SOLID
70
1
71
0
91
1
92
3
72
0
73
1
93
4
10
96.3000
20
-20.9000
10
97.6000
20
-20.9000
10
97.6000
20
-21.6500
10
96.3000
20
-21.6500
97
0
75
0
76
0
98
0
0
LWPOLYLINE
5
592
100
AcDbEntity
8
verwitterung
6
ByLayer
62
7
370
-1
100
AcDbPolyline
90
4
70
1
10
96.3000
20
-20.9000
10
97.6000
20
-20.9000
10
97.6000
20
-21.6500
10
96.3000
20
-21.6500
0
TEXT
5
593
100
AcDbEntity
8
verwitterung
6
ByLayer
62
7
100
AcDbText
7
Arial
10
96.9500
20
-21.2750
40
0.2700
41
0.7500
1
100%
7
Arial
72
1
11
96.9500
21
-21.2750
100
AcDbText
73
2
0
HATCH
5
594
100
AcDbEntity
8
verwitterung
6
ByLayer
62
2
100
AcDbHatch
10
0
20
0
30
0
210
0
220
0
230
1
2
SOLID
70
1
71
0
91
1
92
3
72
0
73
1
93
4
10
97.6000
20
-20.9000
10
98.9000
20
-20.9000
10
98.9000
20
-21.6500
10
97.6000
20
-21.6500
97
0
75
0
76
0
98
0
0
LWPOLYLINE
5
595
100
AcDbEntity
8
verwitterung
6
ByLayer
62
7
370
-1
100
AcDbPolyline
90
4
70
1
10
97.6000
20
-20.9000
10
98.9000
20
-20.9000
10
98.9000
20
-21.6500
10
97.6000
20
-21.6500
0
TEXT
5
596
100
AcDbEntity
8
verwitterung
6
ByLayer
62
7
100
AcDbText
7
Arial
10
98.2500
20
-21.2750
40
0.2700
41
0.7500
1
100%
7
Arial
72
1
11
98.2500
21
-21.2750
100
AcDbText
73
2
0
HATCH
5
597
100
AcDbEntity
8
verwitterung
6
ByLayer
62
2
100
AcDbHatch
10
0
20
0
30
0
210
0
220
0
230
1
2
SOLID
70
1
71
0
91
1
92
3
72
0
73
1
93
4
10
98.7000
20
-20.9000
10
100
20
-20.9000
10
100
20
-21.6500
10
98.7000
20
-21.6500
97
0
75
0
76
0
98
0
0
LWPOLYLINE
5
598
100
AcDbEntity
8
verwitterung
6
ByLayer
62
7
370
-1
100
AcDbPolyline
90
4
70
1
10
98.7000
20
-20.9000
10
100
20
-20.9000
10
100
20
-21.6500
10
98.7000
20
-21.6500
0
TEXT
5
599
100
AcDbEntity
8
verwitterung
6
ByLayer
62
7
100
AcDbText
7
Arial
10
99.3500
20
-21.2750
40
0.2700
41
0.7500
1
100%
7
Arial
72
1
11
99.3500
21
-21.2750
100
AcDbText
73
2
0
LINE
5
59A
100
AcDbEntity
8
verwitterung
6
ByLayer
62
256
370
-1
100
AcDbLine
10
0
20
-21.6500
11
100
21
-21.6500
0
HATCH
5
59B
100
AcDbEntity
8
verwitterung
6
ByLayer
62
2
100
AcDbHatch
10
0
20
0
30
0
210
0
220
0
230
1
2
SOLID
70
1
71
0
91
1
92
3
72
0
73
1
93
4
10
69.7000
20
-21.6500
10
71
20
-21.6500
10
71
20
-22.4000
10
69.7000
20
-22.4000
97
0
75
0
76
0
98
0
0
LWPOLYLINE
5
59C
100
AcDbEntity
8
verwitterung
6
ByLayer
62
7
370
-1
100
AcDbPolyline
90
4
70
1
10
69.7000
20
-21.6500
10
71
20
-21.6500
10
71
20
-22.4000
10
69.7000
20
-22.4000
0
TEXT
5
59D
100
AcDbEntity
8
verwitterung
6
ByLayer
62
7
100
AcDbText
7
Arial
10
70.3500
20
-22.0250
40
0.2700
41
0.7500
1
29%
7
Arial
72
1
11
70.3500
21
-22.0250
100
AcDbText
73
2
0
HATCH
5
59E
100
AcDbEntity
8
verwitterung
6
ByLayer
62
2
100
AcDbHatch
10
0
20
0
30
0
210
0
220
0
230
1
2
SOLID
70
1
71
0
91
1
92
3
72
0
73
1
93
4
10
77.7000
20
-21.6500
10
79
20
-21.6500
10
79
20
-22.4000
10
77.7000
20
-22.4000
97
0
75
0
76
0
98
0
0
LWPOLYLINE
5
59F
100
AcDbEntity
8
verwitterung
6
ByLayer
62
7
370
-1
100
AcDbPolyline
90
4
70
1
10
77.7000
20
-21.6500
10
79
20
-21.6500
10
79
20
-22.4000
10
77.7000
20
-22.4000
0
TEXT
5
5A0
100
AcDbEntity
8
verwitterung
6
ByLayer
62
7
100
AcDbText
7
Arial
10
78.3500
20
-22.0250
40
0.2700
41
0.7500
1
75%
7
Arial
72
1
11
78.3500
21
-22.0250
100
AcDbText
73
2
0
LINE
5
5A1
100
AcDbEntity
8
verwitterung
6
ByLayer
62
256
370
-1
100
AcDbLine
10
0
20
-22.4000
11
100
21
-22.4000
0
HATCH
5
5A2
100
AcDbEntity
8
verwitterung
6
ByLayer
62
2
100
AcDbHatch
10
0
20
0
30
0
210
0
220
0
230
1
2
SOLID
70
1
71
0
91
1
92
3
72
0
73
1
93
4
10
89.7000
20
-22.4000
10
91
20
-22.4000
10
91
20
-23.1500
10
89.7000
20
-23.1500
97
0
75
0
76
0
98
0
0
LWPOLYLINE
5
5A3
100
AcDbEntity
8
verwitterung
6
ByLayer
62
7
370
-1
100
AcDbPolyline
90
4
70
1
10
89.7000
20
-22.4000
10
91
20
-22.4000
10
91
20
-23.1500
10
89.7000
20
-23.1500
0
TEXT
5
5A4
100
AcDbEntity
8
verwitterung
6
ByLayer
62
7
100
AcDbText
7
Arial
10
90.3500
20
-22.7750
40
0.2700
41
0.7500
1
22%
7
Arial
72
1
11
90.3500
21
-22.7750
100
AcDbText
73
2
0
HATCH
5
5A5
100
AcDbEntity
8
verwitterung
6
ByLayer
62
2
100
AcDbHatch
10
0
20
0
30
0
210
0
220
0
230
1
2
SOLID
70
1
71
0
91
1
92
3
72
0
73
1
93
4
10
93.7000
20
-22.4000
10
95
20
-22.4000
10
95
20
-23.1500
10
93.7000
20
-23.1500
97
0
75
0
76
0
98
0
0
LWPOLYLINE
5
5A6
100
AcDbEntity
8
verwitterung
6
ByLayer
62
7
370
-1
100
AcDbPolyline
90
4
70
1
10
93.7000
20
-22.4000
10
95
20
-22.4000
10
95
20
-23.1500
10
93.7000
20
-23.1500
0
TEXT
5
5A7
100
AcDbEntity
8
verwitterung
6
ByLayer
62
7
100
AcDbText
7
Arial
10
94.3500
20
-22.7750
40
0.2700
41
0.7500
1
23%
7
Arial
72
1
11
94.3500
21
-22.7750
100
AcDbText
73
2
0
HATCH
5
5A8
100
AcDbEntity
8
verwitterung
6
ByLayer
62
2
100
AcDbHatch
10
0
20
0
30
0
210
0
220
0
230
1
2
SOLID
70
1
71
0
91
1
92
3
72
0
73
1
93
4
10
95
20
-22.4000
10
96.3000
20
-22.4000
10
96.3000
20
-23.1500
10
95
20
-23.1500
97
0
75
0
76
0
98
0
0
LWPOLYLINE
5
5A9
100
AcDbEntity
8
verwitterung
6
ByLayer
62
7
370
-1
100
AcDbPolyline
90
4
70
1
10
95
20
-22.4000
10
96.3000
20
-22.4000
10
96.3000
20
-23.1500
10
95
20
-23.1500
0
TEXT
5
5AA
100
AcDbEntity
8
verwitterung
6
ByLayer
62
7
100
AcDbText
7
Arial
10
95.6500
20
-22.7750
40
0.2700
41
0.7500
1
40%
7
Arial
72
1
11
95.6500
21
-22.7750
100
AcDbText
73
2
0
LINE
5
5AB
100
AcDbEntity
8
verwitterung
6
ByLayer
62
256
370
-1
100
AcDbLine
10
0
20
-23.1500
11
100
21
-23.1500
0
LWPOLYLINE
5
5AC
100
AcDbEntity
8
verwitterung
6
ByLayer
62
7
370
30
100
AcDbPolyline
90
4
70
1
10
105.2000
20
-20.1500
10
110.7000
20
-20.1500
10
110.7000
20
-23.1500
10
105.2000
20
-23.1500
0
LWPOLYLINE
5
5AD
100
AcDbEntity
8
verwitterung
6
ByLayer
62
7
370
30
100
AcDbPolyline
90
4
70
1
10
100
20
-20.1500
10
105.2000
20
-20.1500
10
105.2000
20
-23.1500
10
100
20
-23.1500
0
TEXT
5
5AE
100
AcDbEntity
8
verwitterung
6
ByLayer
62
7
100
AcDbText
7
Arial
10
110.5000
20
-21.6500
40
0.4500
41
0.7500
1
Verwitterung
7
Arial
72
2
11
110.5000
21
-21.6500
100
AcDbText
73
2
0
TEXT
5
5AF
100
AcDbEntity
8
verwitterung
6
ByLayer
62
7
100
AcDbText
7
Arial
10
100.2000
20
-20.5250
40
0.2700
41
0.7500
1
unverwittert
7
Arial
11
100.2000
21
-20.5250
100
AcDbText
73
2
0
LINE
5
5B0
100
AcDbEntity
8
verwitterung
6
ByLayer
62
256
370
-1
100
AcDbLine
10
100
20
-20.9000
11
105.2000
21
-20.9000
0
TEXT
5
5B1
100
AcDbEntity
8
verwitterung
6
ByLayer
62
7
100
AcDbText
7
Arial
10
100.2000
20
-21.2750
40
0.2700
41
0.7500
1
leicht verwittert
7
Arial
11
100.2000
21
-21.2750
100
AcDbText
73
2
0
LINE
5
5B2
100
AcDbEntity
8
verwitterung
6
ByLayer
62
256
370
-1
100
AcDbLine
10
100
20
-21.6500
11
105.2000
21
-21.6500
0
TEXT
5
5B3
100
AcDbEntity
8
verwitterung
6
ByLayer
62
7
100
AcDbText
7
Arial
10
100.2000
20
-22.0250
40
0.2700
41
0.7500
1
verwittert
7
Arial
11
100.2000
21
-22.0250
100
AcDbText
73
2
0
LINE
5
5B4
100
AcDbEntity
8
verwitterung
6
ByLayer
62
256
370
-1
100
AcDbLine
10
100
20
-22.4000
11
105.2000
21
-22.4000
0
TEXT
5
5B5
100
AcDbEntity
8
verwitterung
6
ByLayer
62
7
100
AcDbText
7
Arial
10
100.2000
20
-22.7750
40
0.2700
41
0.7500
1
stark verwittert
7
Arial
11
100.2000
21
-22.7750
100
AcDbText
73
2
0
LINE
5
5B6
100
AcDbEntity
8
verwitterung
6
ByLayer
62
256
370
-1
100
AcDbLine
10
100
20
-23.1500
11
105.2000
21
-23.1500
0
LWPOLYLINE
5
5B7
100
AcDbEntity
8
verwitterung
6
ByLayer
62
7
370
30
100
AcDbPolyline
90
4
70
1
10
0
20
-20.1500
10
100
20
-20.1500
10
100
20
-23.1500
10
0
20
-23.1500
0
LWPOLYLINE
5
5B9
100
AcDbEntity
8
zerlegung
6
ByLayer
62
7
370
30
100
AcDbPolyline
90
4
70
1
10
-10.7000
20
-23.1500
10
-5.2000
20
-23.1500
10
-5.2000
20
-26.1500
10
-10.7000
20
-26.1500
0
LWPOLYLINE
5
5BA
100
AcDbEntity
8
zerlegung
6
ByLayer
62
7
370
30
100
AcDbPolyline
90
4
70
1
10
-5.2000
20
-23.1500
10
0
20
-23.1500
10
0
20
-26.1500
10
-5.2000
20
-26.1500
0
TEXT
5
5BB
100
AcDbEntity
8
zerlegung
6
ByLayer
62
7
100
AcDbText
7
Arial
10
-10.5000
20
-24.6500
40
0.4500
41
0.7500
1
Zerlegung
7
Arial
11
-10.5000
21
-24.6500
100
AcDbText
73
2
0
TEXT
5
5BC
100
AcDbEntity
8
zerlegung
6
ByLayer
62
7
100
AcDbText
7
Arial
10
-0.2000
20
-23.5250
40
0.2700
41
0.7500
1
zerlegt
7
Arial
72
2
11
-0.2000
21
-23.5250
100
AcDbText
73
2
0
LINE
5
5BD
100
AcDbEntity
8
zerlegung
6
ByLayer
62
256
370
-1
100
AcDbLine
10
-5.2000
20
-23.9000
11
0
21
-23.9000
0
TEXT
5
5BE
100
AcDbEntity
8
zerlegung
6
ByLayer
62
7
100
AcDbText
7
Arial
10
-0.2000
20
-24.2750
40
0.2700
41
0.7500
1
dünnschichtig (0,5-2 cm) 
7
Arial
72
2
11
-0.2000
21
-24.2750
100
AcDbText
73
2
0
LINE
5
5BF
100
AcDbEntity
8
zerlegung
6
ByLayer
62
256
370
-1
100
AcDbLine
10
-5.2000
20
-24.6500
11
0
21
-24.6500
0
TEXT
5
5C0
100
AcDbEntity
8
zerlegung
6
ByLayer
62
7
100
AcDbText
7
Arial
10
-0.2000
20
-25.0250
40
0.2700
41
0.7500
1
dünnschichtig (0,5-2 cm) 
7
Arial
72
2
11
-0.2000
21
-25.0250
100
AcDbText
73
2
0
LINE
5
5C1
100
AcDbEntity
8
zerlegung
6
ByLayer
62
256
370
-1
100
AcDbLine
10
-5.2000
20
-25.4000
11
0
21
-25.4000
0
TEXT
5
5C2
100
AcDbEntity
8
zerlegung
6
ByLayer
62
7
100
AcDbText
7
Arial
10
-0.2000
20
-25.7750
40
0.2700
41
0.7500
1
stark zerlegt
7
Arial
72
2
11
-0.2000
21
-25.7750
100
AcDbText
73
2
0
LINE
5
5C3
100
AcDbEntity
8
zerlegung
6
ByLayer
62
256
370
-1
100
AcDbLine
10
-5.2000
20
-26.1500
11
0
21
-26.1500
0
HATCH
5
5C4
100
AcDbEntity
8
zerlegung
6
ByLayer
62
251
100
AcDbHatch
10
0
20
0
30
0
210
0
220
0
230
1
2
SOLID
70
1
71
0
91
1
92
3
72
0
73
1
93
4
10
23.7000
20
-23.1500
10
25
20
-23.1500
10
25
20
-23.9000
10
23.7000
20
-23.9000
97
0
75
0
76
0
98
0
0
LWPOLYLINE
5
5C5
100
AcDbEntity
8
zerlegung
6
ByLayer
62
7
370
-1
100
AcDbPolyline
90
4
70
1
10
23.7000
20
-23.1500
10
25
20
-23.1500
10
25
20
-23.9000
10
23.7000
20
-23.9000
0
TEXT
5
5C6
100
AcDbEntity
8
zerlegung
6
ByLayer
62
7
100
AcDbText
7
Arial
10
24.3500
20
-23.5250
40
0.2700
41
0.7500
1
59%
7
Arial
72
1
11
24.3500
21
-23.5250
100
AcDbText
73
2
0
HATCH
5
5C7
100
AcDbEntity
8
zerlegung
6
ByLayer
62
251
100
AcDbHatch
10
0
20
0
30
0
210
0
220
0
230
1
2
SOLID
70
1
71
0
91
1
92
3
72
0
73
1
93
4
10
35.7000
20
-23.1500
10
37
20
-23.1500
10
37
20
-23.9000
10
35.7000
20
-23.9000
97
0
75
0
76
0
98
0
0
LWPOLYLINE
5
5C8
100
AcDbEntity
8
zerlegung
6
ByLayer
62
7
370
-1
100
AcDbPolyline
90
4
70
1
10
35.7000
20
-23.1500
10
37
20
-23.1500
10
37
20
-23.9000
10
35.7000
20
-23.9000
0
TEXT
5
5C9
100
AcDbEntity
8
zerlegung
6
ByLayer
62
7
100
AcDbText
7
Arial
10
36.3500
20
-23.5250
40
0.2700
41
0.7500
1
52%
7
Arial
72
1
11
36.3500
21
-23.5250
100
AcDbText
73
2
0
HATCH
5
5CA
100
AcDbEntity
8
zerlegung
6
ByLayer
62
251
100
AcDbHatch
10
0
20
0
30
0
210
0
220
0
230
1
2
SOLID
70
1
71
0
91
1
92
3
72
0
73
1
93
4
10
54.7000
20
-23.1500
10
56
20
-23.1500
10
56
20
-23.9000
10
54.7000
20
-23.9000
97
0
75
0
76
0
98
0
0
LWPOLYLINE
5
5CB
100
AcDbEntity
8
zerlegung
6
ByLayer
62
7
370
-1
100
AcDbPolyline
90
4
70
1
10
54.7000
20
-23.1500
10
56
20
-23.1500
10
56
20
-23.9000
10
54.7000
20
-23.9000
0
TEXT
5
5CC
100
AcDbEntity
8
zerlegung
6
ByLayer
62
7
100
AcDbText
7
Arial
10
55.3500
20
-23.5250
40
0.2700
41
0.7500
1
83%
7
Arial
72
1
11
55.3500
21
-23.5250
100
AcDbText
73
2
0
HATCH
5
5CD
100
AcDbEntity
8
zerlegung
6
ByLayer
62
251
100
AcDbHatch
10
0
20
0
30
0
210
0
220
0
230
1
2
SOLID
70
1
71
0
91
1
92
3
72
0
73
1
93
4
10
65.7000
20
-23.1500
10
67
20
-23.1500
10
67
20
-23.9000
10
65.7000
20
-23.9000
97
0
75
0
76
0
98
0
0
LWPOLYLINE
5
5CE
100
AcDbEntity
8
zerlegung
6
ByLayer
62
7
370
-1
100
AcDbPolyline
90
4
70
1
10
65.7000
20
-23.1500
10
67
20
-23.1500
10
67
20
-23.9000
10
65.7000
20
-23.9000
0
TEXT
5
5CF
100
AcDbEntity
8
zerlegung
6
ByLayer
62
7
100
AcDbText
7
Arial
10
66.3500
20
-23.5250
40
0.2700
41
0.7500
1
100%
7
Arial
72
1
11
66.3500
21
-23.5250
100
AcDbText
73
2
0
HATCH
5
5D0
100
AcDbEntity
8
zerlegung
6
ByLayer
62
251
100
AcDbHatch
10
0
20
0
30
0
210
0
220
0
230
1
2
SOLID
70
1
71
0
91
1
92
3
72
0
73
1
93
4
10
69.7000
20
-23.1500
10
71
20
-23.1500
10
71
20
-23.9000
10
69.7000
20
-23.9000
97
0
75
0
76
0
98
0
0
LWPOLYLINE
5
5D1
100
AcDbEntity
8
zerlegung
6
ByLayer
62
7
370
-1
100
AcDbPolyline
90
4
70
1
10
69.7000
20
-23.1500
10
71
20
-23.1500
10
71
20
-23.9000
10
69.7000
20
-23.9000
0
TEXT
5
5D2
100
AcDbEntity
8
zerlegung
6
ByLayer
62
7
100
AcDbText
7
Arial
10
70.3500
20
-23.5250
40
0.2700
41
0.7500
1
71%
7
Arial
72
1
11
70.3500
21
-23.5250
100
AcDbText
73
2
0
HATCH
5
5D3
100
AcDbEntity
8
zerlegung
6
ByLayer
62
251
100
AcDbHatch
10
0
20
0
30
0
210
0
220
0
230
1
2
SOLID
70
1
71
0
91
1
92
3
72
0
73
1
93
4
10
81.7000
20
-23.1500
10
83
20
-23.1500
10
83
20
-23.9000
10
81.7000
20
-23.9000
97
0
75
0
76
0
98
0
0
LWPOLYLINE
5
5D4
100
AcDbEntity
8
zerlegung
6
ByLayer
62
7
370
-1
100
AcDbPolyline
90
4
70
1
10
81.7000
20
-23.1500
10
83
20
-23.1500
10
83
20
-23.9000
10
81.7000
20
-23.9000
0
TEXT
5
5D5
100
AcDbEntity
8
zerlegung
6
ByLayer
62
7
100
AcDbText
7
Arial
10
82.3500
20
-23.5250
40
0.2700
41
0.7500
1
44%
7
Arial
72
1
11
82.3500
21
-23.5250
100
AcDbText
73
2
0
HATCH
5
5D6
100
AcDbEntity
8
zerlegung
6
ByLayer
62
251
100
AcDbHatch
10
0
20
0
30
0
210
0
220
0
230
1
2
SOLID
70
1
71
0
91
1
92
3
72
0
73
1
93
4
10
85.7000
20
-23.1500
10
87
20
-23.1500
10
87
20
-23.9000
10
85.7000
20
-23.9000
97
0
75
0
76
0
98
0
0
LWPOLYLINE
5
5D7
100
AcDbEntity
8
zerlegung
6
ByLayer
62
7
370
-1
100
AcDbPolyline
90
4
70
1
10
85.7000
20
-23.1500
10
87
20
-23.1500
10
87
20
-23.9000
10
85.7000
20
-23.9000
0
TEXT
5
5D8
100
AcDbEntity
8
zerlegung
6
ByLayer
62
7
100
AcDbText
7
Arial
10
86.3500
20
-23.5250
40
0.2700
41
0.7500
1
54%
7
Arial
72
1
11
86.3500
21
-23.5250
100
AcDbText
73
2
0
LINE
5
5D9
100
AcDbEntity
8
zerlegung
6
ByLayer
62
256
370
-1
100
AcDbLine
10
0
20
-23.9000
11
100
21
-23.9000
0
HATCH
5
5DA
100
AcDbEntity
8
zerlegung
6
ByLayer
62
251
100
AcDbHatch
10
0
20
0
30
0
210
0
220
0
230
1
2
SOLID
70
1
71
0
91
1
92
3
72
0
73
1
93
4
10
5.7000
20
-23.9000
10
6.9999
20
-23.9000
10
6.9999
20
-24.6500
10
5.7000
20
-24.6500
97
0
75
0
76
0
98
0
0
LWPOLYLINE
5
5DB
100
AcDbEntity
8
zerlegung
6
ByLayer
62
7
370
-1
100
AcDbPolyline
90
4
70
1
10
5.7000
20
-23.9000
10
6.9999
20
-23.9000
10
6.9999
20
-24.6500
10
5.7000
20
-24.6500
0
TEXT
5
5DC
100
AcDbEntity
8
zerlegung
6
ByLayer
62
7
100
AcDbText
7
Arial
10
6.3500
20
-24.2750
40
0.2700
41
0.7500
1
72%
7
Arial
72
1
11
6.3500
21
-24.2750
100
AcDbText
73
2
0
HATCH
5
5DD
100
AcDbEntity
8
zerlegung
6
ByLayer
62
251
100
AcDbHatch
10
0
20
0
30
0
210
0
220
0
230
1
2
SOLID
70
1
71
0
91
1
92
3
72
0
73
1
93
4
10
31.7000
20
-23.9000
10
33
20
-23.9000
10
33
20
-24.6500
10
31.7000
20
-24.6500
97
0
75
0
76
0
98
0
0
LWPOLYLINE
5
5DE
100
AcDbEntity
8
zerlegung
6
ByLayer
62
7
370
-1
100
AcDbPolyline
90
4
70
1
10
31.7000
20
-23.9000
10
33
20
-23.9000
10
33
20
-24.6500
10
31.7000
20
-24.6500
0
TEXT
5
5DF
100
AcDbEntity
8
zerlegung
6
ByLayer
62
7
100
AcDbText
7
Arial
10
32.3500
20
-24.2750
40
0.2700
41
0.7500
1
59%
7
Arial
72
1
11
32.3500
21
-24.2750
100
AcDbText
73
2
0
HATCH
5
5E0
100
AcDbEntity
8
zerlegung
6
ByLayer
62
251
100
AcDbHatch
10
0
20
0
30
0
210
0
220
0
230
1
2
SOLID
70
1
71
0
91
1
92
3
72
0
73
1
93
4
10
57.7000
20
-23.9000
10
59
20
-23.9000
10
59
20
-24.6500
10
57.7000
20
-24.6500
97
0
75
0
76
0
98
0
0
LWPOLYLINE
5
5E1
100
AcDbEntity
8
zerlegung
6
ByLayer
62
7
370
-1
100
AcDbPolyline
90
4
70
1
10
57.7000
20
-23.9000
10
59
20
-23.9000
10
59
20
-24.6500
10
57.7000
20
-24.6500
0
TEXT
5
5E2
100
AcDbEntity
8
zerlegung
6
ByLayer
62
7
100
AcDbText
7
Arial
10
58.3500
20
-24.2750
40
0.2700
41
0.7500
1
100%
7
Arial
72
1
11
58.3500
21
-24.2750
100
AcDbText
73
2
0
HATCH
5
5E3
100
AcDbEntity
8
zerlegung
6
ByLayer
62
251
100
AcDbHatch
10
0
20
0
30
0
210
0
220
0
230
1
2
SOLID
70
1
71
0
91
1
92
3
72
0
73
1
93
4
10
61.7000
20
-23.9000
10
63
20
-23.9000
10
63
20
-24.6500
10
61.7000
20
-24.6500
97
0
75
0
76
0
98
0
0
LWPOLYLINE
5
5E4
100
AcDbEntity
8
zerlegung
6
ByLayer
62
7
370
-1
100
AcDbPolyline
90
4
70
1
10
61.7000
20
-23.9000
10
63
20
-23.9000
10
63
20
-24.6500
10
61.7000
20
-24.6500
0
TEXT
5
5E5
100
AcDbEntity
8
zerlegung
6
ByLayer
62
7
100
AcDbText
7
Arial
10
62.3500
20
-24.2750
40
0.2700
41
0.7500
1
100%
7
Arial
72
1
11
62.3500
21
-24.2750
100
AcDbText
73
2
0
HATCH
5
5E6
100
AcDbEntity
8
zerlegung
6
ByLayer
62
251
100
AcDbHatch
10
0
20
0
30
0
210
0
220
0
230
1
2
SOLID
70
1
71
0
91
1
92
3
72
0
73
1
93
4
10
69.7000
20
-23.9000
10
71
20
-23.9000
10
71
20
-24.6500
10
69.7000
20
-24.6500
97
0
75
0
76
0
98
0
0
LWPOLYLINE
5
5E7
100
AcDbEntity
8
zerlegung
6
ByLayer
62
7
370
-1
100
AcDbPolyline
90
4
70
1
10
69.7000
20
-23.9000
10
71
20
-23.9000
10
71
20
-24.6500
10
69.7000
20
-24.6500
0
TEXT
5
5E8
100
AcDbEntity
8
zerlegung
6
ByLayer
62
7
100
AcDbText
7
Arial
10
70.3500
20
-24.2750
40
0.2700
41
0.7500
1
29%
7
Arial
72
1
11
70.3500
21
-24.2750
100
AcDbText
73
2
0
HATCH
5
5E9
100
AcDbEntity
8
zerlegung
6
ByLayer
62
251
100
AcDbHatch
10
0
20
0
30
0
210
0
220
0
230
1
2
SOLID
70
1
71
0
91
1
92
3
72
0
73
1
93
4
10
73.7000
20
-23.9000
10
75
20
-23.9000
10
75
20
-24.6500
10
73.7000
20
-24.6500
97
0
75
0
76
0
98
0
0
LWPOLYLINE
5
5EA
100
AcDbEntity
8
zerlegung
6
ByLayer
62
7
370
-1
100
AcDbPolyline
90
4
70
1
10
73.7000
20
-23.9000
10
75
20
-23.9000
10
75
20
-24.6500
10
73.7000
20
-24.6500
0
TEXT
5
5EB
100
AcDbEntity
8
zerlegung
6
ByLayer
62
7
100
AcDbText
7
Arial
10
74.3500
20
-24.2750
40
0.2700
41
0.7500
1
100%
7
Arial
72
1
11
74.3500
21
-24.2750
100
AcDbText
73
2
0
HATCH
5
5EC
100
AcDbEntity
8
zerlegung
6
ByLayer
62
251
100
AcDbHatch
10
0
20
0
30
0
210
0
220
0
230
1
2
SOLID
70
1
71
0
91
1
92
3
72
0
73
1
93
4
10
77.7000
20
-23.9000
10
79
20
-23.9000
10
79
20
-24.6500
10
77.7000
20
-24.6500
97
0
75
0
76
0
98
0
0
LWPOLYLINE
5
5ED
100
AcDbEntity
8
zerlegung
6
ByLayer
62
7
370
-1
100
AcDbPolyline
90
4
70
1
10
77.7000
20
-23.9000
10
79
20
-23.9000
10
79
20
-24.6500
10
77.7000
20
-24.6500
0
TEXT
5
5EE
100
AcDbEntity
8
zerlegung
6
ByLayer
62
7
100
AcDbText
7
Arial
10
78.3500
20
-24.2750
40
0.2700
41
0.7500
1
100%
7
Arial
72
1
11
78.3500
21
-24.2750
100
AcDbText
73
2
0
LINE
5
5EF
100
AcDbEntity
8
zerlegung
6
ByLayer
62
256
370
-1
100
AcDbLine
10
0
20
-24.6500
11
100
21
-24.6500
0
HATCH
5
5F0
100
AcDbEntity
8
zerlegung
6
ByLayer
62
251
100
AcDbHatch
10
0
20
0
30
0
210
0
220
0
230
1
2
SOLID
70
1
71
0
91
1
92
3
72
0
73
1
93
4
10
-0.3000
20
-24.6500
10
1
20
-24.6500
10
1
20
-25.4000
10
-0.3000
20
-25.4000
97
0
75
0
76
0
98
0
0
LWPOLYLINE
5
5F1
100
AcDbEntity
8
zerlegung
6
ByLayer
62
7
370
-1
100
AcDbPolyline
90
4
70
1
10
-0.3000
20
-24.6500
10
1
20
-24.6500
10
1
20
-25.4000
10
-0.3000
20
-25.4000
0
TEXT
5
5F2
100
AcDbEntity
8
zerlegung
6
ByLayer
62
7
100
AcDbText
7
Arial
10
0.3500
20
-25.0250
40
0.2700
41
0.7500
1
56%
7
Arial
72
1
11
0.3500
21
-25.0250
100
AcDbText
73
2
0
HATCH
5
5F3
100
AcDbEntity
8
zerlegung
6
ByLayer
62
251
100
AcDbHatch
10
0
20
0
30
0
210
0
220
0
230
1
2
SOLID
70
1
71
0
91
1
92
3
72
0
73
1
93
4
10
5.7000
20
-24.6500
10
6.9999
20
-24.6500
10
6.9999
20
-25.4000
10
5.7000
20
-25.4000
97
0
75
0
76
0
98
0
0
LWPOLYLINE
5
5F4
100
AcDbEntity
8
zerlegung
6
ByLayer
62
7
370
-1
100
AcDbPolyline
90
4
70
1
10
5.7000
20
-24.6500
10
6.9999
20
-24.6500
10
6.9999
20
-25.4000
10
5.7000
20
-25.4000
0
TEXT
5
5F5
100
AcDbEntity
8
zerlegung
6
ByLayer
62
7
100
AcDbText
7
Arial
10
6.3500
20
-25.0250
40
0.2700
41
0.7500
1
28%
7
Arial
72
1
11
6.3500
21
-25.0250
100
AcDbText
73
2
0
HATCH
5
5F6
100
AcDbEntity
8
zerlegung
6
ByLayer
62
251
100
AcDbHatch
10
0
20
0
30
0
210
0
220
0
230
1
2
SOLID
70
1
71
0
91
1
92
3
72
0
73
1
93
4
10
10.7000
20
-24.6500
10
12
20
-24.6500
10
12
20
-25.4000
10
10.7000
20
-25.4000
97
0
75
0
76
0
98
0
0
LWPOLYLINE
5
5F7
100
AcDbEntity
8
zerlegung
6
ByLayer
62
7
370
-1
100
AcDbPolyline
90
4
70
1
10
10.7000
20
-24.6500
10
12
20
-24.6500
10
12
20
-25.4000
10
10.7000
20
-25.4000
0
TEXT
5
5F8
100
AcDbEntity
8
zerlegung
6
ByLayer
62
7
100
AcDbText
7
Arial
10
11.3500
20
-25.0250
40
0.2700
41
0.7500
1
60%
7
Arial
72
1
11
11.3500
21
-25.0250
100
AcDbText
73
2
0
HATCH
5
5F9
100
AcDbEntity
8
zerlegung
6
ByLayer
62
251
100
AcDbHatch
10
0
20
0
30
0
210
0
220
0
230
1
2
SOLID
70
1
71
0
91
1
92
3
72
0
73
1
93
4
10
15.7000
20
-24.6500
10
17
20
-24.6500
10
17
20
-25.4000
10
15.7000
20
-25.4000
97
0
75
0
76
0
98
0
0
LWPOLYLINE
5
5FA
100
AcDbEntity
8
zerlegung
6
ByLayer
62
7
370
-1
100
AcDbPolyline
90
4
70
1
10
15.7000
20
-24.6500
10
17
20
-24.6500
10
17
20
-25.4000
10
15.7000
20
-25.4000
0
TEXT
5
5FB
100
AcDbEntity
8
zerlegung
6
ByLayer
62
7
100
AcDbText
7
Arial
10
16.3500
20
-25.0250
40
0.2700
41
0.7500
1
68%
7
Arial
72
1
11
16.3500
21
-25.0250
100
AcDbText
73
2
0
HATCH
5
5FC
100
AcDbEntity
8
zerlegung
6
ByLayer
62
251
100
AcDbHatch
10
0
20
0
30
0
210
0
220
0
230
1
2
SOLID
70
1
71
0
91
1
92
3
72
0
73
1
93
4
10
20.7000
20
-24.6500
10
22
20
-24.6500
10
22
20
-25.4000
10
20.7000
20
-25.4000
97
0
75
0
76
0
98
0
0
LWPOLYLINE
5
5FD
100
AcDbEntity
8
zerlegung
6
ByLayer
62
7
370
-1
100
AcDbPolyline
90
4
70
1
10
20.7000
20
-24.6500
10
22
20
-24.6500
10
22
20
-25.4000
10
20.7000
20
-25.4000
0
TEXT
5
5FE
100
AcDbEntity
8
zerlegung
6
ByLayer
62
7
100
AcDbText
7
Arial
10
21.3500
20
-25.0250
40
0.2700
41
0.7500
1
38%
7
Arial
72
1
11
21.3500
21
-25.0250
100
AcDbText
73
2
0
HATCH
5
5FF
100
AcDbEntity
8
zerlegung
6
ByLayer
62
251
100
AcDbHatch
10
0
20
0
30
0
210
0
220
0
230
1
2
SOLID
70
1
71
0
91
1
92
3
72
0
73
1
93
4
10
23.7000
20
-24.6500
10
25
20
-24.6500
10
25
20
-25.4000
10
23.7000
20
-25.4000
97
0
75
0
76
0
98
0
0
LWPOLYLINE
5
600
100
AcDbEntity
8
zerlegung
6
ByLayer
62
7
370
-1
100
AcDbPolyline
90
4
70
1
10
23.7000
20
-24.6500
10
25
20
-24.6500
10
25
20
-25.4000
10
23.7000
20
-25.4000
0
TEXT
5
601
100
AcDbEntity
8
zerlegung
6
ByLayer
62
7
100
AcDbText
7
Arial
10
24.3500
20
-25.0250
40
0.2700
41
0.7500
1
41%
7
Arial
72
1
11
24.3500
21
-25.0250
100
AcDbText
73
2
0
HATCH
5
602
100
AcDbEntity
8
zerlegung
6
ByLayer
62
251
100
AcDbHatch
10
0
20
0
30
0
210
0
220
0
230
1
2
SOLID
70
1
71
0
91
1
92
3
72
0
73
1
93
4
10
27.7000
20
-24.6500
10
29
20
-24.6500
10
29
20
-25.4000
10
27.7000
20
-25.4000
97
0
75
0
76
0
98
0
0
LWPOLYLINE
5
603
100
AcDbEntity
8
zerlegung
6
ByLayer
62
7
370
-1
100
AcDbPolyline
90
4
70
1
10
27.7000
20
-24.6500
10
29
20
-24.6500
10
29
20
-25.4000
10
27.7000
20
-25.4000
0
TEXT
5
604
100
AcDbEntity
8
zerlegung
6
ByLayer
62
7
100
AcDbText
7
Arial
10
28.3500
20
-25.0250
40
0.2700
41
0.7500
1
39%
7
Arial
72
1
11
28.3500
21
-25.0250
100
AcDbText
73
2
0
HATCH
5
605
100
AcDbEntity
8
zerlegung
6
ByLayer
62
251
100
AcDbHatch
10
0
20
0
30
0
210
0
220
0
230
1
2
SOLID
70
1
71
0
91
1
92
3
72
0
73
1
93
4
10
31.7000
20
-24.6500
10
33
20
-24.6500
10
33
20
-25.4000
10
31.7000
20
-25.4000
97
0
75
0
76
0
98
0
0
LWPOLYLINE
5
606
100
AcDbEntity
8
zerlegung
6
ByLayer
62
7
370
-1
100
AcDbPolyline
90
4
70
1
10
31.7000
20
-24.6500
10
33
20
-24.6500
10
33
20
-25.4000
10
31.7000
20
-25.4000
0
TEXT
5
607
100
AcDbEntity
8
zerlegung
6
ByLayer
62
7
100
AcDbText
7
Arial
10
32.3500
20
-25.0250
40
0.2700
41
0.7500
1
41%
7
Arial
72
1
11
32.3500
21
-25.0250
100
AcDbText
73
2
0
HATCH
5
608
100
AcDbEntity
8
zerlegung
6
ByLayer
62
251
100
AcDbHatch
10
0
20
0
30
0
210
0
220
0
230
1
2
SOLID
70
1
71
0
91
1
92
3
72
0
73
1
93
4
10
35.7000
20
-24.6500
10
37
20
-24.6500
10
37
20
-25.4000
10
35.7000
20
-25.4000
97
0
75
0
76
0
98
0
0
LWPOLYLINE
5
609
100
AcDbEntity
8
zerlegung
6
ByLayer
62
7
370
-1
100
AcDbPolyline
90
4
70
1
10
35.7000
20
-24.6500
10
37
20
-24.6500
10
37
20
-25.4000
10
35.7000
20
-25.4000
0
TEXT
5
60A
100
AcDbEntity
8
zerlegung
6
ByLayer
62
7
100
AcDbText
7
Arial
10
36.3500
20
-25.0250
40
0.2700
41
0.7500
1
48%
7
Arial
72
1
11
36.3500
21
-25.0250
100
AcDbText
73
2
0
HATCH
5
60B
100
AcDbEntity
8
zerlegung
6
ByLayer
62
251
100
AcDbHatch
10
0
20
0
30
0
210
0
220
0
230
1
2
SOLID
70
1
71
0
91
1
92
3
72
0
73
1
93
4
10
38.7000
20
-24.6500
10
40
20
-24.6500
10
40
20
-25.4000
10
38.7000
20
-25.4000
97
0
75
0
76
0
98
0
0
LWPOLYLINE
5
60C
100
AcDbEntity
8
zerlegung
6
ByLayer
62
7
370
-1
100
AcDbPolyline
90
4
70
1
10
38.7000
20
-24.6500
10
40
20
-24.6500
10
40
20
-25.4000
10
38.7000
20
-25.4000
0
TEXT
5
60D
100
AcDbEntity
8
zerlegung
6
ByLayer
62
7
100
AcDbText
7
Arial
10
39.3500
20
-25.0250
40
0.2700
41
0.7500
1
58%
7
Arial
72
1
11
39.3500
21
-25.0250
100
AcDbText
73
2
0
HATCH
5
60E
100
AcDbEntity
8
zerlegung
6
ByLayer
62
251
100
AcDbHatch
10
0
20
0
30
0
210
0
220
0
230
1
2
SOLID
70
1
71
0
91
1
92
3
72
0
73
1
93
4
10
43.7000
20
-24.6500
10
45
20
-24.6500
10
45
20
-25.4000
10
43.7000
20
-25.4000
97
0
75
0
76
0
98
0
0
LWPOLYLINE
5
60F
100
AcDbEntity
8
zerlegung
6
ByLayer
62
7
370
-1
100
AcDbPolyline
90
4
70
1
10
43.7000
20
-24.6500
10
45
20
-24.6500
10
45
20
-25.4000
10
43.7000
20
-25.4000
0
TEXT
5
610
100
AcDbEntity
8
zerlegung
6
ByLayer
62
7
100
AcDbText
7
Arial
10
44.3500
20
-25.0250
40
0.2700
41
0.7500
1
100%
7
Arial
72
1
11
44.3500
21
-25.0250
100
AcDbText
73
2
0
HATCH
5
611
100
AcDbEntity
8
zerlegung
6
ByLayer
62
251
100
AcDbHatch
10
0
20
0
30
0
210
0
220
0
230
1
2
SOLID
70
1
71
0
91
1
92
3
72
0
73
1
93
4
10
46.7000
20
-24.6500
10
48
20
-24.6500
10
48
20
-25.4000
10
46.7000
20
-25.4000
97
0
75
0
76
0
98
0
0
LWPOLYLINE
5
612
100
AcDbEntity
8
zerlegung
6
ByLayer
62
7
370
-1
100
AcDbPolyline
90
4
70
1
10
46.7000
20
-24.6500
10
48
20
-24.6500
10
48
20
-25.4000
10
46.7000
20
-25.4000
0
TEXT
5
613
100
AcDbEntity
8
zerlegung
6
ByLayer
62
7
100
AcDbText
7
Arial
10
47.3500
20
-25.0250
40
0.2700
41
0.7500
1
18%
7
Arial
72
1
11
47.3500
21
-25.0250
100
AcDbText
73
2
0
HATCH
5
614
100
AcDbEntity
8
zerlegung
6
ByLayer
62
251
100
AcDbHatch
10
0
20
0
30
0
210
0
220
0
230
1
2
SOLID
70
1
71
0
91
1
92
3
72
0
73
1
93
4
10
50.7000
20
-24.6500
10
52
20
-24.6500
10
52
20
-25.4000
10
50.7000
20
-25.4000
97
0
75
0
76
0
98
0
0
LWPOLYLINE
5
615
100
AcDbEntity
8
zerlegung
6
ByLayer
62
7
370
-1
100
AcDbPolyline
90
4
70
1
10
50.7000
20
-24.6500
10
52
20
-24.6500
10
52
20
-25.4000
10
50.7000
20
-25.4000
0
TEXT
5
616
100
AcDbEntity
8
zerlegung
6
ByLayer
62
7
100
AcDbText
7
Arial
10
51.3500
20
-25.0250
40
0.2700
41
0.7500
1
83%
7
Arial
72
1
11
51.3500
21
-25.0250
100
AcDbText
73
2
0
HATCH
5
617
100
AcDbEntity
8
zerlegung
6
ByLayer
62
251
100
AcDbHatch
10
0
20
0
30
0
210
0
220
0
230
1
2
SOLID
70
1
71
0
91
1
92
3
72
0
73
1
93
4
10
54.7000
20
-24.6500
10
56
20
-24.6500
10
56
20
-25.4000
10
54.7000
20
-25.4000
97
0
75
0
76
0
98
0
0
LWPOLYLINE
5
618
100
AcDbEntity
8
zerlegung
6
ByLayer
62
7
370
-1
100
AcDbPolyline
90
4
70
1
10
54.7000
20
-24.6500
10
56
20
-24.6500
10
56
20
-25.4000
10
54.7000
20
-25.4000
0
TEXT
5
619
100
AcDbEntity
8
zerlegung
6
ByLayer
62
7
100
AcDbText
7
Arial
10
55.3500
20
-25.0250
40
0.2700
41
0.7500
1
17%
7
Arial
72
1
11
55.3500
21
-25.0250
100
AcDbText
73
2
0
HATCH
5
61A
100
AcDbEntity
8
zerlegung
6
ByLayer
62
251
100
AcDbHatch
10
0
20
0
30
0
210
0
220
0
230
1
2
SOLID
70
1
71
0
91
1
92
3
72
0
73
1
93
4
10
89.7000
20
-24.6500
10
91
20
-24.6500
10
91
20
-25.4000
10
89.7000
20
-25.4000
97
0
75
0
76
0
98
0
0
LWPOLYLINE
5
61B
100
AcDbEntity
8
zerlegung
6
ByLayer
62
7
370
-1
100
AcDbPolyline
90
4
70
1
10
89.7000
20
-24.6500
10
91
20
-24.6500
10
91
20
-25.4000
10
89.7000
20
-25.4000
0
TEXT
5
61C
100
AcDbEntity
8
zerlegung
6
ByLayer
62
7
100
AcDbText
7
Arial
10
90.3500
20
-25.0250
40
0.2700
41
0.7500
1
100%
7
Arial
72
1
11
90.3500
21
-25.0250
100
AcDbText
73
2
0
HATCH
5
61D
100
AcDbEntity
8
zerlegung
6
ByLayer
62
251
100
AcDbHatch
10
0
20
0
30
0
210
0
220
0
230
1
2
SOLID
70
1
71
0
91
1
92
3
72
0
73
1
93
4
10
93.7000
20
-24.6500
10
95
20
-24.6500
10
95
20
-25.4000
10
93.7000
20
-25.4000
97
0
75
0
76
0
98
0
0
LWPOLYLINE
5
61E
100
AcDbEntity
8
zerlegung
6
ByLayer
62
7
370
-1
100
AcDbPolyline
90
4
70
1
10
93.7000
20
-24.6500
10
95
20
-24.6500
10
95
20
-25.4000
10
93.7000
20
-25.4000
0
TEXT
5
61F
100
AcDbEntity
8
zerlegung
6
ByLayer
62
7
100
AcDbText
7
Arial
10
94.3500
20
-25.0250
40
0.2700
41
0.7500
1
100%
7
Arial
72
1
11
94.3500
21
-25.0250
100
AcDbText
73
2
0
HATCH
5
620
100
AcDbEntity
8
zerlegung
6
ByLayer
62
251
100
AcDbHatch
10
0
20
0
30
0
210
0
220
0
230
1
2
SOLID
70
1
71
0
91
1
92
3
72
0
73
1
93
4
10
95
20
-24.6500
10
96.3000
20
-24.6500
10
96.3000
20
-25.4000
10
95
20
-25.4000
97
0
75
0
76
0
98
0
0
LWPOLYLINE
5
621
100
AcDbEntity
8
zerlegung
6
ByLayer
62
7
370
-1
100
AcDbPolyline
90
4
70
1
10
95
20
-24.6500
10
96.3000
20
-24.6500
10
96.3000
20
-25.4000
10
95
20
-25.4000
0
TEXT
5
622
100
AcDbEntity
8
zerlegung
6
ByLayer
62
7
100
AcDbText
7
Arial
10
95.6500
20
-25.0250
40
0.2700
41
0.7500
1
100%
7
Arial
72
1
11
95.6500
21
-25.0250
100
AcDbText
73
2
0
LINE
5
623
100
AcDbEntity
8
zerlegung
6
ByLayer
62
256
370
-1
100
AcDbLine
10
0
20
-25.4000
11
100
21
-25.4000
0
LINE
5
624
100
AcDbEntity
8
zerlegung
6
ByLayer
62
256
370
-1
100
AcDbLine
10
0
20
-26.1500
11
100
21
-26.1500
0
LWPOLYLINE
5
625
100
AcDbEntity
8
zerlegung
6
ByLayer
62
7
370
30
100
AcDbPolyline
90
4
70
1
10
105.2000
20
-23.1500
10
110.7000
20
-23.1500
10
110.7000
20
-26.1500
10
105.2000
20
-26.1500
0
LWPOLYLINE
5
626
100
AcDbEntity
8
zerlegung
6
ByLayer
62
7
370
30
100
AcDbPolyline
90
4
70
1
10
100
20
-23.1500
10
105.2000
20
-23.1500
10
105.2000
20
-26.1500
10
100
20
-26.1500
0
TEXT
5
627
100
AcDbEntity
8
zerlegung
6
ByLayer
62
7
100
AcDbText
7
Arial
10
110.5000
20
-24.6500
40
0.4500
41
0.7500
1
Zerlegung
7
Arial
72
2
11
110.5000
21
-24.6500
100
AcDbText
73
2
0
TEXT
5
628
100
AcDbEntity
8
zerlegung
6
ByLayer
62
7
100
AcDbText
7
Arial
10
100.2000
20
-23.5250
40
0.2700
41
0.7500
1
zerlegt
7
Arial
11
100.2000
21
-23.5250
100
AcDbText
73
2
0
LINE
5
629
100
AcDbEntity
8
zerlegung
6
ByLayer
62
256
370
-1
100
AcDbLine
10
100
20
-23.9000
11
105.2000
21
-23.9000
0
TEXT
5
62A
100
AcDbEntity
8
zerlegung
6
ByLayer
62
7
100
AcDbText
7
Arial
10
100.2000
20
-24.2750
40
0.2700
41
0.7500
1
dünnschichtig (0,5-2 cm) 
7
Arial
11
100.2000
21
-24.2750
100
AcDbText
73
2
0
LINE
5
62B
100
AcDbEntity
8
zerlegung
6
ByLayer
62
256
370
-1
100
AcDbLine
10
100
20
-24.6500
11
105.2000
21
-24.6500
0
TEXT
5
62C
100
AcDbEntity
8
zerlegung
6
ByLayer
62
7
100
AcDbText
7
Arial
10
100.2000
20
-25.0250
40
0.2700
41
0.7500
1
dünnschichtig (0,5-2 cm) 
7
Arial
11
100.2000
21
-25.0250
100
AcDbText
73
2
0
LINE
5
62D
100
AcDbEntity
8
zerlegung
6
ByLayer
62
256
370
-1
100
AcDbLine
10
100
20
-25.4000
11
105.2000
21
-25.4000
0
TEXT
5
62E
100
AcDbEntity
8
zerlegung
6
ByLayer
62
7
100
AcDbText
7
Arial
10
100.2000
20
-25.7750
40
0.2700
41
0.7500
1
stark zerlegt
7
Arial
11
100.2000
21
-25.7750
100
AcDbText
73
2
0
LINE
5
62F
100
AcDbEntity
8
zerlegung
6
ByLayer
62
256
370
-1
100
AcDbLine
10
100
20
-26.1500
11
105.2000
21
-26.1500
0
LWPOLYLINE
5
630
100
AcDbEntity
8
zerlegung
6
ByLayer
62
7
370
30
100
AcDbPolyline
90
4
70
1
10
0
20
-23.1500
10
100
20
-23.1500
10
100
20
-26.1500
10
0
20
-26.1500
0
LWPOLYLINE
5
632
100
AcDbEntity
8
verbandsfestigkeit
6
ByLayer
62
7
370
30
100
AcDbPolyline
90
4
70
1
10
-10.7000
20
-26.1500
10
-5.2000
20
-26.1500
10
-5.2000
20
-29.1500
10
-10.7000
20
-29.1500
0
LWPOLYLINE
5
633
100
AcDbEntity
8
verbandsfestigkeit
6
ByLayer
62
7
370
30
100
AcDbPolyline
90
4
70
1
10
-5.2000
20
-26.1500
10
0
20
-26.1500
10
0
20
-29.1500
10
-5.2000
20
-29.1500
0
TEXT
5
634
100
AcDbEntity
8
verbandsfestigkeit
6
ByLayer
62
7
100
AcDbText
7
Arial
10
-10.5000
20
-27.6500
40
0.4500
41
0.7500
1
Verbandsfestigkeit
7
Arial
11
-10.5000
21
-27.6500
100
AcDbText
73
2
0
TEXT
5
635
100
AcDbEntity
8
verbandsfestigkeit
6
ByLayer
62
7
100
AcDbText
7
Arial
10
-0.2000
20
-26.5250
40
0.2700
41
0.7500
1
keine Teilbwglk.
7
Arial
72
2
11
-0.2000
21
-26.5250
100
AcDbText
73
2
0
LINE
5
636
100
AcDbEntity
8
verbandsfestigkeit
6
ByLayer
62
256
370
-1
100
AcDbLine
10
-5.2000
20
-26.9000
11
0
21
-26.9000
0
TEXT
5
637
100
AcDbEntity
8
verbandsfestigkeit
6
ByLayer
62
7
100
AcDbText
7
Arial
10
-0.2000
20
-27.2750
40
0.2700
41
0.7500
1
ger. Teilbwglk.
7
Arial
72
2
11
-0.2000
21
-27.2750
100
AcDbText
73
2
0
LINE
5
638
100
AcDbEntity
8
verbandsfestigkeit
6
ByLayer
62
256
370
-1
100
AcDbLine
10
-5.2000
20
-27.6500
11
0
21
-27.6500
0
TEXT
5
639
100
AcDbEntity
8
verbandsfestigkeit
6
ByLayer
62
7
100
AcDbText
7
Arial
10
-0.2000
20
-28.0250
40
0.2700
41
0.7500
1
deutl. Teilbwglk.
7
Arial
72
2
11
-0.2000
21
-28.0250
100
AcDbText
73
2
0
LINE
5
63A
100
AcDbEntity
8
verbandsfestigkeit
6
ByLayer
62
256
370
-1
100
AcDbLine
10
-5.2000
20
-28.4000
11
0
21
-28.4000
0
TEXT
5
63B
100
AcDbEntity
8
verbandsfestigkeit
6
ByLayer
62
7
100
AcDbText
7
Arial
10
-0.2000
20
-28.7750
40
0.2700
41
0.7500
1
sehr hohe Teilbwglk.
7
Arial
72
2
11
-0.2000
21
-28.7750
100
AcDbText
73
2
0
LINE
5
63C
100
AcDbEntity
8
verbandsfestigkeit
6
ByLayer
62
256
370
-1
100
AcDbLine
10
-5.2000
20
-29.1500
11
0
21
-29.1500
0
HATCH
5
63D
100
AcDbEntity
8
verbandsfestigkeit
6
ByLayer
62
105
100
AcDbHatch
10
0
20
0
30
0
210
0
220
0
230
1
2
SOLID
70
1
71
0
91
1
92
3
72
0
73
1
93
4
10
-0.3000
20
-26.1500
10
1
20
-26.1500
10
1
20
-26.9000
10
-0.3000
20
-26.9000
97
0
75
0
76
0
98
0
0
LWPOLYLINE
5
63E
100
AcDbEntity
8
verbandsfestigkeit
6
ByLayer
62
7
370
-1
100
AcDbPolyline
90
4
70
1
10
-0.3000
20
-26.1500
10
1
20
-26.1500
10
1
20
-26.9000
10
-0.3000
20
-26.9000
0
TEXT
5
63F
100
AcDbEntity
8
verbandsfestigkeit
6
ByLayer
62
7
100
AcDbText
7
Arial
10
0.3500
20
-26.5250
40
0.2700
41
0.7500
1
56%
7
Arial
72
1
11
0.3500
21
-26.5250
100
AcDbText
73
2
0
HATCH
5
640
100
AcDbEntity
8
verbandsfestigkeit
6
ByLayer
62
105
100
AcDbHatch
10
0
20
0
30
0
210
0
220
0
230
1
2
SOLID
70
1
71
0
91
1
92
3
72
0
73
1
93
4
10
43.7000
20
-26.1500
10
45
20
-26.1500
10
45
20
-26.9000
10
43.7000
20
-26.9000
97
0
75
0
76
0
98
0
0
LWPOLYLINE
5
641
100
AcDbEntity
8
verbandsfestigkeit
6
ByLayer
62
7
370
-1
100
AcDbPolyline
90
4
70
1
10
43.7000
20
-26.1500
10
45
20
-26.1500
10
45
20
-26.9000
10
43.7000
20
-26.9000
0
TEXT
5
642
100
AcDbEntity
8
verbandsfestigkeit
6
ByLayer
62
7
100
AcDbText
7
Arial
10
44.3500
20
-26.5250
40
0.2700
41
0.7500
1
80%
7
Arial
72
1
11
44.3500
21
-26.5250
100
AcDbText
73
2
0
HATCH
5
643
100
AcDbEntity
8
verbandsfestigkeit
6
ByLayer
62
105
100
AcDbHatch
10
0
20
0
30
0
210
0
220
0
230
1
2
SOLID
70
1
71
0
91
1
92
3
72
0
73
1
93
4
10
46.7000
20
-26.1500
10
48
20
-26.1500
10
48
20
-26.9000
10
46.7000
20
-26.9000
97
0
75
0
76
0
98
0
0
LWPOLYLINE
5
644
100
AcDbEntity
8
verbandsfestigkeit
6
ByLayer
62
7
370
-1
100
AcDbPolyline
90
4
70
1
10
46.7000
20
-26.1500
10
48
20
-26.1500
10
48
20
-26.9000
10
46.7000
20
-26.9000
0
TEXT
5
645
100
AcDbEntity
8
verbandsfestigkeit
6
ByLayer
62
7
100
AcDbText
7
Arial
10
47.3500
20
-26.5250
40
0.2700
41
0.7500
1
18%
7
Arial
72
1
11
47.3500
21
-26.5250
100
AcDbText
73
2
0
HATCH
5
646
100
AcDbEntity
8
verbandsfestigkeit
6
ByLayer
62
105
100
AcDbHatch
10
0
20
0
30
0
210
0
220
0
230
1
2
SOLID
70
1
71
0
91
1
92
3
72
0
73
1
93
4
10
54.7000
20
-26.1500
10
56
20
-26.1500
10
56
20
-26.9000
10
54.7000
20
-26.9000
97
0
75
0
76
0
98
0
0
LWPOLYLINE
5
647
100
AcDbEntity
8
verbandsfestigkeit
6
ByLayer
62
7
370
-1
100
AcDbPolyline
90
4
70
1
10
54.7000
20
-26.1500
10
56
20
-26.1500
10
56
20
-26.9000
10
54.7000
20
-26.9000
0
TEXT
5
648
100
AcDbEntity
8
verbandsfestigkeit
6
ByLayer
62
7
100
AcDbText
7
Arial
10
55.3500
20
-26.5250
40
0.2700
41
0.7500
1
61%
7
Arial
72
1
11
55.3500
21
-26.5250
100
AcDbText
73
2
0
HATCH
5
649
100
AcDbEntity
8
verbandsfestigkeit
6
ByLayer
62
105
100
AcDbHatch
10
0
20
0
30
0
210
0
220
0
230
1
2
SOLID
70
1
71
0
91
1
92
3
72
0
73
1
93
4
10
57.7000
20
-26.1500
10
59
20
-26.1500
10
59
20
-26.9000
10
57.7000
20
-26.9000
97
0
75
0
76
0
98
0
0
LWPOLYLINE
5
64A
100
AcDbEntity
8
verbandsfestigkeit
6
ByLayer
62
7
370
-1
100
AcDbPolyline
90
4
70
1
10
57.7000
20
-26.1500
10
59
20
-26.1500
10
59
20
-26.9000
10
57.7000
20
-26.9000
0
TEXT
5
64B
100
AcDbEntity
8
verbandsfestigkeit
6
ByLayer
62
7
100
AcDbText
7
Arial
10
58.3500
20
-26.5250
40
0.2700
41
0.7500
1
43%
7
Arial
72
1
11
58.3500
21
-26.5250
100
AcDbText
73
2
0
HATCH
5
64C
100
AcDbEntity
8
verbandsfestigkeit
6
ByLayer
62
105
100
AcDbHatch
10
0
20
0
30
0
210
0
220
0
230
1
2
SOLID
70
1
71
0
91
1
92
3
72
0
73
1
93
4
10
61.7000
20
-26.1500
10
63
20
-26.1500
10
63
20
-26.9000
10
61.7000
20
-26.9000
97
0
75
0
76
0
98
0
0
LWPOLYLINE
5
64D
100
AcDbEntity
8
verbandsfestigkeit
6
ByLayer
62
7
370
-1
100
AcDbPolyline
90
4
70
1
10
61.7000
20
-26.1500
10
63
20
-26.1500
10
63
20
-26.9000
10
61.7000
20
-26.9000
0
TEXT
5
64E
100
AcDbEntity
8
verbandsfestigkeit
6
ByLayer
62
7
100
AcDbText
7
Arial
10
62.3500
20
-26.5250
40
0.2700
41
0.7500
1
63%
7
Arial
72
1
11
62.3500
21
-26.5250
100
AcDbText
73
2
0
HATCH
5
64F
100
AcDbEntity
8
verbandsfestigkeit
6
ByLayer
62
105
100
AcDbHatch
10
0
20
0
30
0
210
0
220
0
230
1
2
SOLID
70
1
71
0
91
1
92
3
72
0
73
1
93
4
10
73.7000
20
-26.1500
10
75
20
-26.1500
10
75
20
-26.9000
10
73.7000
20
-26.9000
97
0
75
0
76
0
98
0
0
LWPOLYLINE
5
650
100
AcDbEntity
8
verbandsfestigkeit
6
ByLayer
62
7
370
-1
100
AcDbPolyline
90
4
70
1
10
73.7000
20
-26.1500
10
75
20
-26.1500
10
75
20
-26.9000
10
73.7000
20
-26.9000
0
TEXT
5
651
100
AcDbEntity
8
verbandsfestigkeit
6
ByLayer
62
7
100
AcDbText
7
Arial
10
74.3500
20
-26.5250
40
0.2700
41
0.7500
1
35%
7
Arial
72
1
11
74.3500
21
-26.5250
100
AcDbText
73
2
0
HATCH
5
652
100
AcDbEntity
8
verbandsfestigkeit
6
ByLayer
62
105
100
AcDbHatch
10
0
20
0
30
0
210
0
220
0
230
1
2
SOLID
70
1
71
0
91
1
92
3
72
0
73
1
93
4
10
77.7000
20
-26.1500
10
79
20
-26.1500
10
79
20
-26.9000
10
77.7000
20
-26.9000
97
0
75
0
76
0
98
0
0
LWPOLYLINE
5
653
100
AcDbEntity
8
verbandsfestigkeit
6
ByLayer
62
7
370
-1
100
AcDbPolyline
90
4
70
1
10
77.7000
20
-26.1500
10
79
20
-26.1500
10
79
20
-26.9000
10
77.7000
20
-26.9000
0
TEXT
5
654
100
AcDbEntity
8
verbandsfestigkeit
6
ByLayer
62
7
100
AcDbText
7
Arial
10
78.3500
20
-26.5250
40
0.2700
41
0.7500
1
75%
7
Arial
72
1
11
78.3500
21
-26.5250
100
AcDbText
73
2
0
HATCH
5
655
100
AcDbEntity
8
verbandsfestigkeit
6
ByLayer
62
105
100
AcDbHatch
10
0
20
0
30
0
210
0
220
0
230
1
2
SOLID
70
1
71
0
91
1
92
3
72
0
73
1
93
4
10
81.7000
20
-26.1500
10
83
20
-26.1500
10
83
20
-26.9000
10
81.7000
20
-26.9000
97
0
75
0
76
0
98
0
0
LWPOLYLINE
5
656
100
AcDbEntity
8
verbandsfestigkeit
6
ByLayer
62
7
370
-1
100
AcDbPolyline
90
4
70
1
10
81.7000
20
-26.1500
10
83
20
-26.1500
10
83
20
-26.9000
10
81.7000
20
-26.9000
0
TEXT
5
657
100
AcDbEntity
8
verbandsfestigkeit
6
ByLayer
62
7
100
AcDbText
7
Arial
10
82.3500
20
-26.5250
40
0.2700
41
0.7500
1
56%
7
Arial
72
1
11
82.3500
21
-26.5250
100
AcDbText
73
2
0
HATCH
5
658
100
AcDbEntity
8
verbandsfestigkeit
6
ByLayer
62
105
100
AcDbHatch
10
0
20
0
30
0
210
0
220
0
230
1
2
SOLID
70
1
71
0
91
1
92
3
72
0
73
1
93
4
10
85.7000
20
-26.1500
10
87
20
-26.1500
10
87
20
-26.9000
10
85.7000
20
-26.9000
97
0
75
0
76
0
98
0
0
LWPOLYLINE
5
659
100
AcDbEntity
8
verbandsfestigkeit
6
ByLayer
62
7
370
-1
100
AcDbPolyline
90
4
70
1
10
85.7000
20
-26.1500
10
87
20
-26.1500
10
87
20
-26.9000
10
85.7000
20
-26.9000
0
TEXT
5
65A
100
AcDbEntity
8
verbandsfestigkeit
6
ByLayer
62
7
100
AcDbText
7
Arial
10
86.3500
20
-26.5250
40
0.2700
41
0.7500
1
46%
7
Arial
72
1
11
86.3500
21
-26.5250
100
AcDbText
73
2
0
LINE
5
65B
100
AcDbEntity
8
verbandsfestigkeit
6
ByLayer
62
256
370
-1
100
AcDbLine
10
0
20
-26.9000
11
100
21
-26.9000
0
HATCH
5
65C
100
AcDbEntity
8
verbandsfestigkeit
6
ByLayer
62
105
100
AcDbHatch
10
0
20
0
30
0
210
0
220
0
230
1
2
SOLID
70
1
71
0
91
1
92
3
72
0
73
1
93
4
10
5.7000
20
-26.9000
10
6.9999
20
-26.9000
10
6.9999
20
-27.6500
10
5.7000
20
-27.6500
97
0
75
0
76
0
98
0
0
LWPOLYLINE
5
65D
100
AcDbEntity
8
verbandsfestigkeit
6
ByLayer
62
7
370
-1
100
AcDbPolyline
90
4
70
1
10
5.7000
20
-26.9000
10
6.9999
20
-26.9000
10
6.9999
20
-27.6500
10
5.7000
20
-27.6500
0
TEXT
5
65E
100
AcDbEntity
8
verbandsfestigkeit
6
ByLayer
62
7
100
AcDbText
7
Arial
10
6.3500
20
-27.2750
40
0.2700
41
0.7500
1
72%
7
Arial
72
1
11
6.3500
21
-27.2750
100
AcDbText
73
2
0
HATCH
5
65F
100
AcDbEntity
8
verbandsfestigkeit
6
ByLayer
62
105
100
AcDbHatch
10
0
20
0
30
0
210
0
220
0
230
1
2
SOLID
70
1
71
0
91
1
92
3
72
0
73
1
93
4
10
23.7000
20
-26.9000
10
25
20
-26.9000
10
25
20
-27.6500
10
23.7000
20
-27.6500
97
0
75
0
76
0
98
0
0
LWPOLYLINE
5
660
100
AcDbEntity
8
verbandsfestigkeit
6
ByLayer
62
7
370
-1
100
AcDbPolyline
90
4
70
1
10
23.7000
20
-26.9000
10
25
20
-26.9000
10
25
20
-27.6500
10
23.7000
20
-27.6500
0
TEXT
5
661
100
AcDbEntity
8
verbandsfestigkeit
6
ByLayer
62
7
100
AcDbText
7
Arial
10
24.3500
20
-27.2750
40
0.2700
41
0.7500
1
59%
7
Arial
72
1
11
24.3500
21
-27.2750
100
AcDbText
73
2
0
HATCH
5
662
100
AcDbEntity
8
verbandsfestigkeit
6
ByLayer
62
105
100
AcDbHatch
10
0
20
0
30
0
210
0
220
0
230
1
2
SOLID
70
1
71
0
91
1
92
3
72
0
73
1
93
4
10
31.7000
20
-26.9000
10
33
20
-26.9000
10
33
20
-27.6500
10
31.7000
20
-27.6500
97
0
75
0
76
0
98
0
0
LWPOLYLINE
5
663
100
AcDbEntity
8
verbandsfestigkeit
6
ByLayer
62
7
370
-1
100
AcDbPolyline
90
4
70
1
10
31.7000
20
-26.9000
10
33
20
-26.9000
10
33
20
-27.6500
10
31.7000
20
-27.6500
0
TEXT
5
664
100
AcDbEntity
8
verbandsfestigkeit
6
ByLayer
62
7
100
AcDbText
7
Arial
10
32.3500
20
-27.2750
40
0.2700
41
0.7500
1
100%
7
Arial
72
1
11
32.3500
21
-27.2750
100
AcDbText
73
2
0
HATCH
5
665
100
AcDbEntity
8
verbandsfestigkeit
6
ByLayer
62
105
100
AcDbHatch
10
0
20
0
30
0
210
0
220
0
230
1
2
SOLID
70
1
71
0
91
1
92
3
72
0
73
1
93
4
10
35.7000
20
-26.9000
10
37
20
-26.9000
10
37
20
-27.6500
10
35.7000
20
-27.6500
97
0
75
0
76
0
98
0
0
LWPOLYLINE
5
666
100
AcDbEntity
8
verbandsfestigkeit
6
ByLayer
62
7
370
-1
100
AcDbPolyline
90
4
70
1
10
35.7000
20
-26.9000
10
37
20
-26.9000
10
37
20
-27.6500
10
35.7000
20
-27.6500
0
TEXT
5
667
100
AcDbEntity
8
verbandsfestigkeit
6
ByLayer
62
7
100
AcDbText
7
Arial
10
36.3500
20
-27.2750
40
0.2700
41
0.7500
1
52%
7
Arial
72
1
11
36.3500
21
-27.2750
100
AcDbText
73
2
0
HATCH
5
668
100
AcDbEntity
8
verbandsfestigkeit
6
ByLayer
62
105
100
AcDbHatch
10
0
20
0
30
0
210
0
220
0
230
1
2
SOLID
70
1
71
0
91
1
92
3
72
0
73
1
93
4
10
43.7000
20
-26.9000
10
45
20
-26.9000
10
45
20
-27.6500
10
43.7000
20
-27.6500
97
0
75
0
76
0
98
0
0
LWPOLYLINE
5
669
100
AcDbEntity
8
verbandsfestigkeit
6
ByLayer
62
7
370
-1
100
AcDbPolyline
90
4
70
1
10
43.7000
20
-26.9000
10
45
20
-26.9000
10
45
20
-27.6500
10
43.7000
20
-27.6500
0
TEXT
5
66A
100
AcDbEntity
8
verbandsfestigkeit
6
ByLayer
62
7
100
AcDbText
7
Arial
10
44.3500
20
-27.2750
40
0.2700
41
0.7500
1
20%
7
Arial
72
1
11
44.3500
21
-27.2750
100
AcDbText
73
2
0
HATCH
5
66B
100
AcDbEntity
8
verbandsfestigkeit
6
ByLayer
62
105
100
AcDbHatch
10
0
20
0
30
0
210
0
220
0
230
1
2
SOLID
70
1
71
0
91
1
92
3
72
0
73
1
93
4
10
54.7000
20
-26.9000
10
56
20
-26.9000
10
56
20
-27.6500
10
54.7000
20
-27.6500
97
0
75
0
76
0
98
0
0
LWPOLYLINE
5
66C
100
AcDbEntity
8
verbandsfestigkeit
6
ByLayer
62
7
370
-1
100
AcDbPolyline
90
4
70
1
10
54.7000
20
-26.9000
10
56
20
-26.9000
10
56
20
-27.6500
10
54.7000
20
-27.6500
0
TEXT
5
66D
100
AcDbEntity
8
verbandsfestigkeit
6
ByLayer
62
7
100
AcDbText
7
Arial
10
55.3500
20
-27.2750
40
0.2700
41
0.7500
1
39%
7
Arial
72
1
11
55.3500
21
-27.2750
100
AcDbText
73
2
0
HATCH
5
66E
100
AcDbEntity
8
verbandsfestigkeit
6
ByLayer
62
105
100
AcDbHatch
10
0
20
0
30
0
210
0
220
0
230
1
2
SOLID
70
1
71
0
91
1
92
3
72
0
73
1
93
4
10
61.7000
20
-26.9000
10
63
20
-26.9000
10
63
20
-27.6500
10
61.7000
20
-27.6500
97
0
75
0
76
0
98
0
0
LWPOLYLINE
5
66F
100
AcDbEntity
8
verbandsfestigkeit
6
ByLayer
62
7
370
-1
100
AcDbPolyline
90
4
70
1
10
61.7000
20
-26.9000
10
63
20
-26.9000
10
63
20
-27.6500
10
61.7000
20
-27.6500
0
TEXT
5
670
100
AcDbEntity
8
verbandsfestigkeit
6
ByLayer
62
7
100
AcDbText
7
Arial
10
62.3500
20
-27.2750
40
0.2700
41
0.7500
1
12%
7
Arial
72
1
11
62.3500
21
-27.2750
100
AcDbText
73
2
0
HATCH
5
671
100
AcDbEntity
8
verbandsfestigkeit
6
ByLayer
62
105
100
AcDbHatch
10
0
20
0
30
0
210
0
220
0
230
1
2
SOLID
70
1
71
0
91
1
92
3
72
0
73
1
93
4
10
65.7000
20
-26.9000
10
67
20
-26.9000
10
67
20
-27.6500
10
65.7000
20
-27.6500
97
0
75
0
76
0
98
0
0
LWPOLYLINE
5
672
100
AcDbEntity
8
verbandsfestigkeit
6
ByLayer
62
7
370
-1
100
AcDbPolyline
90
4
70
1
10
65.7000
20
-26.9000
10
67
20
-26.9000
10
67
20
-27.6500
10
65.7000
20
-27.6500
0
TEXT
5
673
100
AcDbEntity
8
verbandsfestigkeit
6
ByLayer
62
7
100
AcDbText
7
Arial
10
66.3500
20
-27.2750
40
0.2700
41
0.7500
1
100%
7
Arial
72
1
11
66.3500
21
-27.2750
100
AcDbText
73
2
0
HATCH
5
674
100
AcDbEntity
8
verbandsfestigkeit
6
ByLayer
62
105
100
AcDbHatch
10
0
20
0
30
0
210
0
220
0
230
1
2
SOLID
70
1
71
0
91
1
92
3
72
0
73
1
93
4
10
69.7000
20
-26.9000
10
71
20
-26.9000
10
71
20
-27.6500
10
69.7000
20
-27.6500
97
0
75
0
76
0
98
0
0
LWPOLYLINE
5
675
100
AcDbEntity
8
verbandsfestigkeit
6
ByLayer
62
7
370
-1
100
AcDbPolyline
90
4
70
1
10
69.7000
20
-26.9000
10
71
20
-26.9000
10
71
20
-27.6500
10
69.7000
20
-27.6500
0
TEXT
5
676
100
AcDbEntity
8
verbandsfestigkeit
6
ByLayer
62
7
100
AcDbText
7
Arial
10
70.3500
20
-27.2750
40
0.2700
41
0.7500
1
100%
7
Arial
72
1
11
70.3500
21
-27.2750
100
AcDbText
73
2
0
HATCH
5
677
100
AcDbEntity
8
verbandsfestigkeit
6
ByLayer
62
105
100
AcDbHatch
10
0
20
0
30
0
210
0
220
0
230
1
2
SOLID
70
1
71
0
91
1
92
3
72
0
73
1
93
4
10
85.7000
20
-26.9000
10
87
20
-26.9000
10
87
20
-27.6500
10
85.7000
20
-27.6500
97
0
75
0
76
0
98
0
0
LWPOLYLINE
5
678
100
AcDbEntity
8
verbandsfestigkeit
6
ByLayer
62
7
370
-1
100
AcDbPolyline
90
4
70
1
10
85.7000
20
-26.9000
10
87
20
-26.9000
10
87
20
-27.6500
10
85.7000
20
-27.6500
0
TEXT
5
679
100
AcDbEntity
8
verbandsfestigkeit
6
ByLayer
62
7
100
AcDbText
7
Arial
10
86.3500
20
-27.2750
40
0.2700
41
0.7500
1
54%
7
Arial
72
1
11
86.3500
21
-27.2750
100
AcDbText
73
2
0
HATCH
5
67A
100
AcDbEntity
8
verbandsfestigkeit
6
ByLayer
62
105
100
AcDbHatch
10
0
20
0
30
0
210
0
220
0
230
1
2
SOLID
70
1
71
0
91
1
92
3
72
0
73
1
93
4
10
93.7000
20
-26.9000
10
95
20
-26.9000
10
95
20
-27.6500
10
93.7000
20
-27.6500
97
0
75
0
76
0
98
0
0
LWPOLYLINE
5
67B
100
AcDbEntity
8
verbandsfestigkeit
6
ByLayer
62
7
370
-1
100
AcDbPolyline
90
4
70
1
10
93.7000
20
-26.9000
10
95
20
-26.9000
10
95
20
-27.6500
10
93.7000
20
-27.6500
0
TEXT
5
67C
100
AcDbEntity
8
verbandsfestigkeit
6
ByLayer
62
7
100
AcDbText
7
Arial
10
94.3500
20
-27.2750
40
0.2700
41
0.7500
1
23%
7
Arial
72
1
11
94.3500
21
-27.2750
100
AcDbText
73
2
0
HATCH
5
67D
100
AcDbEntity
8
verbandsfestigkeit
6
ByLayer
62
105
100
AcDbHatch
10
0
20
0
30
0
210
0
220
0
230
1
2
SOLID
70
1
71
0
91
1
92
3
72
0
73
1
93
4
10
95
20
-26.9000
10
96.3000
20
-26.9000
10
96.3000
20
-27.6500
10
95
20
-27.6500
97
0
75
0
76
0
98
0
0
LWPOLYLINE
5
67E
100
AcDbEntity
8
verbandsfestigkeit
6
ByLayer
62
7
370
-1
100
AcDbPolyline
90
4
70
1
10
95
20
-26.9000
10
96.3000
20
-26.9000
10
96.3000
20
-27.6500
10
95
20
-27.6500
0
TEXT
5
67F
100
AcDbEntity
8
verbandsfestigkeit
6
ByLayer
62
7
100
AcDbText
7
Arial
10
95.6500
20
-27.2750
40
0.2700
41
0.7500
1
40%
7
Arial
72
1
11
95.6500
21
-27.2750
100
AcDbText
73
2
0
LINE
5
680
100
AcDbEntity
8
verbandsfestigkeit
6
ByLayer
62
256
370
-1
100
AcDbLine
10
0
20
-27.6500
11
100
21
-27.6500
0
HATCH
5
681
100
AcDbEntity
8
verbandsfestigkeit
6
ByLayer
62
105
100
AcDbHatch
10
0
20
0
30
0
210
0
220
0
230
1
2
SOLID
70
1
71
0
91
1
92
3
72
0
73
1
93
4
10
23.7000
20
-27.6500
10
25
20
-27.6500
10
25
20
-28.4000
10
23.7000
20
-28.4000
97
0
75
0
76
0
98
0
0
LWPOLYLINE
5
682
100
AcDbEntity
8
verbandsfestigkeit
6
ByLayer
62
7
370
-1
100
AcDbPolyline
90
4
70
1
10
23.7000
20
-27.6500
10
25
20
-27.6500
10
25
20
-28.4000
10
23.7000
20
-28.4000
0
TEXT
5
683
100
AcDbEntity
8
verbandsfestigkeit
6
ByLayer
62
7
100
AcDbText
7
Arial
10
24.3500
20
-28.0250
40
0.2700
41
0.7500
1
41%
7
Arial
72
1
11
24.3500
21
-28.0250
100
AcDbText
73
2
0
HATCH
5
684
100
AcDbEntity
8
verbandsfestigkeit
6
ByLayer
62
105
100
AcDbHatch
10
0
20
0
30
0
210
0
220
0
230
1
2
SOLID
70
1
71
0
91
1
92
3
72
0
73
1
93
4
10
77.7000
20
-27.6500
10
79
20
-27.6500
10
79
20
-28.4000
10
77.7000
20
-28.4000
97
0
75
0
76
0
98
0
0
LWPOLYLINE
5
685
100
AcDbEntity
8
verbandsfestigkeit
6
ByLayer
62
7
370
-1
100
AcDbPolyline
90
4
70
1
10
77.7000
20
-27.6500
10
79
20
-27.6500
10
79
20
-28.4000
10
77.7000
20
-28.4000
0
TEXT
5
686
100
AcDbEntity
8
verbandsfestigkeit
6
ByLayer
62
7
100
AcDbText
7
Arial
10
78.3500
20
-28.0250
40
0.2700
41
0.7500
1
25%
7
Arial
72
1
11
78.3500
21
-28.0250
100
AcDbText
73
2
0
HATCH
5
687
100
AcDbEntity
8
verbandsfestigkeit
6
ByLayer
62
105
100
AcDbHatch
10
0
20
0
30
0
210
0
220
0
230
1
2
SOLID
70
1
71
0
91
1
92
3
72
0
73
1
93
4
10
81.7000
20
-27.6500
10
83
20
-27.6500
10
83
20
-28.4000
10
81.7000
20
-28.4000
97
0
75
0
76
0
98
0
0
LWPOLYLINE
5
688
100
AcDbEntity
8
verbandsfestigkeit
6
ByLayer
62
7
370
-1
100
AcDbPolyline
90
4
70
1
10
81.7000
20
-27.6500
10
83
20
-27.6500
10
83
20
-28.4000
10
81.7000
20
-28.4000
0
TEXT
5
689
100
AcDbEntity
8
verbandsfestigkeit
6
ByLayer
62
7
100
AcDbText
7
Arial
10
82.3500
20
-28.0250
40
0.2700
41
0.7500
1
44%
7
Arial
72
1
11
82.3500
21
-28.0250
100
AcDbText
73
2
0
HATCH
5
68A
100
AcDbEntity
8
verbandsfestigkeit
6
ByLayer
62
105
100
AcDbHatch
10
0
20
0
30
0
210
0
220
0
230
1
2
SOLID
70
1
71
0
91
1
92
3
72
0
73
1
93
4
10
89.7000
20
-27.6500
10
91
20
-27.6500
10
91
20
-28.4000
10
89.7000
20
-28.4000
97
0
75
0
76
0
98
0
0
LWPOLYLINE
5
68B
100
AcDbEntity
8
verbandsfestigkeit
6
ByLayer
62
7
370
-1
100
AcDbPolyline
90
4
70
1
10
89.7000
20
-27.6500
10
91
20
-27.6500
10
91
20
-28.4000
10
89.7000
20
-28.4000
0
TEXT
5
68C
100
AcDbEntity
8
verbandsfestigkeit
6
ByLayer
62
7
100
AcDbText
7
Arial
10
90.3500
20
-28.0250
40
0.2700
41
0.7500
1
100%
7
Arial
72
1
11
90.3500
21
-28.0250
100
AcDbText
73
2
0
HATCH
5
68D
100
AcDbEntity
8
verbandsfestigkeit
6
ByLayer
62
105
100
AcDbHatch
10
0
20
0
30
0
210
0
220
0
230
1
2
SOLID
70
1
71
0
91
1
92
3
72
0
73
1
93
4
10
93.7000
20
-27.6500
10
95
20
-27.6500
10
95
20
-28.4000
10
93.7000
20
-28.4000
97
0
75
0
76
0
98
0
0
LWPOLYLINE
5
68E
100
AcDbEntity
8
verbandsfestigkeit
6
ByLayer
62
7
370
-1
100
AcDbPolyline
90
4
70
1
10
93.7000
20
-27.6500
10
95
20
-27.6500
10
95
20
-28.4000
10
93.7000
20
-28.4000
0
TEXT
5
68F
100
AcDbEntity
8
verbandsfestigkeit
6
ByLayer
62
7
100
AcDbText
7
Arial
10
94.3500
20
-28.0250
40
0.2700
41
0.7500
1
77%
7
Arial
72
1
11
94.3500
21
-28.0250
100
AcDbText
73
2
0
HATCH
5
690
100
AcDbEntity
8
verbandsfestigkeit
6
ByLayer
62
105
100
AcDbHatch
10
0
20
0
30
0
210
0
220
0
230
1
2
SOLID
70
1
71
0
91
1
92
3
72
0
73
1
93
4
10
95
20
-27.6500
10
96.3000
20
-27.6500
10
96.3000
20
-28.4000
10
95
20
-28.4000
97
0
75
0
76
0
98
0
0
LWPOLYLINE
5
691
100
AcDbEntity
8
verbandsfestigkeit
6
ByLayer
62
7
370
-1
100
AcDbPolyline
90
4
70
1
10
95
20
-27.6500
10
96.3000
20
-27.6500
10
96.3000
20
-28.4000
10
95
20
-28.4000
0
TEXT
5
692
100
AcDbEntity
8
verbandsfestigkeit
6
ByLayer
62
7
100
AcDbText
7
Arial
10
95.6500
20
-28.0250
40
0.2700
41
0.7500
1
60%
7
Arial
72
1
11
95.6500
21
-28.0250
100
AcDbText
73
2
0
LINE
5
693
100
AcDbEntity
8
verbandsfestigkeit
6
ByLayer
62
256
370
-1
100
AcDbLine
10
0
20
-28.4000
11
100
21
-28.4000
0
HATCH
5
694
100
AcDbEntity
8
verbandsfestigkeit
6
ByLayer
62
105
100
AcDbHatch
10
0
20
0
30
0
210
0
220
0
230
1
2
SOLID
70
1
71
0
91
1
92
3
72
0
73
1
93
4
10
5.7000
20
-28.4000
10
6.9999
20
-28.4000
10
6.9999
20
-29.1500
10
5.7000
20
-29.1500
97
0
75
0
76
0
98
0
0
LWPOLYLINE
5
695
100
AcDbEntity
8
verbandsfestigkeit
6
ByLayer
62
7
370
-1
100
AcDbPolyline
90
4
70
1
10
5.7000
20
-28.4000
10
6.9999
20
-28.4000
10
6.9999
20
-29.1500
10
5.7000
20
-29.1500
0
TEXT
5
696
100
AcDbEntity
8
verbandsfestigkeit
6
ByLayer
62
7
100
AcDbText
7
Arial
10
6.3500
20
-28.7750
40
0.2700
41
0.7500
1
28%
7
Arial
72
1
11
6.3500
21
-28.7750
100
AcDbText
73
2
0
LINE
5
697
100
AcDbEntity
8
verbandsfestigkeit
6
ByLayer
62
256
370
-1
100
AcDbLine
10
0
20
-29.1500
11
100
21
-29.1500
0
LWPOLYLINE
5
698
100
AcDbEntity
8
verbandsfestigkeit
6
ByLayer
62
7
370
30
100
AcDbPolyline
90
4
70
1
10
105.2000
20
-26.1500
10
110.7000
20
-26.1500
10
110.7000
20
-29.1500
10
105.2000
20
-29.1500
0
LWPOLYLINE
5
699
100
AcDbEntity
8
verbandsfestigkeit
6
ByLayer
62
7
370
30
100
AcDbPolyline
90
4
70
1
10
100
20
-26.1500
10
105.2000
20
-26.1500
10
105.2000
20
-29.1500
10
100
20
-29.1500
0
TEXT
5
69A
100
AcDbEntity
8
verbandsfestigkeit
6
ByLayer
62
7
100
AcDbText
7
Arial
10
110.5000
20
-27.6500
40
0.4500
41
0.7500
1
Verbandsfestigkeit
7
Arial
72
2
11
110.5000
21
-27.6500
100
AcDbText
73
2
0
TEXT
5
69B
100
AcDbEntity
8
verbandsfestigkeit
6
ByLayer
62
7
100
AcDbText
7
Arial
10
100.2000
20
-26.5250
40
0.2700
41
0.7500
1
keine Teilbwglk.
7
Arial
11
100.2000
21
-26.5250
100
AcDbText
73
2
0
LINE
5
69C
100
AcDbEntity
8
verbandsfestigkeit
6
ByLayer
62
256
370
-1
100
AcDbLine
10
100
20
-26.9000
11
105.2000
21
-26.9000
0
TEXT
5
69D
100
AcDbEntity
8
verbandsfestigkeit
6
ByLayer
62
7
100
AcDbText
7
Arial
10
100.2000
20
-27.2750
40
0.2700
41
0.7500
1
ger. Teilbwglk.
7
Arial
11
100.2000
21
-27.2750
100
AcDbText
73
2
0
LINE
5
69E
100
AcDbEntity
8
verbandsfestigkeit
6
ByLayer
62
256
370
-1
100
AcDbLine
10
100
20
-27.6500
11
105.2000
21
-27.6500
0
TEXT
5
69F
100
AcDbEntity
8
verbandsfestigkeit
6
ByLayer
62
7
100
AcDbText
7
Arial
10
100.2000
20
-28.0250
40
0.2700
41
0.7500
1
deutl. Teilbwglk.
7
Arial
11
100.2000
21
-28.0250
100
AcDbText
73
2
0
LINE
5
6A0
100
AcDbEntity
8
verbandsfestigkeit
6
ByLayer
62
256
370
-1
100
AcDbLine
10
100
20
-28.4000
11
105.2000
21
-28.4000
0
TEXT
5
6A1
100
AcDbEntity
8
verbandsfestigkeit
6
ByLayer
62
7
100
AcDbText
7
Arial
10
100.2000
20
-28.7750
40
0.2700
41
0.7500
1
sehr hohe Teilbwglk.
7
Arial
11
100.2000
21
-28.7750
100
AcDbText
73
2
0
LINE
5
6A2
100
AcDbEntity
8
verbandsfestigkeit
6
ByLayer
62
256
370
-1
100
AcDbLine
10
100
20
-29.1500
11
105.2000
21
-29.1500
0
LWPOLYLINE
5
6A3
100
AcDbEntity
8
verbandsfestigkeit
6
ByLayer
62
7
370
30
100
AcDbPolyline
90
4
70
1
10
0
20
-26.1500
10
100
20
-26.1500
10
100
20
-29.1500
10
0
20
-29.1500
0
LWPOLYLINE
5
6A5
100
AcDbEntity
8
gebirge
6
ByLayer
62
7
370
30
100
AcDbPolyline
90
4
70
1
10
-10.7000
20
-29.1500
10
-5.2000
20
-29.1500
10
-5.2000
20
-32.1500
10
-10.7000
20
-32.1500
0
LWPOLYLINE
5
6A6
100
AcDbEntity
8
gebirge
6
ByLayer
62
7
370
30
100
AcDbPolyline
90
4
70
1
10
-5.2000
20
-29.1500
10
0
20
-29.1500
10
0
20
-32.1500
10
-5.2000
20
-32.1500
0
TEXT
5
6A7
100
AcDbEntity
8
gebirge
6
ByLayer
62
7
100
AcDbText
7
Arial
10
-10.5000
20
-30.6500
40
0.4500
41
0.7500
1
Gebirge
7
Arial
11
-10.5000
21
-30.6500
100
AcDbText
73
2
0
LWPOLYLINE
5
6A8
100
AcDbEntity
8
gebirge
6
ByLayer
62
7
370
30
100
AcDbPolyline
90
4
70
1
10
105.2000
20
-29.1500
10
110.7000
20
-29.1500
10
110.7000
20
-32.1500
10
105.2000
20
-32.1500
0
LWPOLYLINE
5
6A9
100
AcDbEntity
8
gebirge
6
ByLayer
62
7
370
30
100
AcDbPolyline
90
4
70
1
10
100
20
-29.1500
10
105.2000
20
-29.1500
10
105.2000
20
-32.1500
10
100
20
-32.1500
0
TEXT
5
6AA
100
AcDbEntity
8
gebirge
6
ByLayer
62
7
100
AcDbText
7
Arial
10
110.5000
20
-30.6500
40
0.4500
41
0.7500
1
Gebirge
7
Arial
72
2
11
110.5000
21
-30.6500
100
AcDbText
73
2
0
LWPOLYLINE
5
6AB
100
AcDbEntity
8
gebirge
6
ByLayer
62
7
370
30
100
AcDbPolyline
90
4
70
1
10
0
20
-29.1500
10
100
20
-29.1500
10
100
20
-32.1500
10
0
20
-32.1500
0
LWPOLYLINE
5
6AD
100
AcDbEntity
8
grid
6
ByLayer
62
7
370
30
100
AcDbPolyline
90
4
70
1
10
-10.7000
20
0
10
-5.2000
20
0
10
-5.2000
20
0
10
-10.7000
20
0
0
LWPOLYLINE
5
6AE
100
AcDbEntity
8
grid
6
ByLayer
62
7
370
30
100
AcDbPolyline
90
4
70
1
10
-5.2000
20
0
10
0
20
0
10
0
20
0
10
-5.2000
20
0
0
LWPOLYLINE
5
6AF
100
AcDbEntity
8
grid
6
ByLayer
62
7
370
30
100
AcDbPolyline
90
4
70
1
10
105.2000
20
0
10
110.7000
20
0
10
110.7000
20
0
10
105.2000
20
0
0
LWPOLYLINE
5
6B0
100
AcDbEntity
8
grid
6
ByLayer
62
7
370
30
100
AcDbPolyline
90
4
70
1
10
100
20
0
10
105.2000
20
0
10
105.2000
20
0
10
100
20
0
0
LWPOLYLINE
5
6B1
100
AcDbEntity
8
grid
6
ByLayer
62
7
370
30
100
AcDbPolyline
90
4
70
1
10
0
20
0
10
100
20
0
10
100
20
0
10
0
20
0
0
ENDSEC
0
SECTION
2
OBJECTS
0
DICTIONARY
5
115
100
AcDbDictionary
281
1
3
ACAD_GROUP
350
116
0
DICTIONARY
5
116
330
115
100
AcDbDictionary
281
1
0
ENDSEC
0
EOF
